  0
SECTION
  2
HEADER
  9
$ACADVER
  1
AC1009
  9
$INSBASE
 10
3038.9272012994838406
 20
188.4647803569978066
 30
0.0
  9
$EXTMIN
 10
3032.9336092356561494
 20
176.4302915663668045
 30
-0.0000000000112498
  9
$EXTMAX
 10
3059.4945247351101898
 20
189.9180868358052976
 30
0.0000000000002956
  9
$LIMMIN
 10
0.0
 20
0.0
  9
$LIMMAX
 10
11.6929133858000007
 20
8.2677165353999982
  9
$ORTHOMODE
 70
     0
  9
$REGENMODE
 70
     1
  9
$FILLMODE
 70
     1
  9
$QTEXTMODE
 70
     0
  9
$MIRRTEXT
 70
     0
  9
$DRAGMODE
 70
     2
  9
$LTSCALE
 40
0.6431102362
  9
$OSMODE
 70
  4095
  9
$ATTMODE
 70
     1
  9
$TEXTSIZE
 40
0.2
  9
$TRACEWID
 40
0.05
  9
$TEXTSTYLE
  7
STANDARD
  9
$CLAYER
  8
0
  9
$CELTYPE
  6
BYLAYER
  9
$CECOLOR
 62
   256
  9
$DIMSCALE
 40
1.0
  9
$DIMASZ
 40
0.1875
  9
$DIMEXO
 40
0.0625
  9
$DIMDLI
 40
0.4443307087
  9
$DIMRND
 40
0.0
  9
$DIMDLE
 40
0.0
  9
$DIMEXE
 40
0.125
  9
$DIMTP
 40
0.01
  9
$DIMTM
 40
0.01
  9
$DIMTXT
 40
2.0
  9
$DIMCEN
 40
0.1052362205
  9
$DIMTSZ
 40
0.0
  9
$DIMTOL
 70
     1
  9
$DIMLIM
 70
     0
  9
$DIMTIH
 70
     1
  9
$DIMTOH
 70
     1
  9
$DIMSE1
 70
     0
  9
$DIMSE2
 70
     0
  9
$DIMTAD
 70
     0
  9
$DIMZIN
 70
     0
  9
$DIMBLK
  1

  9
$DIMASO
 70
     1
  9
$DIMSHO
 70
     1
  9
$DIMPOST
  1
\X
  9
$DIMAPOST
  1

  9
$DIMALT
 70
     1
  9
$DIMALTD
 70
     2
  9
$DIMALTF
 40
25.3999999999999986
  9
$DIMLFAC
 40
1.0
  9
$DIMTOFL
 70
     0
  9
$DIMTVP
 40
0.0
  9
$DIMTIX
 70
     0
  9
$DIMSOXD
 70
     0
  9
$DIMSAH
 70
     0
  9
$DIMBLK1
  1

  9
$DIMBLK2
  1

  9
$DIMSTYLE
  2
STANDARD
  9
$DIMCLRD
 70
     0
  9
$DIMCLRE
 70
     0
  9
$DIMCLRT
 70
     0
  9
$DIMTFAC
 40
1.0
  9
$DIMGAP
 40
0.09
  9
$LUNITS
 70
     2
  9
$LUPREC
 70
     4
  9
$SKETCHINC
 40
0.1
  9
$FILLETRAD
 40
0.0
  9
$AUNITS
 70
     0
  9
$AUPREC
 70
     0
  9
$MENU
  1
.
  9
$ELEVATION
 40
0.0
  9
$PELEVATION
 40
0.0
  9
$THICKNESS
 40
0.0
  9
$LIMCHECK
 70
     0
  9
$BLIPMODE
 70
     0
  9
$CHAMFERA
 40
0.0
  9
$CHAMFERB
 40
0.0
  9
$SKPOLY
 70
     0
  9
$TDCREATE
 40
2458060.468368056230247
  9
$TDUPDATE
 40
2459537.9477199069224298
  9
$TDINDWG
 40
0.7318936343
  9
$TDUSRTIMER
 40
0.7318936343
  9
$USRTIMER
 70
     1
  9
$ANGBASE
 50
0.0
  9
$ANGDIR
 70
     0
  9
$PDMODE
 70
     0
  9
$PDSIZE
 40
0.3125
  9
$PLINEWID
 40
0.0
  9
$COORDS
 70
     1
  9
$SPLFRAME
 70
     0
  9
$SPLINETYPE
 70
     6
  9
$SPLINESEGS
 70
     8
  9
$ATTDIA
 70
     1
  9
$ATTREQ
 70
     1
  9
$HANDLING
 70
     1
  9
$HANDSEED
  5
3AFC2
  9
$SURFTAB1
 70
     6
  9
$SURFTAB2
 70
     6
  9
$SURFTYPE
 70
     6
  9
$SURFU
 70
     6
  9
$SURFV
 70
     6
  9
$UCSNAME
  2

  9
$UCSORG
 10
0.0
 20
0.0
 30
0.0
  9
$UCSXDIR
 10
1.0
 20
0.0
 30
0.0
  9
$UCSYDIR
 10
0.0
 20
1.0
 30
0.0
  9
$PUCSNAME
  2

  9
$PUCSORG
 10
0.0
 20
0.0
 30
0.0
  9
$PUCSXDIR
 10
1.0
 20
0.0
 30
0.0
  9
$PUCSYDIR
 10
0.0
 20
1.0
 30
0.0
  9
$USERI1
 70
     0
  9
$USERI2
 70
     0
  9
$USERI3
 70
     0
  9
$USERI4
 70
     0
  9
$USERI5
 70
     0
  9
$USERR1
 40
0.0
  9
$USERR2
 40
0.0
  9
$USERR3
 40
0.0
  9
$USERR4
 40
0.0
  9
$USERR5
 40
0.0
  9
$WORLDVIEW
 70
     1
  9
$SHADEDGE
 70
     3
  9
$SHADEDIF
 70
    70
  9
$TILEMODE
 70
     1
  9
$MAXACTVP
 70
    64
  9
$PLIMCHECK
 70
     0
  9
$PEXTMIN
 10
1.0000000000000000E+20
 20
1.0000000000000000E+20
 30
1.0000000000000000E+20
  9
$PEXTMAX
 10
-1.0000000000000000E+20
 20
-1.0000000000000000E+20
 30
-1.0000000000000000E+20
  9
$PLIMMIN
 10
0.0
 20
0.0
  9
$PLIMMAX
 10
12.0
 20
9.0
  9
$UNITMODE
 70
     0
  9
$VISRETAIN
 70
     1
  9
$PLINEGEN
 70
     0
  9
$PSLTSCALE
 70
     1
  0
ENDSEC
  0
SECTION
  2
TABLES
  0
TABLE
  2
VPORT
 70
     1
  0
VPORT
  2
*ACTIVE
 70
     0
 10
0.0
 20
0.0
 11
1.0
 21
1.0
 12
-257.4790482489925125
 22
-12.08732237480171
 13
0.0
 23
0.0
 14
1.0
 24
1.0
 15
0.0
 25
0.0
 16
0.0
 26
0.0
 36
96.5995694866707311
 17
3303.693115234375
 27
195.2615115758877096
 37
0.0
 40
15.9741237337536592
 41
1.67063492063492
 42
50.0
 43
0.0
 44
0.0
 50
0.0
 51
0.0
 71
     0
 72
   100
 73
     1
 74
     1
 75
     0
 76
     0
 77
     0
 78
     0
  0
ENDTAB
  0
TABLE
  2
LTYPE
 70
     3
  0
LTYPE
  2
CONTINUOUS
 70
     0
  3
Solid line
 72
    65
 73
     0
 40
0.0
  0
LTYPE
  2
PHANTOM2
 70
     0
  3
___ _ _ ___ _ _ ___ _ _ ___ _ _
 72
    65
 73
     6
 40
1.25
 49
0.625
 49
-0.125
 49
0.125
 49
-0.125
 49
0.125
 49
-0.125
  0
ENDTAB
  0
TABLE
  2
LAYER
 70
     2
  0
LAYER
  2
0
 70
     0
 62
   255
  6
CONTINUOUS
  0
LAYER
  2
DEFPOINTS
 70
     0
 62
     7
  6
CONTINUOUS
  0
ENDTAB
  0
TABLE
  2
STYLE
 70
     1
  0
STYLE
  2
STANDARD
 70
     0
 40
0.0
 41
0.8
 50
0.0
 71
     0
 42
0.2
  3
txt
  4

  0
ENDTAB
  0
TABLE
  2
VIEW
 70
     0
  0
ENDTAB
  0
TABLE
  2
UCS
 70
     0
  0
ENDTAB
  0
TABLE
  2
APPID
 70
     9
  0
APPID
  2
ACAD
 70
     0
  0
APPID
  2
ACAD_MLEADERVER
 70
     0
  0
APPID
  2
ACAD_EXEMPT_FROM_CAD_STANDARDS
 70
     0
  0
APPID
  2
ACAD_NAV_VCDISPLAY
 70
     0
  0
APPID
  2
ACAECLAYERSTANDARD
 70
     0
  0
APPID
  2
ACCMTRANSPARENCY
 70
     0
  0
APPID
  2
ACAD_DSTYLE_DIMJAG
 70
     0
  0
APPID
  2
ACAD_DSTYLE_DIMTALN
 70
     0
  0
APPID
  2
ACDBATTR
 70
     0
  0
ENDTAB
  0
TABLE
  2
DIMSTYLE
 70
     2
  0
DIMSTYLE
  2
STANDARD
 70
     0
  3

  4

  5

  6

  7

 40
1.0
 41
0.1875
 42
0.0625
 43
0.38
 44
0.125
 45
0.0
 46
0.0
 47
0.01
 48
0.01
140
0.15625
141
0.09
142
0.0
143
25.3999999999999986
144
1.0
145
0.0
146
1.0
147
0.09
 71
     1
 72
     0
 73
     1
 74
     1
 75
     0
 76
     0
 77
     0
 78
     4
170
     0
171
     2
172
     0
173
     0
174
     0
175
     0
176
     0
177
     0
178
     0
  0
ENDTAB
  0
ENDSEC
  0
SECTION
  2
BLOCKS
  0
BLOCK
  8
0
  2
$MODEL_SPACE
 70
     0
 10
0.0
 20
0.0
 30
0.0
  3
$MODEL_SPACE
  1

  0
ENDBLK
  5
21
  8
0
  0
BLOCK
 67
     1
  8
0
  2
$PAPER_SPACE
 70
     0
 10
0.0
 20
0.0
 30
0.0
  3
$PAPER_SPACE
  1

  0
ENDBLK
  5
1D
 67
     1
  8
0
  0
ENDSEC
  0
SECTION
  2
ENTITIES
  0
ATTDEF
  5
340AC
  8
DEFPOINTS
 10
3038.9227058541478073
 20
188.4629426677902018
 30
0.0
 40
0.001
  1
K-10294T-4
  3

  2
MODELNUMBER
 70
     0
1001
ACDBATTR
1070
     0
1070
     1
  0
ATTDEF
  5
340AD
  8
DEFPOINTS
 10
3038.9227058541478073
 20
188.4612760011235082
 30
0.0
 40
0.001
  1
FORTE
  3

  2
TRADENAME
 70
     0
1001
ACDBATTR
1070
     0
1070
     1
  0
ATTDEF
  5
340AE
  8
DEFPOINTS
 10
3038.9227058541478073
 20
188.4596093344567862
 30
0.0
 40
0.001
  1
DECK MOUNT BATH AND SHOWER FAUCET
  3

  2
PRODUCT
 70
     0
1001
ACDBATTR
1070
     0
1070
     1
  0
LINE
  5
3AE59
  8
0
 10
3039.9357867079338575
 20
187.2129492853559043
 30
0.0
 11
3039.9357897775339552
 21
187.2129573207558906
 31
0.0
  0
LINE
  5
3AE5A
  8
0
 10
3039.9939467109338693
 20
187.3571035832559062
 30
0.0
 11
3039.9939542094339231
 21
187.3571203404559071
 31
0.0
  0
LINE
  5
3AE5B
  8
0
 10
3038.494570774733802
 20
188.744248670455903
 30
0.0
 11
3038.4945793515339574
 21
188.744221274755887
 31
0.0
  0
LINE
  5
3AE5C
  8
0
 10
3038.5167099462350961
 20
188.6836870842558938
 30
0.0
 11
3038.516706070734017
 21
188.6836966181558921
 31
0.0
  0
LINE
  5
3AE5D
  8
0
 10
3033.5433784546507923
 20
188.0026371466558999
 30
0.0
 11
3033.543354171851206
 21
188.0026405913559131
 31
0.0
  0
LINE
  5
3AE5E
  8
0
 10
3033.5433428139508578
 20
188.9288337720558957
 30
0.0
 11
3033.5433662117511631
 21
188.9288370881558876
 31
0.0
  0
LINE
  5
3AE5F
  8
0
 10
3056.6081696564901904
 20
188.1457647055100892
 30
0.0
 11
3056.6081696564901904
 21
188.327212864755893
 31
0.0
  0
LINE
  5
3AE60
  8
0
 10
3056.6906480864909099
 20
188.4282278988559085
 30
0.0
 11
3056.6906480864909099
 21
188.2574651022559067
 31
0.0
  0
LINE
  5
3AE61
  8
0
 10
3056.9784471320899684
 20
188.374958570655906
 30
0.0
 11
3056.9784471320899684
 21
188.5457213671558918
 31
0.0
  0
LINE
  5
3AE62
  8
0
 10
3057.1434039919899988
 20
188.5457213671558918
 30
0.0
 11
3057.1434039919899988
 21
188.374958570655906
 31
0.0
  0
LINE
  5
3AE63
  8
0
 10
3057.4312030375899667
 20
188.2574651022559067
 30
0.0
 11
3057.4312030375899667
 21
188.4282278988559085
 31
0.0
  0
LINE
  5
3AE64
  8
0
 10
3057.5136814674910966
 20
188.327212864755893
 30
0.0
 11
3057.5136814674910966
 21
188.1466494148106108
 31
0.0
  0
ARC
  5
3AE65
  8
0
 10
3035.9984225879511541
 20
188.4657385049559082
 30
0.0
 40
1.3400000000000001
 50
193.2155782154040935
 51
166.7024847117178012
  0
ARC
  5
3AE66
  8
0
 10
3035.9984225879511541
 20
188.4657385049559082
 30
0.0
 40
0.6899999999999999
 50
200.0999055450679123
 51
159.9004568832642121
  0
ARC
  5
3AE67
  8
0
 10
3035.9984225879511541
 20
188.4657385049559082
 30
0.0
 40
0.599329856
 50
202.7084169692473097
 51
157.2907239021072883
  0
ARC
  5
3AE68
  8
0
 10
3057.0608787001901874
 20
187.8719747920559087
 30
0.0
 40
0.6787705142
 50
89.9960443383984483
 51
96.9753589545021981
  0
ARC
  5
3AE69
  8
0
 10
3057.060972423891144
 20
187.7012119955558944
 30
0.0
 40
0.6787705142
 50
83.0246410454978161
 51
90.0039556616015659
  0
ARC
  5
3AE6A
  8
0
 10
3057.0611244485908173
 20
187.8744705950558966
 30
0.0
 40
0.6762747388000001
 50
83.0117465141108113
 51
90.0168501928965838
  0
ARC
  5
3AE6B
  8
0
 10
3057.0607266754909688
 20
187.7037077984558948
 30
0.0
 40
0.6762747388000001
 50
89.9831498071034162
 51
96.9882534858891745
  0
ARC
  5
3AE6C
  8
0
 10
3057.0609255619901887
 20
188.4657385049559082
 30
0.0
 40
1.141732283499999
 50
306.2379351004254886
 51
233.8147512715719074
  0
ARC
  5
3AE6D
  8
0
 10
3057.0609255619901887
 20
188.4657385049559082
 30
0.0
 40
0.6517279142
 50
322.663186616145083
 51
217.4130211591929083
  0
ARC
  5
3AE6E
  8
0
 10
3057.0609255619901887
 20
188.4657385049559082
 30
0.0
 40
0.5472440945
 50
325.8262626582587131
 51
214.1737373417412869
  0
ARC
  5
3AE6F
  8
0
 10
3057.0609255619901887
 20
188.4657385049559082
 30
0.0
 40
0.4527559055
 50
345.9051485942027853
 51
194.1464942410337073
  0
ARC
  5
3AE70
  8
0
 10
3033.6081846401411894
 20
188.4659278149372028
 30
0.0
 40
0.4668768125469215
 50
94.2094858132671646
 51
257.9012623509782998
  0
ARC
  5
3AE71
  8
0
 10
3033.6388168598450648
 20
188.6329166376301032
 30
0.0
 40
0.6365968970302883
 50
258.3556601283253258
 51
280.1044843840817862
  0
ARC
  5
3AE72
  8
0
 10
3033.6351608291997763
 20
188.1657750497641928
 30
0.0
 40
0.7682154528714542
 50
81.3673609793392245
 51
94.5727974830221143
  0
ARC
  5
3AE73
  8
0
 10
3082.5898279271327738
 20
490.5077294313992979
 30
0.0
 40
305.511458615724905
 50
260.801179225836222
 51
260.9804502144996832
  0
ARC
  5
3AE74
  8
0
 10
3035.724629490692223
 20
195.2193594993148906
 30
0.0
 40
6.527235131092981
 50
260.9182661407742785
 51
266.713629316713309
  0
ARC
  5
3AE75
  8
0
 10
3012.1934419705421533
 20
-194.5105194758425
 30
0.0
 40
383.9124117559712204
 50
86.5163644129206659
 51
86.5419079880473845
  0
ARC
  5
3AE76
  8
0
 10
3009.5359393362059564
 20
340.1024755500712899
 30
0.0
 40
154.0117645918805067
 50
279.0458726697827956
 51
279.4016179068412953
  0
ARC
  5
3AE77
  8
0
 10
3035.7970101391711069
 20
180.8442821753342002
 30
0.0
 40
7.3978226971339822
 50
93.4607125625104231
 51
98.5719964975334477
  0
ARC
  5
3AE78
  8
0
 10
3013.4655862647350659
 20
550.4958990866729209
 30
0.0
 40
362.9277237997288807
 50
273.4570831575857142
 51
273.4841225587555869
  0
ARC
  5
3AE79
  8
0
 10
3035.19092298015903
 20
182.125017847701514
 30
0.0
 40
6.5757826760787346
 50
83.946971564678492
 51
87.1202743393806287
  0
ARC
  5
3AE7A
  8
0
 10
3035.8030832823969831
 20
187.869959803542514
 30
0.0
 40
0.798324182659775
 50
68.9970030727614443
 51
84.1586728467919443
  0
ARC
  5
3AE7B
  8
0
 10
3036.0074065443568543
 20
188.3918821973257138
 30
0.0
 40
0.2378730577598115
 50
38.1521543431587915
 51
69.8840611056307637
  0
ARC
  5
3AE7C
  8
0
 10
3036.0934940253969216
 20
188.4655666389872124
 30
0.0
 40
0.1247484298123588
 50
349.8857018068425191
 51
35.9641271428153573
  0
ARC
  5
3AE7D
  8
0
 10
3036.0753026271008821
 20
188.4734354794483124
 30
0.0
 40
0.1441108963249316
 50
307.5121087531176158
 51
348.0756332176457022
  0
ARC
  5
3AE7E
  8
0
 10
3035.8770450658439586
 20
188.78229149091311
 30
0.0
 40
0.5107579259919151
 50
276.7351586653616096
 51
304.0539575980920972
  0
ARC
  5
3AE7F
  8
0
 10
3035.322039127951939
 20
192.946664400473793
 30
0.0
 40
4.711901354248913
 50
272.4250130197942212
 51
277.4985423173586128
  0
ARC
  5
3AE80
  8
0
 10
3039.3800104939527955
 20
181.7767566845060117
 30
0.0
 40
1.3696613830889861
 50
179.5793072529498886
 51
217.4408775683502881
  0
ARC
  5
3AE81
  8
0
 10
3038.9256185003200699
 20
181.4677494115981062
 30
0.0
 40
0.8216052963430704
 50
219.5961182873552104
 51
298.5955631784331104
  0
ARC
  5
3AE82
  8
0
 10
3038.793406201210928
 20
181.6232828844887877
 30
0.0
 40
1.022295277188537
 50
300.9301424876392161
 51
346.9928561909745781
  0
ARC
  5
3AE83
  8
0
 10
3037.6737100596401433
 20
181.8886926342026129
 30
0.0
 40
2.1730086967515412
 50
346.8191742081723987
 51
6.4363702363394237
  0
ARC
  5
3AE84
  8
0
 10
2989.823392665728079
 20
176.6877043526409068
 30
0.0
 40
50.3051341193662935
 50
6.2133585768941026
 51
7.6337413095388671
  0
ARC
  5
3AE85
  8
0
 10
3046.5980318456640816
 20
181.5893108385155017
 30
0.0
 40
8.5899166384236931
 50
170.1256402614747003
 51
178.6825186966412105
  0
ARC
  5
3AE86
  8
0
 10
3024.3745294979130449
 20
184.8291683312216094
 30
0.0
 40
13.8737928236945898
 50
352.6836796800575939
 51
2.50818802898252
  0
ARC
  5
3AE87
  8
0
 10
3053.428879486139067
 20
184.8232862445375986
 30
0.0
 40
13.8227666040977404
 50
176.7776040272595139
 51
186.0340555880478917
  0
ARC
  5
3AE88
  8
0
 10
3044.8906120221349738
 20
185.4314842060533124
 30
0.0
 40
5.2653501069746476
 50
160.2243870473853065
 51
178.1628134498936049
  0
ARC
  5
3AE89
  8
0
 10
3032.4258948210399467
 20
185.3242357271068101
 30
0.0
 40
5.8102172150666442
 50
1.1053104649738541
 51
18.1369245356286406
  0
ARC
  5
3AE8A
  8
0
 10
3044.0560154605600474
 20
185.5783564210383929
 30
0.0
 40
4.4326267359686131
 50
151.4206043437096127
 51
158.3604823068544079
  0
ARC
  5
3AE8B
  8
0
 10
3035.617175520219007
 20
186.3878156003798949
 30
0.0
 40
2.4464749961191541
 50
17.73115345076274
 51
30.5987415307842809
  0
ARC
  5
3AE8C
  8
0
 10
3038.6458495984120418
 20
188.4479005828781055
 30
0.0
 40
1.69243338282172
 50
333.7297145702851253
 51
5.0594528557126797
  0
ARC
  5
3AE8D
  8
0
 10
3038.8282667281309841
 20
188.4529377593084973
 30
0.0
 40
1.5103233426425631
 50
5.4793994632635501
 51
47.9482678394575075
  0
ARC
  5
3AE8E
  8
0
 10
3038.9268196407579126
 20
188.5168209244459092
 30
0.0
 40
1.397207190809199
 50
49.1945972159918909
 51
118.0530702003157018
  0
ARC
  5
3AE8F
  8
0
 10
3038.9609642695941147
 20
188.4885898355101972
 30
0.0
 40
1.438278105006557
 50
118.7245786369976059
 51
168.6189673716538096
  0
ARC
  5
3AE90
  8
0
 10
3039.1932620963320915
 20
188.4377495997713936
 30
0.0
 40
1.676045376705896
 50
168.4822051630015949
 51
208.6901318439064141
  0
ARC
  5
3AE91
  8
0
 10
3038.9484856127492094
 20
188.855802077932907
 30
0.0
 40
0.4728302147706225
 50
112.6083438189606056
 51
177.77278925157961
  0
ARC
  5
3AE92
  8
0
 10
3038.9196104305970039
 20
188.8483106334637966
 30
0.0
 40
0.4695753242332931
 50
42.1080213612394232
 51
109.0020716755571044
  0
ARC
  5
3AE93
  8
0
 10
3038.8706112147438034
 20
188.8503007982857014
 30
0.0
 40
0.5057590975626328
 50
354.903758704029201
 51
38.2156782210923396
  0
ARC
  5
3AE94
  8
0
 10
3038.4169064800221349
 20
189.0286252544912031
 30
0.0
 40
0.9831475413008176
 50
316.1909223197997107
 51
346.8749369598394878
  0
ARC
  5
3AE95
  8
0
 10
3038.8025549052258611
 20
188.8486979043447889
 30
0.0
 40
0.3275348675484362
 50
175.5383591665184895
 51
206.1750159363390935
  0
ARC
  5
3AE96
  8
0
 10
3039.5761367490031262
 20
189.0991445157766009
 30
0.0
 40
1.1382372188964771
 50
200.3017126856211974
 51
218.0712582464944944
  0
ARC
  5
3AE97
  8
0
 10
3038.9242585889910515
 20
188.5633038394826997
 30
0.0
 40
0.2952971806839258
 50
214.2144217481884141
 51
313.197879593911523
  0
ARC
  5
3AE98
  8
0
 10
3057.2107637738831727
 20
188.3314088173189873
 30
0.0
 40
0.2775136582830377
 50
14.0066235404334698
 51
54.9286489628397234
  0
ARC
  5
3AE99
  8
0
 10
3057.0841856029578594
 20
188.162972969383901
 30
0.0
 40
0.4881466881989334
 50
54.1288716413752766
 51
82.7699080349731418
  0
ARC
  5
3AE9A
  8
0
 10
3057.0615121721139076
 20
188.0761702998973135
 30
0.0
 40
0.5772286549264494
 50
81.6215245780057614
 51
113.4920980313524979
  0
ARC
  5
3AE9B
  8
0
 10
3056.9722460415291607
 20
188.2730297091952139
 30
0.0
 40
0.3611183864338253
 50
112.9534792257220062
 51
143.9029467248253127
  0
ARC
  5
3AE9C
  8
0
 10
3056.8787915976517979
 20
188.3455511171883074
 30
0.0
 40
0.2429047648738101
 50
144.7378948435909933
 51
167.7273549401164132
  0
ARC
  5
3AE9D
  8
0
 10
3057.2579123751002044
 20
188.2693732430504951
 30
0.0
 40
0.2569593527699845
 50
17.2304252519470786
 51
30.1864956904612214
  0
ARC
  5
3AE9E
  8
0
 10
3057.1931032931120171
 20
188.2274393747237866
 30
0.0
 40
0.3340849726941241
 50
30.81424735857237
 51
54.0000632310606221
  0
ARC
  5
3AE9F
  8
0
 10
3057.0825374895539426
 20
188.067204524316594
 30
0.0
 40
0.5287278359299786
 50
54.5130557572071268
 51
84.5425009262288683
  0
ARC
  5
3AEA0
  8
0
 10
3057.0610905037151497
 20
187.9713214640599972
 30
0.0
 40
0.6263354520117888
 50
83.4236052714260836
 51
107.0786539437659002
  0
ARC
  5
3AEA1
  8
0
 10
3057.0142339111439469
 20
188.1167072431375118
 30
0.0
 40
0.4736044053487066
 50
106.8254670101380981
 51
130.3040590247993862
  0
ARC
  5
3AEA2
  8
0
 10
3056.9011128698730317
 20
188.2510886494625879
 30
0.0
 40
0.2979511955154238
 50
130.4300398157620009
 51
161.6469599277450016
  0
ARC
  5
3AEA3
  8
0
 10
3057.2164602025782187
 20
188.1687119133972885
 30
0.0
 40
0.3368427406042461
 50
28.0699269939580915
 51
50.3931139290133174
  0
ARC
  5
3AEA4
  8
0
 10
3056.8806844181171982
 20
187.4909653259483093
 30
0.0
 40
1.0869829257905741
 50
59.5713607932894789
 51
76.0133306311306001
  0
ARC
  5
3AEA5
  8
0
 10
3057.2462595182028053
 20
187.4784905350639121
 30
0.0
 40
1.1003204638797071
 50
104.0869969630759044
 51
120.3283116299581934
  0
ARC
  5
3AEA6
  8
0
 10
3056.9062872510448869
 20
188.1679800630963086
 30
0.0
 40
0.337978084063597
 50
129.6448594327214039
 51
151.8920995762375981
  0
ARC
  5
3AEA7
  8
0
 10
3056.9062872503568542
 20
187.9972172670576072
 30
0.0
 40
0.3379780831925718
 50
129.6448594036766053
 51
151.8920996052212047
  0
ARC
  5
3AEA8
  8
0
 10
3056.4474430880968612
 20
189.2520796088338102
 30
0.0
 40
1.0239173247575599
 50
283.7404542230735274
 51
292.2137074463063868
  0
ARC
  5
3AEA9
  8
0
 10
3056.3687773559681773
 20
189.4324424109152858
 30
0.0
 40
1.22064298977609
 50
292.4314487639181266
 51
299.9646827954467199
  0
ARC
  5
3AEAA
  8
0
 10
3057.6939215746911032
 20
189.3122186030952889
 30
0.0
 40
1.086980210155603
 50
239.5713400942873079
 51
256.0133512958847746
  0
ARC
  5
3AEAB
  8
0
 10
3057.2155653722588795
 20
187.9972182658281952
 30
0.0
 40
0.3379762907494019
 50
28.1078707412500215
 51
50.3552519221156629
  0
ARC
  5
3AEAC
  8
0
 10
3057.0610197268720185
 20
187.7277040270215878
 30
0.0
 40
0.6193447754897156
 50
68.9892354355081068
 51
111.4484551958674956
  0
ARC
  5
3AEAD
  8
0
 10
3057.1205543543851491
 20
187.8864095809558989
 30
0.0
 40
0.4498472762742994
 50
43.3537126904530581
 51
68.8202869441575871
  0
ARC
  5
3AEAF
  8
0
 10
3056.1348277330130259
 20
178.4146429710991129
 30
0.0
 40
1.4360071169313671
 50
122.1122095730810031
 51
178.4449214447406007
  0
ARC
  5
3AEB0
  8
0
 10
3057.0303911185701509
 20
178.6623860385390117
 30
0.0
 40
2.3403720069498268
 50
185.1178718143997912
 51
226.4667231237907004
  0
ARC
  5
3AEB1
  8
0
 10
3057.0231423122068009
 20
179.1739465877354007
 30
0.0
 40
2.729772439048344
 50
233.9942221048075908
 51
270.8033339732941727
  0
ARC
  5
3AEB2
  8
0
 10
3056.1851553978040101
 20
178.8545305787349946
 30
0.0
 40
1.1246803988469429
 50
136.3421970564729122
 51
228.0728357685607079
  0
ARC
  5
3AEB3
  8
0
 10
3057.0626446760561521
 20
179.8817286655780947
 30
0.0
 40
2.4754628033710508
 50
228.8484930534081911
 51
269.9715319331863839
  0
ARC
  5
3AEB4
  8
0
 10
3056.1729814411869484
 20
178.9262544461851121
 30
0.0
 40
1.0672445976684379
 50
138.677430450492011
 51
224.5184119420462139
  0
ARC
  5
3AEB5
  8
0
 10
3057.0675229885259796
 20
179.8998125074049881
 30
0.0
 40
2.3886133333549271
 50
226.1251298127245093
 51
269.8534803729767759
  0
ARC
  5
3AEB6
  8
0
 10
3056.7829625882282016
 20
178.3833010847635023
 30
0.0
 40
1.883860320974575
 50
109.5807900859665978
 51
138.5256296154668121
  0
ARC
  5
3AEB7
  8
0
 10
3055.7561231025501911
 20
180.69846258839641
 30
0.0
 40
0.6695353470419181
 50
306.206285107814324
 51
343.1668299984988266
  0
ARC
  5
3AEB8
  8
0
 10
3057.0660787140081993
 20
180.7207007147106026
 30
0.0
 40
0.8116088698685796
 50
220.0603396707882098
 51
269.6707416593832818
  0
ARC
  5
3AEB9
  8
0
 10
3056.7558921517079398
 20
180.4038920028735902
 30
0.0
 40
0.3727759899805632
 50
137.727324290058192
 51
213.4611224743946991
  0
ARC
  5
3AEBA
  8
0
 10
3056.966006764615031
 20
180.2274085521520988
 30
0.0
 40
0.6470532627695591
 50
109.6034795440840952
 51
138.6789448962578888
  0
ARC
  5
3AEBB
  8
0
 10
3056.8661328501689241
 20
180.4390263681069086
 30
0.0
 40
0.1336383655271551
 50
151.2979971599471867
 51
211.862289526373786
  0
ARC
  5
3AEBC
  8
0
 10
3057.0321393669451027
 20
180.5894650449137941
 30
0.0
 40
0.3563124667203853
 50
218.3304605743026059
 51
261.4176120541113733
  0
ARC
  5
3AEBD
  8
0
 10
3057.0617664627820886
 20
180.6939311513343114
 30
0.0
 40
0.477287128167297
 50
231.5534111680026115
 51
269.9577744210607193
  0
ARC
  5
3AEBE
  8
0
 10
3056.8659860488141931
 20
180.438513751309614
 30
0.0
 40
0.1556105486869441
 50
138.7930902877650965
 51
229.5346079900274958
  0
ARC
  5
3AEBF
  8
0
 10
3056.9007244402109791
 20
180.3519799907001016
 30
0.0
 40
0.2551485151654418
 50
126.5116150272621951
 51
174.2411031772344927
  0
ARC
  5
3AEC0
  8
0
 10
3056.9198594419549408
 20
180.3397312476162995
 30
0.0
 40
0.2658492745135203
 50
130.0169130311346919
 51
159.1527120692348944
  0
LINE
  5
3AEC1
  8
0
 10
3056.6714147139509805
 20
180.4343412570559906
 30
0.0
 11
3056.6714147139509805
 21
180.2935615692256874
 31
0.0
  0
ARC
  5
3AEC2
  8
0
 10
3056.8964280287600559
 20
180.3832480912315077
 30
0.0
 40
0.2496286635968539
 50
126.2231023682772957
 51
181.3005595163755004
  0
ARC
  5
3AEC3
  8
0
 10
3056.9086189912709415
 20
180.408470497565105
 30
0.0
 40
0.2635714912333662
 50
186.7300247414185037
 51
218.3238206980628888
  0
ARC
  5
3AEC4
  8
0
 10
3057.0107325039211901
 20
180.5207012775528881
 30
0.0
 40
0.4140153486301137
 50
221.7477026784168004
 51
260.1372192501004861
  0
ARC
  5
3AEC5
  8
0
 10
3056.9664010738738398
 20
180.5296862034695948
 30
0.0
 40
0.4301053395288412
 50
212.2343338915663935
 51
257.2675444257062054
  0
ARC
  5
3AEC6
  8
0
 10
3056.8580340307780716
 20
180.4384417214623966
 30
0.0
 40
0.2904195845531184
 50
112.0694313069821959
 51
208.4080558923980107
  0
ARC
  5
3AEC7
  8
0
 10
3056.8730674444591386
 20
187.8538262689937142
 30
0.0
 40
0.3942066574603627
 50
125.7401025343751968
 51
174.2965170498582097
  0
ARC
  5
3AEC8
  8
0
 10
3057.0490755328710293
 20
187.5954515613954925
 30
0.0
 40
0.7067768447919665
 50
88.999657497559383
 51
125.0868752378927979
  0
ARC
  5
3AEC9
  8
0
 10
3057.0275310435458778
 20
187.5216535690113915
 30
0.0
 40
0.660909606515947
 50
87.0612580507662557
 51
145.8143852216184939
  0
ARC
  5
3AECA
  8
0
 10
3059.6143530047747845
 20
186.861745221637392
 30
0.0
 40
3.2988739294388991
 50
161.7834736516105067
 51
177.1796765004806957
  0
ARC
  5
3AECB
  8
0
 10
3068.3855887980430452
 20
187.2077759227248919
 30
0.0
 40
12.0675124302957801
 50
180.8722900049776001
 51
191.5169194606638996
  0
ARC
  5
3AECC
  8
0
 10
3054.3969609662349285
 20
184.4484652915039078
 30
0.0
 40
2.192196516072999
 50
341.5454689847866234
 51
9.1855102105882658
  0
ARC
  5
3AECD
  8
0
 10
3057.0075076862722199
 20
183.492747343805803
 30
0.0
 40
0.5920939588329106
 50
104.1589343371628047
 51
153.7610767447594924
  0
ARC
  5
3AECE
  8
0
 10
3056.8194791211840311
 20
183.6467103646733108
 30
0.0
 40
0.3595968371541539
 50
162.5538007023041871
 51
233.7756937562649
  0
ARC
  5
3AECF
  8
0
 10
3056.8886497096091261
 20
183.4370278717734948
 30
0.0
 40
0.2929256310733823
 50
140.3911270033491974
 51
241.5082426300220959
  0
ARC
  5
3AED0
  8
0
 10
3057.0616816157748872
 20
183.2048810079398038
 30
0.0
 40
0.5783108458655432
 50
90.0264431295868661
 51
133.5851721089719888
  0
ARC
  5
3AED1
  8
0
 10
3056.9049390929899346
 20
183.4158332013905124
 30
0.0
 40
0.2077611319733539
 50
175.1830313602060869
 51
221.3246917130271925
  0
ARC
  5
3AED2
  8
0
 10
3056.9439259825057889
 20
183.391622459166399
 30
0.0
 40
0.2495161420580915
 50
119.5265602077261065
 51
170.3893882331420002
  0
ARC
  5
3AED3
  8
0
 10
3057.0653771492420674
 20
183.186171070277112
 30
0.0
 40
0.4881594868703887
 50
90.4650802003125705
 51
120.0460507724002071
  0
ARC
  5
3AED4
  8
0
 10
3056.712702803250977
 20
183.4357746287433883
 30
0.0
 40
0.0150000115874541
 50
189.5751187101203925
 51
269.9999816665866774
  0
ARC
  5
3AED5
  8
0
 10
3056.7352917920729851
 20
183.4357740876926073
 30
0.0
 40
0.0149994705372797
 50
269.9994739217348751
 51
352.5894460306002998
  0
LINE
  5
3AED6
  8
0
 10
3056.7127027984511187
 20
183.4207746171558995
 30
0.0
 11
3056.7352916543509309
 21
183.4207746171558995
 31
0.0
  0
ARC
  5
3AED7
  8
0
 10
3056.710621977019855
 20
183.3973194519288086
 30
0.0
 40
0.0147256012547619
 50
217.9894766189800919
 51
270.0
  0
ARC
  5
3AED8
  8
0
 10
3056.7348316139209601
 20
183.4001812985659967
 30
0.0
 40
0.0174457565430282
 50
276.5841999166675009
 51
323.8281852717257152
  0
LINE
  5
3AED9
  8
0
 10
3056.710621977019855
 20
183.3825938506739988
 30
0.0
 11
3056.7368320003702138
 21
183.3828506068483932
 31
0.0
  0
ARC
  5
3AEDA
  8
0
 10
3057.0446404041222195
 20
183.2676412251545059
 30
0.0
 40
0.3617705453856439
 50
101.0235027309970945
 51
130.1227670472617035
  0
ARC
  5
3AEDB
  8
0
 10
3056.9276389004958219
 20
183.4075174823815928
 30
0.0
 40
0.1794142852778313
 50
130.3377246333591017
 51
171.5636440028710012
  0
ARC
  5
3AEDC
  8
0
 10
3056.8879849228728744
 20
183.4161451985283122
 30
0.0
 40
0.200624671232195
 50
135.1756099824281137
 51
226.1171612154861066
  0
ARC
  5
3AEDD
  8
0
 10
3057.0513790226159472
 20
183.2415630574571992
 30
0.0
 40
0.4396695646028363
 50
99.266330128894495
 51
134.0491439244052003
  0
LINE
  5
3AEDE
  8
0
 10
3056.697911766346806
 20
183.433279518536807
 30
0.0
 11
3056.6977027984507913
 21
183.4797295663607031
 31
0.0
  0
ARC
  5
3AEDF
  8
0
 10
3056.9878747750799448
 20
187.9116221046984094
 30
0.0
 40
0.4214179263448438
 50
111.3359882710496009
 51
137.4398605926319021
  0
ARC
  5
3AEE0
  8
0
 10
3057.0729395427811141
 20
180.8222643097199125
 30
0.0
 40
0.7400213179292208
 50
254.2128764946731962
 51
269.1076598324950737
  0
ARC
  5
3AEE1
  8
0
 10
3057.0730193060371676
 20
180.8151325810511878
 30
0.0
 40
0.7148478626971871
 50
259.2608645027046919
 51
269.0699871082342725
  0
ARC
  5
3AEE2
  8
0
 10
3057.0693860642218169
 20
180.7608620556952985
 30
0.0
 40
0.531467722462751
 50
260.2045016715953238
 51
269.1406028357698119
  0
ARC
  5
3AEE3
  8
0
 10
3057.0671828928147988
 20
183.149371280492602
 30
0.0
 40
0.4821689045963937
 50
90.6854448404149451
 51
100.9655096412614057
  0
ARC
  5
3AEE4
  8
0
 10
3057.0648419282201758
 20
183.0844154152034093
 30
0.0
 40
0.5970553118317902
 50
90.3288907871362454
 51
98.1130248509604854
  0
ARC
  5
3AEE5
  8
0
 10
3057.1071530480771798
 20
183.1620541169355079
 30
0.0
 40
0.9372474808901353
 50
92.7971852109484558
 51
105.1203733289821969
  0
LINE
  5
3AEE6
  8
0
 10
3056.7489147139508532
 20
183.4294971365291929
 30
0.0
 11
3056.7489147139508532
 21
180.3967470770668058
 31
0.0
  0
ARC
  5
3AEE7
  8
0
 10
3056.8783844188919829
 20
180.4274660672801929
 30
0.0
 40
0.1330641231039209
 50
166.6523767010995982
 51
223.6967107802248051
  0
ARC
  5
3AEE8
  8
0
 10
3057.9880016948891353
 20
178.4146429710991129
 30
0.0
 40
1.4360071169313671
 50
1.5550785552593349
 51
57.8877904269189472
  0
ARC
  5
3AEE9
  8
0
 10
3057.5237870011310406
 20
178.4159760017720089
 30
0.0
 40
1.90006573032488
 50
310.2449578997255912
 51
1.135010065882432
  0
ARC
  5
3AEEA
  8
0
 10
3057.055981417357998
 20
179.4621744551456004
 30
0.0
 40
3.0177368879854951
 50
270.1031584738365154
 51
304.180174169157624
  0
ARC
  5
3AEEB
  8
0
 10
3057.9376740300967867
 20
178.8545305787349946
 30
0.0
 40
1.1246803988469429
 50
311.9271642314392921
 51
43.6578029435270381
  0
ARC
  5
3AEEC
  8
0
 10
3057.060184751846009
 20
179.8817286655780947
 30
0.0
 40
2.4754628033710508
 50
270.0284680668135024
 51
311.1515069465917804
  0
ARC
  5
3AEED
  8
0
 10
3057.9498479867152128
 20
178.9262544461851121
 30
0.0
 40
1.0672445976684379
 50
315.4815880579537861
 51
41.3225695495080032
  0
ARC
  5
3AEEE
  8
0
 10
3057.0553064393761815
 20
179.8998125074049881
 30
0.0
 40
2.3886133333549271
 50
270.1465196270232241
 51
313.8748701872755191
  0
ARC
  5
3AEEF
  8
0
 10
3057.3398668396739595
 20
178.3833010847635023
 30
0.0
 40
1.883860320974575
 50
41.4743703845331524
 51
70.419209914033388
  0
ARC
  5
3AEF0
  8
0
 10
3058.3667063253510605
 20
180.69846258839641
 30
0.0
 40
0.6695353470419181
 50
196.8331700015012018
 51
233.7937148921857045
  0
ARC
  5
3AEF1
  8
0
 10
3057.0567507138939618
 20
180.7207007147106026
 30
0.0
 40
0.8116088698685796
 50
270.3292583406167182
 51
319.9396603292116765
  0
ARC
  5
3AEF2
  8
0
 10
3057.3669372761942213
 20
180.4038920028735902
 30
0.0
 40
0.3727759899805632
 50
326.5388775256051872
 51
42.2726757099418222
  0
ARC
  5
3AEF3
  8
0
 10
3057.1568226632871301
 20
180.2274085521520988
 30
0.0
 40
0.6470532627695591
 50
41.3210551037408891
 51
70.3965204559158764
  0
ARC
  5
3AEF4
  8
0
 10
3057.2566965777327823
 20
180.4390263681069086
 30
0.0
 40
0.1336383655271551
 50
328.1377104736261003
 51
28.7020028400527885
  0
ARC
  5
3AEF5
  8
0
 10
3057.0906900609570584
 20
180.5894650449137941
 30
0.0
 40
0.3563124667203853
 50
278.5823879458886267
 51
321.6695394256973941
  0
ARC
  5
3AEF6
  8
0
 10
3057.0610629651200725
 20
180.6939311513343114
 30
0.0
 40
0.477287128167297
 50
270.0422255789392807
 51
308.4465888319974169
  0
ARC
  5
3AEF7
  8
0
 10
3057.2568433790879681
 20
180.438513751309614
 30
0.0
 40
0.1556105486869441
 50
310.4653920099725042
 51
41.2069097122348609
  0
ARC
  5
3AEF8
  8
0
 10
3057.222104987691182
 20
180.3519799907001016
 30
0.0
 40
0.2551485151654418
 50
5.7588968227654398
 51
53.4883849727377267
  0
ARC
  5
3AEF9
  8
0
 10
3057.202969985945856
 20
180.3397312476162995
 30
0.0
 40
0.2658492745135203
 50
20.8472879307650913
 51
49.9830869688653081
  0
LINE
  5
3AEFA
  8
0
 10
3057.4514147139511806
 20
180.4343412570559906
 30
0.0
 11
3057.4514147139511806
 21
180.2935615692256874
 31
0.0
  0
ARC
  5
3AEFB
  8
0
 10
3057.2264013991421052
 20
180.3832480912315077
 30
0.0
 40
0.2496286635968539
 50
358.699440483624528
 51
53.7768976317226901
  0
ARC
  5
3AEFC
  8
0
 10
3057.2142104366312196
 20
180.408470497565105
 30
0.0
 40
0.2635714912333662
 50
321.6761793019371112
 51
353.2699752585814963
  0
ARC
  5
3AEFD
  8
0
 10
3057.1120969239818805
 20
180.5207012775528881
 30
0.0
 40
0.4140153486301137
 50
279.8627807498994002
 51
318.252297321583228
  0
ARC
  5
3AEFE
  8
0
 10
3057.1564283540278666
 20
180.5296862034695948
 30
0.0
 40
0.4301053395288412
 50
282.7324555742936809
 51
327.7656661084336065
  0
ARC
  5
3AEFF
  8
0
 10
3057.2647953971240895
 20
180.4384417214623966
 30
0.0
 40
0.2904195845531184
 50
331.591944107602103
 51
67.9305686930177757
  0
ARC
  5
3AF00
  8
0
 10
3057.2497619834430225
 20
187.8538262689937142
 30
0.0
 40
0.3942066574603627
 50
5.7034829501417343
 51
54.2598974656248032
  0
ARC
  5
3AF01
  8
0
 10
3057.0737538950311318
 20
187.5954515613954925
 30
0.0
 40
0.7067768447919665
 50
54.9131247621071665
 51
91.000342502440617
  0
ARC
  5
3AF02
  8
0
 10
3057.0952983843558286
 20
187.5216535690113915
 30
0.0
 40
0.660909606515947
 50
34.1856147783814635
 51
92.9387419492337443
  0
ARC
  5
3AF03
  8
0
 10
3054.5084764231269219
 20
186.861745221637392
 30
0.0
 40
3.2988739294388991
 50
2.8203234995192861
 51
18.2165263483895501
  0
ARC
  5
3AF04
  8
0
 10
3045.7372406298582064
 20
187.2077759227248919
 30
0.0
 40
12.0675124302957801
 50
348.4830805393360151
 51
359.1277099950224283
  0
ARC
  5
3AF05
  8
0
 10
3059.7258684616667779
 20
184.4484652915039078
 30
0.0
 40
2.192196516072999
 50
170.8144897894117094
 51
198.4545310152118134
  0
ARC
  5
3AF06
  8
0
 10
3057.1153217416299412
 20
183.492747343805803
 30
0.0
 40
0.5920939588329106
 50
26.2389232552405396
 51
75.8410656628371811
  0
ARC
  5
3AF07
  8
0
 10
3057.3033503067172205
 20
183.6467103646733108
 30
0.0
 40
0.3595968371541539
 50
306.2243062437352137
 51
17.4461992976957987
  0
ARC
  5
3AF08
  8
0
 10
3057.2341797182921255
 20
183.4370278717734948
 30
0.0
 40
0.2929256310733823
 50
298.4917573699777904
 51
39.6088729966507813
  0
ARC
  5
3AF09
  8
0
 10
3057.0611478121259097
 20
183.2048810079398038
 30
0.0
 40
0.5783108458655432
 50
46.414827891027933
 51
89.9735568704131055
  0
ARC
  5
3AF0A
  8
0
 10
3057.2178903349122265
 20
183.4158332013905124
 30
0.0
 40
0.2077611319733539
 50
318.6753082869727223
 51
4.81696863979385
  0
ARC
  5
3AF0B
  8
0
 10
3057.1789034453959175
 20
183.391622459166399
 30
0.0
 40
0.2495161420580915
 50
9.6106117668580264
 51
60.4734397922738509
  0
ARC
  5
3AF0C
  8
0
 10
3057.0574522786591842
 20
183.186171070277112
 30
0.0
 40
0.4881594868703887
 50
59.9539492275997716
 51
89.5349197996874437
  0
ARC
  5
3AF0D
  8
0
 10
3057.4101266246511841
 20
183.4357746287433883
 30
0.0
 40
0.0150000115874541
 50
270.0000183334133226
 51
350.4248812898795791
  0
ARC
  5
3AF0E
  8
0
 10
3057.387537635829176
 20
183.4357740876926073
 30
0.0
 40
0.0149994705372797
 50
187.4105539693997002
 51
270.0005260782651249
  0
LINE
  5
3AF0F
  8
0
 10
3057.4101266294510424
 20
183.4207746171558995
 30
0.0
 11
3057.3875377735507755
 21
183.4207746171558995
 31
0.0
  0
ARC
  5
3AF10
  8
0
 10
3057.4122074508818514
 20
183.3973194519288086
 30
0.0
 40
0.0147256012547619
 50
270.0
 51
322.0105233810198797
  0
ARC
  5
3AF11
  8
0
 10
3057.387997813981201
 20
183.4001812985659967
 30
0.0
 40
0.0174457565430282
 50
216.1718147282743132
 51
263.4158000833323854
  0
LINE
  5
3AF12
  8
0
 10
3057.4122074508818514
 20
183.3825938506739988
 30
0.0
 11
3057.3859974275319473
 21
183.3828506068483932
 31
0.0
  0
ARC
  5
3AF13
  8
0
 10
3057.0781890237799416
 20
183.2676412251545059
 30
0.0
 40
0.3617705453856439
 50
49.8772329527382823
 51
78.9764972690028486
  0
ARC
  5
3AF14
  8
0
 10
3057.195190527404975
 20
183.4075174823815928
 30
0.0
 40
0.1794142852778313
 50
8.4363559971290005
 51
49.6622753666408201
  0
ARC
  5
3AF15
  8
0
 10
3057.2348445050301962
 20
183.4161451985283122
 30
0.0
 40
0.200624671232195
 50
313.8828387845139218
 51
44.8243900175718366
  0
ARC
  5
3AF16
  8
0
 10
3057.0714504052862139
 20
183.2415630574571992
 30
0.0
 40
0.4396695646028363
 50
45.9508560755948068
 51
80.7336698711055334
  0
LINE
  5
3AF17
  8
0
 10
3057.4249176615549004
 20
183.433279518536807
 30
0.0
 11
3057.4251266294509151
 21
183.4797295663607031
 31
0.0
  0
ARC
  5
3AF18
  8
0
 10
3057.049889885121047
 20
180.8222643097199125
 30
0.0
 40
0.7400213179292208
 50
270.8923401675049263
 51
285.7871235053266901
  0
ARC
  5
3AF19
  8
0
 10
3057.0498089944571802
 20
180.8151401706327022
 30
0.0
 40
0.7148555294315023
 50
270.9303888143469976
 51
280.7391109261939164
  0
ARC
  5
3AF1A
  8
0
 10
3057.0534433636807989
 20
180.7608620556952985
 30
0.0
 40
0.531467722462751
 50
270.8593971642303018
 51
279.7954983284046193
  0
ARC
  5
3AF1B
  8
0
 10
3057.0556465350869075
 20
183.149371280492602
 30
0.0
 40
0.4821689045963937
 50
79.0344903587385232
 51
89.3145551595850549
  0
ARC
  5
3AF1C
  8
0
 10
3057.0579874996819854
 20
183.0844154152034093
 30
0.0
 40
0.5970553118317902
 50
81.8869751490394862
 51
89.6711092128637546
  0
ARC
  5
3AF1D
  8
0
 10
3057.0156763798249813
 20
183.1620541169355079
 30
0.0
 40
0.9372474808901353
 50
74.8796266710177747
 51
87.2028147890515442
  0
LINE
  5
3AF1E
  8
0
 10
3057.3739147139508532
 20
183.4294971365291929
 30
0.0
 11
3057.3739147139508532
 21
180.3967470770668058
 31
0.0
  0
ARC
  5
3AF1F
  8
0
 10
3057.2444450090088139
 20
180.4274660672801929
 30
0.0
 40
0.1330641231039209
 50
316.3032892197750812
 51
13.3476232989004
  0
LINE
  5
3AF20
  8
0
 10
3044.3110241443177983
 20
188.0026371466558999
 30
0.0
 11
3044.3110484271169298
 21
188.0026405913559131
 31
0.0
  0
LINE
  5
3AF21
  8
0
 10
3044.3110597850168233
 20
188.9288337720558957
 30
0.0
 11
3044.3110363872178823
 21
188.9288370881558876
 31
0.0
  0
ARC
  5
3AF22
  8
0
 10
3041.8559800110178912
 20
188.4657385049559082
 30
0.0
 40
1.3400000000000001
 50
13.2975152882821703
 51
346.7844217845957928
  0
ARC
  5
3AF23
  8
0
 10
3041.8559800110178912
 20
188.4657385049559082
 30
0.0
 40
0.6899999999999999
 50
20.0995431167358198
 51
339.9000944549320025
  0
ARC
  5
3AF24
  8
0
 10
3041.8559800110178912
 20
188.4657385049559082
 30
0.0
 40
0.599329856
 50
22.7092760978927295
 51
337.2915830307526903
  0
ARC
  5
3AF25
  8
0
 10
3044.2462179588278559
 20
188.4659278149372028
 30
0.0
 40
0.4668768125469215
 50
282.0987376490217002
 51
85.7905141867328211
  0
ARC
  5
3AF26
  8
0
 10
3044.2155857391230711
 20
188.6329166376301032
 30
0.0
 40
0.6365968970302883
 50
259.8955156159182138
 51
281.6443398716746742
  0
ARC
  5
3AF27
  8
0
 10
3044.2192417697688143
 20
188.1657750497641928
 30
0.0
 40
0.7682154528714542
 50
85.4272025169779141
 51
98.6326390206607755
  0
ARC
  5
3AF28
  8
0
 10
2995.2645746718358168
 20
490.5077294313992979
 30
0.0
 40
305.511458615724905
 50
279.0195497855003168
 51
279.198820774163778
  0
ARC
  5
3AF29
  8
0
 10
3042.1297731082759128
 20
195.2193594993148906
 30
0.0
 40
6.527235131092981
 50
273.286370683286691
 51
279.0817338592257215
  0
ARC
  5
3AF2A
  8
0
 10
3065.6609606284259826
 20
-194.5105194758425
 30
0.0
 40
383.9124117559712204
 50
93.4580920119526155
 51
93.4836355870793199
  0
ARC
  5
3AF2B
  8
0
 10
3068.3184632627621795
 20
340.1024755500712899
 30
0.0
 40
154.0117645918805067
 50
260.598382093158591
 51
260.9541273302172044
  0
ARC
  5
3AF2C
  8
0
 10
3042.057392459797029
 20
180.8442821753342002
 30
0.0
 40
7.3978226971339822
 50
81.4280035024665665
 51
86.5392874374895769
  0
ARC
  5
3AF2D
  8
0
 10
3064.3888163342330699
 20
550.4958990866729209
 30
0.0
 40
362.9277237997288807
 50
266.5158774412442995
 51
266.5429168424143995
  0
ARC
  5
3AF2E
  8
0
 10
3042.6634796188100154
 20
182.125017847701514
 30
0.0
 40
6.5757826760787346
 50
92.8797256606193997
 51
96.0530284353214938
  0
ARC
  5
3AF2F
  8
0
 10
3042.0513193165711527
 20
187.869959803542514
 30
0.0
 40
0.798324182659775
 50
95.8413271532080557
 51
111.0029969272384989
  0
ARC
  5
3AF30
  8
0
 10
3041.8469960546108268
 20
188.3918821973257138
 30
0.0
 40
0.2378730577598115
 50
110.1159388943691937
 51
141.8478456568412014
  0
ARC
  5
3AF31
  8
0
 10
3041.7609085735712142
 20
188.4655666389872124
 30
0.0
 40
0.1247484298123588
 50
144.0358728571845859
 51
190.1142981931575093
  0
ARC
  5
3AF32
  8
0
 10
3041.779099971866799
 20
188.4734354794483124
 30
0.0
 40
0.1441108963249316
 50
191.9243667823542125
 51
232.4878912468824979
  0
ARC
  5
3AF33
  8
0
 10
3041.9773575331241773
 20
188.78229149091311
 30
0.0
 40
0.5107579259919151
 50
235.9460424019077891
 51
263.2648413346383904
  0
ARC
  5
3AF34
  8
0
 10
3042.5323634710161969
 20
192.946664400473793
 30
0.0
 40
4.711901354248913
 50
262.5014576826413872
 51
267.5749869802057788
  0
ENDSEC
  0
EOF
