  0
SECTION
  2
HEADER
  9
$ACADVER
  1
AC1009
  9
$INSBASE
 10
337.1967838616894824
 20
5.4779462028425856
 30
0.0
  9
$EXTMIN
 10
319.7479833428340044
 20
-0.1329820915439159
 30
0.0
  9
$EXTMAX
 10
342.721006826046505
 20
8.6320130029842392
 30
0.0
  9
$LIMMIN
 10
0.0
 20
0.0
  9
$LIMMAX
 10
22.0
 20
17.0
  9
$ORTHOMODE
 70
     0
  9
$REGENMODE
 70
     1
  9
$FILLMODE
 70
     1
  9
$QTEXTMODE
 70
     0
  9
$MIRRTEXT
 70
     0
  9
$DRAGMODE
 70
     2
  9
$LTSCALE
 40
1.2099999999999991
  9
$OSMODE
 70
  4095
  9
$ATTMODE
 70
     1
  9
$TEXTSIZE
 40
0.2
  9
$TRACEWID
 40
0.05
  9
$TEXTSTYLE
  7
STANDARD
  9
$CLAYER
  8
0
  9
$CELTYPE
  6
BYLAYER
  9
$CECOLOR
 62
   256
  9
$DIMSCALE
 40
1.0
  9
$DIMASZ
 40
0.1875
  9
$DIMEXO
 40
0.0625
  9
$DIMDLI
 40
0.38
  9
$DIMRND
 40
0.0
  9
$DIMDLE
 40
0.0
  9
$DIMEXE
 40
0.125
  9
$DIMTP
 40
1.5
  9
$DIMTM
 40
1.5
  9
$DIMTXT
 40
1.5
  9
$DIMCEN
 40
0.09
  9
$DIMTSZ
 40
0.0
  9
$DIMTOL
 70
     0
  9
$DIMLIM
 70
     0
  9
$DIMTIH
 70
     1
  9
$DIMTOH
 70
     1
  9
$DIMSE1
 70
     0
  9
$DIMSE2
 70
     0
  9
$DIMTAD
 70
     0
  9
$DIMZIN
 70
     4
  9
$DIMBLK
  1

  9
$DIMASO
 70
     1
  9
$DIMSHO
 70
     1
  9
$DIMPOST
  1

  9
$DIMAPOST
  1

  9
$DIMALT
 70
     0
  9
$DIMALTD
 70
     2
  9
$DIMALTF
 40
25.3999999999999986
  9
$DIMLFAC
 40
1.0
  9
$DIMTOFL
 70
     0
  9
$DIMTVP
 40
0.0
  9
$DIMTIX
 70
     0
  9
$DIMSOXD
 70
     0
  9
$DIMSAH
 70
     0
  9
$DIMBLK1
  1

  9
$DIMBLK2
  1

  9
$DIMSTYLE
  2
STANDARD
  9
$DIMCLRD
 70
     0
  9
$DIMCLRE
 70
     0
  9
$DIMCLRT
 70
     0
  9
$DIMTFAC
 40
1.0
  9
$DIMGAP
 40
0.09
  9
$LUNITS
 70
     2
  9
$LUPREC
 70
     4
  9
$SKETCHINC
 40
0.1
  9
$FILLETRAD
 40
0.0
  9
$AUNITS
 70
     0
  9
$AUPREC
 70
     0
  9
$MENU
  1
.
  9
$ELEVATION
 40
0.0
  9
$PELEVATION
 40
0.0
  9
$THICKNESS
 40
0.0
  9
$LIMCHECK
 70
     0
  9
$BLIPMODE
 70
     0
  9
$CHAMFERA
 40
0.0
  9
$CHAMFERB
 40
0.0
  9
$SKPOLY
 70
     0
  9
$TDCREATE
 40
2457827.4934837957844138
  9
$TDUPDATE
 40
2459395.6842013890855014
  9
$TDINDWG
 40
0.3589834491
  9
$TDUSRTIMER
 40
0.3589834491
  9
$USRTIMER
 70
     1
  9
$ANGBASE
 50
0.0
  9
$ANGDIR
 70
     0
  9
$PDMODE
 70
     0
  9
$PDSIZE
 40
0.3125
  9
$PLINEWID
 40
0.0
  9
$COORDS
 70
     1
  9
$SPLFRAME
 70
     0
  9
$SPLINETYPE
 70
     6
  9
$SPLINESEGS
 70
     8
  9
$ATTDIA
 70
     1
  9
$ATTREQ
 70
     1
  9
$HANDLING
 70
     1
  9
$HANDSEED
  5
672A
  9
$SURFTAB1
 70
     6
  9
$SURFTAB2
 70
     6
  9
$SURFTYPE
 70
     6
  9
$SURFU
 70
     6
  9
$SURFV
 70
     6
  9
$UCSNAME
  2

  9
$UCSORG
 10
0.0
 20
0.0
 30
0.0
  9
$UCSXDIR
 10
1.0
 20
0.0
 30
0.0
  9
$UCSYDIR
 10
0.0
 20
1.0
 30
0.0
  9
$PUCSNAME
  2

  9
$PUCSORG
 10
0.0
 20
0.0
 30
0.0
  9
$PUCSXDIR
 10
1.0
 20
0.0
 30
0.0
  9
$PUCSYDIR
 10
0.0
 20
1.0
 30
0.0
  9
$USERI1
 70
     0
  9
$USERI2
 70
     0
  9
$USERI3
 70
     0
  9
$USERI4
 70
     0
  9
$USERI5
 70
     0
  9
$USERR1
 40
0.0
  9
$USERR2
 40
0.0
  9
$USERR3
 40
0.0
  9
$USERR4
 40
0.0
  9
$USERR5
 40
0.0
  9
$WORLDVIEW
 70
     1
  9
$SHADEDGE
 70
     3
  9
$SHADEDIF
 70
    70
  9
$TILEMODE
 70
     1
  9
$MAXACTVP
 70
    48
  9
$PLIMCHECK
 70
     0
  9
$PEXTMIN
 10
1.0000000000000000E+20
 20
1.0000000000000000E+20
 30
1.0000000000000000E+20
  9
$PEXTMAX
 10
-1.0000000000000000E+20
 20
-1.0000000000000000E+20
 30
-1.0000000000000000E+20
  9
$PLIMMIN
 10
0.0
 20
0.0
  9
$PLIMMAX
 10
12.0
 20
9.0
  9
$UNITMODE
 70
     0
  9
$VISRETAIN
 70
     1
  9
$PLINEGEN
 70
     0
  9
$PSLTSCALE
 70
     1
  0
ENDSEC
  0
SECTION
  2
TABLES
  0
TABLE
  2
VPORT
 70
     1
  0
VPORT
  2
*ACTIVE
 70
     0
 10
0.0
 20
0.0
 11
1.0
 21
1.0
 12
56.3045152623538883
 22
-11.9229916205133506
 13
0.0
 23
0.0
 14
1.0
 24
1.0
 15
0.0
 25
0.0
 16
-0.0000000000000568
 26
0.0
 36
161.3760680385011881
 17
299.3826613025150891
 27
23.0899863857244405
 37
0.0
 40
47.7483235365415268
 41
2.0416666666666661
 42
50.0
 43
0.0
 44
0.0
 50
0.0
 51
0.0
 71
     0
 72
   100
 73
     1
 74
     1
 75
     0
 76
     0
 77
     0
 78
     0
  0
ENDTAB
  0
TABLE
  2
LTYPE
 70
     2
  0
LTYPE
  2
CONTINUOUS
 70
     0
  3
Solid line
 72
    65
 73
     0
 40
0.0
  0
LTYPE
  2
PHANTOM2
 70
     0
  3
___ _ _ ___ _ _ ___ _ _ ___ _ _
 72
    65
 73
     6
 40
1.25
 49
0.625
 49
-0.125
 49
0.125
 49
-0.125
 49
0.125
 49
-0.125
  0
ENDTAB
  0
TABLE
  2
LAYER
 70
     2
  0
LAYER
  2
0
 70
     0
 62
     7
  6
CONTINUOUS
  0
LAYER
  2
DEFPOINTS
 70
     0
 62
     7
  6
CONTINUOUS
  0
ENDTAB
  0
TABLE
  2
STYLE
 70
     1
  0
STYLE
  2
STANDARD
 70
     0
 40
0.0
 41
0.8
 50
0.0
 71
     0
 42
0.2
  3
txt
  4

  0
ENDTAB
  0
TABLE
  2
VIEW
 70
     0
  0
ENDTAB
  0
TABLE
  2
UCS
 70
     0
  0
ENDTAB
  0
TABLE
  2
APPID
 70
     8
  0
APPID
  2
ACAD
 70
     0
  0
APPID
  2
ACAD_MLEADERVER
 70
     0
  0
APPID
  2
ACAD_EXEMPT_FROM_CAD_STANDARDS
 70
     0
  0
APPID
  2
ACAD_NAV_VCDISPLAY
 70
     0
  0
APPID
  2
ACADANNOMONITORALERTICONDI
 70
     0
  0
APPID
  2
ACAD_DSTYLE_DIMJAG
 70
     0
  0
APPID
  2
ACAD_DSTYLE_DIMTALN
 70
     0
  0
APPID
  2
ACDBATTR
 70
     0
  0
ENDTAB
  0
TABLE
  2
DIMSTYLE
 70
     1
  0
DIMSTYLE
  2
STANDARD
 70
     0
  3

  4

  5

  6

  7

 40
1.0
 41
0.1875
 42
0.0625
 43
0.38
 44
0.125
 45
0.0
 46
0.0
 47
1.5
 48
1.5
140
1.5
141
0.09
142
0.0
143
25.3999999999999986
144
1.0
145
0.0
146
1.0
147
0.09
 71
     0
 72
     0
 73
     1
 74
     1
 75
     0
 76
     0
 77
     0
 78
     4
170
     0
171
     2
172
     0
173
     0
174
     0
175
     0
176
     0
177
     0
178
     0
  0
ENDTAB
  0
ENDSEC
  0
SECTION
  2
BLOCKS
  0
BLOCK
  8
0
  2
$MODEL_SPACE
 70
     0
 10
0.0
 20
0.0
 30
0.0
  3
$MODEL_SPACE
  1

  0
ENDBLK
  5
21
  8
0
  0
BLOCK
 67
     1
  8
0
  2
$PAPER_SPACE
 70
     0
 10
0.0
 20
0.0
 30
0.0
  3
$PAPER_SPACE
  1

  0
ENDBLK
  5
1D
 67
     1
  8
0
  0
BLOCK
  8
0
  2
_FILLED
 70
     0
 10
0.0
 20
0.0
 30
0.0
  3
_FILLED
  1

  0
SOLID
  5
4F44
  8
0
  6
BYBLOCK
 62
     0
 10
0.0
 20
0.0
 30
0.0
 11
-1.0
 21
0.1666666667
 31
0.0
 12
-1.0
 22
-0.1666666667
 32
0.0
 13
-1.0
 23
-0.1666666667
 33
0.0
  0
ENDBLK
  5
4F45
  8
0
  6
BYBLOCK
 62
     0
  0
ENDSEC
  0
SECTION
  2
ENTITIES
  0
ATTDEF
  5
4EF9
  8
DEFPOINTS
 10
337.1982051757026966
 20
5.481965086706845
 30
0.0
 40
0.001
  1
K-10272T-4
  3

  2
MODELNUMBER
 70
     0
1001
ACDBATTR
1070
     0
1070
     1
  0
ATTDEF
  5
4EFA
  8
DEFPOINTS
 10
337.1982051757026966
 20
5.4802984200401648
 30
0.0
 40
0.001
  1
FORTE
  3

  2
TRADENAME
 70
     0
1001
ACDBATTR
1070
     0
1070
     1
  0
ATTDEF
  5
4EFB
  8
DEFPOINTS
 10
337.1982051757026966
 20
5.4786317533734863
 30
0.0
 40
0.001
  1
BATHROOM SINK FAUCET
  3

  2
PRODUCT
 70
     0
1001
ACDBATTR
1070
     0
1070
     1
  0
ARC
  5
6662
  8
0
 10
337.1818433493666021
 20
5.5087562778548431
 30
0.0
 40
1.191289279488337
 50
30.6868784241855685
 51
89.2702449078450258
  0
ARC
  5
6663
  8
0
 10
337.1565772424191891
 20
5.4747999598544954
 30
0.0
 40
1.230454883821932
 50
346.7646340065501249
 51
31.4462281996946693
  0
ARC
  5
6664
  8
0
 10
336.893847162272607
 20
5.5896243602029427
 30
0.0
 40
1.5133761945432149
 50
323.3917295804322976
 51
344.8098719715297875
  0
ARC
  5
6665
  8
0
 10
309.1338585615725947
 20
25.3870778991786814
 30
0.0
 40
35.6093801530137171
 50
324.2590866830640834
 51
324.4575574517363066
  0
ARC
  5
6666
  8
0
 10
338.7573083433251213
 20
4.0540595200686971
 30
0.0
 40
0.8961237779971336
 50
143.5160159004265097
 51
170.8810959663709923
  0
ARC
  5
6667
  8
0
 10
347.4545927289250926
 20
2.6751945542345079
 30
0.0
 40
9.702030759692942
 50
170.9811405559347861
 51
188.8514239280158051
  0
ARC
  5
6668
  8
0
 10
334.9411449419977771
 20
0.8174969618950012
 30
0.0
 40
2.9496097907004479
 50
356.5677092921287112
 51
7.1047673897878063
  0
ARC
  5
6669
  8
0
 10
336.8115524368241722
 20
0.7012697546001762
 30
0.0
 40
1.0756065315068331
 50
338.3885640484825785
 51
356.7828813638481051
  0
ARC
  5
666A
  8
0
 10
337.1420938454929797
 20
0.5693434821598249
 30
0.0
 40
0.7197119891995544
 50
304.0208196277956176
 51
338.4610485817955237
  0
ARC
  5
666B
  8
0
 10
337.1929251624590052
 20
0.5048573539501513
 30
0.0
 40
0.6378525534215977
 50
270.3673205624045863
 51
303.4772622409461746
  0
ARC
  5
666C
  8
0
 10
337.2108767620633216
 20
5.5114235345587641
 30
0.0
 40
1.188606218587736
 50
90.6681641800607565
 51
148.4172402960070087
  0
ARC
  5
666D
  8
0
 10
337.2279532966592228
 20
5.476878136964288
 30
0.0
 40
1.221417699521341
 50
147.4562498143324945
 51
193.8454839211372871
  0
ARC
  5
666E
  8
0
 10
337.5467731836425855
 20
5.6100548323500803
 30
0.0
 40
1.5637427477685191
 50
195.7882322826517054
 51
217.2154612041981068
  0
ARC
  5
666F
  8
0
 10
333.8065064374429198
 20
2.8147177062239548
 30
0.0
 40
3.1057496696610229
 50
34.2768610702445571
 51
36.550342609333903
  0
ARC
  5
6670
  8
0
 10
335.6044005989338075
 20
4.0370251933149692
 30
0.0
 40
0.9317125104419767
 50
8.6695659141785217
 51
34.4328175561105922
  0
ARC
  5
6671
  8
0
 10
326.7753386580405959
 20
2.660371806321665
 30
0.0
 40
9.8674510883944837
 50
351.380405032116073
 51
8.8441615406370957
  0
ARC
  5
6672
  8
0
 10
344.2792095598883861
 20
0.8239335436595425
 30
0.0
 40
7.756117495728704
 50
177.3576397148073056
 51
181.2856731764530878
  0
ARC
  5
6673
  8
0
 10
339.2240556420837265
 20
0.9430412608281484
 30
0.0
 40
2.7148827000200111
 50
186.1984892603958883
 51
193.8677864730549061
  0
ARC
  5
6674
  8
0
 10
337.2393769608921161
 20
0.5583586472727875
 30
0.0
 40
0.7033213507659271
 50
202.2249070583187063
 51
238.9014354742240869
  0
ARC
  5
6675
  8
0
 10
337.2013750062455983
 20
0.5051817871771265
 30
0.0
 40
0.6381787768241847
 50
239.3569698798218894
 51
269.6084990819343261
  0
ARC
  5
6676
  8
0
 10
334.2470144742321736
 20
5.4779320340142776
 30
0.0
 40
0.5388880712000006
 50
202.7172856170705018
 51
157.2562208380261097
  0
ARC
  5
6677
  8
0
 10
334.2470144742321736
 20
5.4779320340142776
 30
0.0
 40
0.6200000000000007
 50
200.1751163823718969
 51
159.8487987379820083
  0
ARC
  5
6678
  8
0
 10
334.2470144772067897
 20
5.4779314730845012
 30
0.0
 40
1.1200000093358899
 50
193.77140074651291
 51
166.225171578171512
  0
ARC
  5
6679
  8
0
 10
332.1175207684324278
 20
5.2491194506840957
 30
0.0
 40
0.6512287636447595
 50
80.7781052607592756
 51
97.2734247794363966
  0
ARC
  5
667A
  8
0
 10
550.7402714615302557
 20
1393.18510475950211
 30
0.0
 40
1404.3976055574760267
 50
261.0486469794790878
 51
261.0873574988355017
  0
ARC
  5
667B
  8
0
 10
332.0925653866916036
 20
5.4795227145201038
 30
0.0
 40
0.4195432643751376
 50
97.8764509628008739
 51
180.217449309694814
  0
ARC
  5
667C
  8
0
 10
332.1047508128306731
 20
5.4791011836209611
 30
0.0
 40
0.431727256379666
 50
180.1553696552199142
 51
203.6360500910770099
  0
ARC
  5
667D
  8
0
 10
332.0867175679325101
 20
5.4683045767694649
 30
0.0
 40
0.4108867894742227
 50
203.2650006482357128
 51
263.8506328530306746
  0
ARC
  5
667E
  8
0
 10
332.1171516764330818
 20
5.7156867109131451
 30
0.0
 40
0.6601163200533702
 50
263.5243434843017099
 51
279.1290419124433129
  0
ARC
  5
667F
  8
0
 10
356.6191150469538229
 20
-147.0409566632785925
 30
0.0
 40
154.0490893286736025
 50
98.7595716404555048
 51
99.1124771458902245
  0
ARC
  5
6680
  8
0
 10
334.1330134584400753
 20
12.5841943803169798
 30
0.0
 40
6.9085461898661089
 50
261.8969726404317839
 51
266.8943702490831811
  0
ARC
  5
6681
  8
0
 10
334.2522437949111236
 20
-2.813486513243189
 30
0.0
 40
8.0989006365596676
 50
93.019806096803535
 51
97.7563447793640279
  0
ARC
  5
6682
  8
0
 10
333.6797402618216779
 20
8.9764355275886292
 30
0.0
 40
3.705139186983192
 50
272.2558957210446238
 51
278.2411651769140235
  0
ARC
  5
6683
  8
0
 10
333.6255673324125723
 20
1.4963798602433851
 30
0.0
 40
4.1900894591555797
 50
81.7439891132783885
 51
87.2637036699859863
  0
ARC
  5
6684
  8
0
 10
332.5097516252886862
 20
-15.2191534776713997
 30
0.0
 40
20.9422251082098505
 50
86.397603682728203
 51
86.5808953166632307
  0
ARC
  5
6685
  8
0
 10
334.1531999138913989
 20
5.2204306030707537
 30
0.0
 40
0.4290523322257135
 50
56.4783648333997519
 51
80.0616632116937268
  0
ARC
  5
6686
  8
0
 10
334.1465481390401919
 20
5.7487449577484258
 30
0.0
 40
0.4438676154202663
 50
278.3276304778964914
 51
303.2151972166092264
  0
ARC
  5
6687
  8
0
 10
334.3165814936916149
 20
5.472660361377037
 30
0.0
 40
0.1285833774975393
 50
2.3494364137481472
 51
55.102768090788139
  0
ARC
  5
6688
  8
0
 10
334.3183409435804947
 20
5.482202086956101
 30
0.0
 40
0.126787783458423
 50
304.2469898420745267
 51
358.0697424170447789
  0
ARC
  5
6689
  8
0
 10
337.192026319583988
 20
6.1625018944314638
 30
0.0
 40
0.3575436029663128
 50
89.1862430626020455
 51
146.5781762158169954
  0
ARC
  5
668A
  8
0
 10
337.2089419737757225
 20
6.1555907770231801
 30
0.0
 40
0.3754854583084632
 50
147.1197057700211985
 51
184.310156331195401
  0
ARC
  5
668B
  8
0
 10
337.509922231279802
 20
6.1775251262127009
 30
0.0
 40
0.6772633913671788
 50
184.2468760324998129
 51
210.0930096297423972
  0
ARC
  5
668C
  8
0
 10
337.1960427717841071
 20
5.963159887363223
 30
0.0
 40
0.2964631367622876
 50
243.0535258982802986
 51
270.1828666413125006
  0
ARC
  5
668D
  8
0
 10
337.2418106690885224
 20
6.0150643530763972
 30
0.0
 40
0.3638828627033056
 50
209.1276630352456891
 51
240.3319713976920013
  0
ARC
  5
668E
  8
0
 10
337.2021821742789029
 20
6.1625018944314638
 30
0.0
 40
0.3575436029663128
 50
33.4218237841830472
 51
90.8137569373979261
  0
ARC
  5
668F
  8
0
 10
337.1852665200872821
 20
6.1555907770231801
 30
0.0
 40
0.3754854583084632
 50
355.6898436688043716
 51
32.8802942299788015
  0
ARC
  5
6690
  8
0
 10
336.884286262583089
 20
6.1775251262127009
 30
0.0
 40
0.6772633913671788
 50
329.9069903702575175
 51
355.7531239675000165
  0
ARC
  5
6691
  8
0
 10
337.1981606102248179
 20
5.9631738078559637
 30
0.0
 40
0.2964778623930408
 50
269.7735741465451156
 51
296.9461356506473066
  0
ARC
  5
6692
  8
0
 10
337.1523978247744253
 20
6.0150643530763972
 30
0.0
 40
0.3638828627033056
 50
299.6680286023080271
 51
330.8723369647544246
  0
ARC
  5
6693
  8
0
 10
340.147014474130799
 20
5.4779320340142776
 30
0.0
 40
0.5388880712000006
 50
22.7437791619738796
 51
337.2827143829294982
  0
ARC
  5
6694
  8
0
 10
340.147014474130799
 20
5.4779320340142776
 30
0.0
 40
0.6200000000000007
 50
20.1512012620180485
 51
339.8248836176280179
  0
ARC
  5
6695
  8
0
 10
340.1470144711561829
 20
5.4779314730845012
 30
0.0
 40
1.1200000093358899
 50
13.77482842182852
 51
346.2285992534870047
  0
ARC
  5
6696
  8
0
 10
342.2765081799306017
 20
5.2491194506840957
 30
0.0
 40
0.6512287636447595
 50
82.7265752205636034
 51
99.2218947392407671
  0
ARC
  5
6697
  8
0
 10
123.6537574868326033
 20
1393.18510475950211
 30
0.0
 40
1404.3976055574760267
 50
278.9126425011643846
 51
278.9513530205209122
  0
ARC
  5
6698
  8
0
 10
342.3014635616714259
 20
5.4795227145201038
 30
0.0
 40
0.4195432643751376
 50
359.7825506903050723
 51
82.1235490371991261
  0
ARC
  5
6699
  8
0
 10
342.2892781355322995
 20
5.4791011836209611
 30
0.0
 40
0.431727256379666
 50
336.3639499089229048
 51
359.8446303447801142
  0
ARC
  5
669A
  8
0
 10
342.3073113804304057
 20
5.4683045767694649
 30
0.0
 40
0.4108867894742227
 50
276.1493671469693254
 51
336.7349993517643156
  0
ARC
  5
669B
  8
0
 10
342.2768772719297772
 20
5.7156867109131451
 30
0.0
 40
0.6601163200533702
 50
260.8709580875566871
 51
276.4756565156949932
  0
ARC
  5
669C
  8
0
 10
317.7749139014092066
 20
-147.0409566632785925
 30
0.0
 40
154.0490893286736025
 50
80.8875228541098039
 51
81.2404283595444952
  0
ARC
  5
669D
  8
0
 10
340.2610154899228974
 20
12.5841943803169798
 30
0.0
 40
6.9085461898661089
 50
273.1056297509168189
 51
278.1030273595682161
  0
ARC
  5
669E
  8
0
 10
340.1417851534517922
 20
-2.813486513243189
 30
0.0
 40
8.0989006365596676
 50
82.2436552206359863
 51
86.980193903196465
  0
ARC
  5
669F
  8
0
 10
340.7142886865411811
 20
8.9764355275886292
 30
0.0
 40
3.705139186983192
 50
261.7588348230859197
 51
267.7441042789553762
  0
ARC
  5
66A0
  8
0
 10
340.7684616159502866
 20
1.4963798602433851
 30
0.0
 40
4.1900894591555797
 50
92.7362963300140279
 51
98.2560108867216115
  0
ARC
  5
66A1
  8
0
 10
341.8842773230742864
 20
-15.2191534776713997
 30
0.0
 40
20.9422251082098505
 50
93.4191046833367551
 51
93.602396317271797
  0
ARC
  5
66A2
  8
0
 10
340.2408290344715169
 20
5.2204306030707537
 30
0.0
 40
0.4290523322257135
 50
99.9383367883062874
 51
123.5216351666002055
  0
ARC
  5
66A3
  8
0
 10
340.2474808093227807
 20
5.7487449577484258
 30
0.0
 40
0.4438676154202663
 50
236.784802783390802
 51
261.672369522103395
  0
ARC
  5
66A4
  8
0
 10
340.0774474546714146
 20
5.472660361377037
 30
0.0
 40
0.1285833774975393
 50
124.8972319092117971
 51
177.650563586251792
  0
ARC
  5
66A5
  8
0
 10
340.0756880047824779
 20
5.482202086956101
 30
0.0
 40
0.126787783458423
 50
181.9302575829551074
 51
235.7530101579255017
  0
ENDSEC
  0
EOF
