  0
SECTION
  2
HEADER
  9
$ACADVER
  1
AC1009
  9
$INSBASE
 10
325.2717450822070759
 20
0.9682353406150117
 30
0.0
  9
$EXTMIN
 10
318.0677970637876228
 20
-1.332637878107227
 30
0.0
  9
$EXTMAX
 10
330.7958030262230977
 20
10.7766575987318909
 30
0.0
  9
$LIMMIN
 10
0.0
 20
0.0
  9
$LIMMAX
 10
22.0
 20
17.0
  9
$ORTHOMODE
 70
     0
  9
$REGENMODE
 70
     1
  9
$FILLMODE
 70
     1
  9
$QTEXTMODE
 70
     0
  9
$MIRRTEXT
 70
     0
  9
$DRAGMODE
 70
     2
  9
$LTSCALE
 40
1.2099999999999991
  9
$OSMODE
 70
  4095
  9
$ATTMODE
 70
     1
  9
$TEXTSIZE
 40
0.2
  9
$TRACEWID
 40
0.05
  9
$TEXTSTYLE
  7
STANDARD
  9
$CLAYER
  8
0
  9
$CELTYPE
  6
BYLAYER
  9
$CECOLOR
 62
   256
  9
$DIMSCALE
 40
1.0
  9
$DIMASZ
 40
0.1875
  9
$DIMEXO
 40
0.0625
  9
$DIMDLI
 40
0.38
  9
$DIMRND
 40
0.0
  9
$DIMDLE
 40
0.0
  9
$DIMEXE
 40
0.125
  9
$DIMTP
 40
1.5
  9
$DIMTM
 40
1.5
  9
$DIMTXT
 40
1.5
  9
$DIMCEN
 40
0.09
  9
$DIMTSZ
 40
0.0
  9
$DIMTOL
 70
     0
  9
$DIMLIM
 70
     0
  9
$DIMTIH
 70
     1
  9
$DIMTOH
 70
     1
  9
$DIMSE1
 70
     0
  9
$DIMSE2
 70
     0
  9
$DIMTAD
 70
     0
  9
$DIMZIN
 70
     4
  9
$DIMBLK
  1

  9
$DIMASO
 70
     1
  9
$DIMSHO
 70
     1
  9
$DIMPOST
  1

  9
$DIMAPOST
  1

  9
$DIMALT
 70
     0
  9
$DIMALTD
 70
     2
  9
$DIMALTF
 40
25.3999999999999986
  9
$DIMLFAC
 40
1.0
  9
$DIMTOFL
 70
     0
  9
$DIMTVP
 40
0.0
  9
$DIMTIX
 70
     0
  9
$DIMSOXD
 70
     0
  9
$DIMSAH
 70
     0
  9
$DIMBLK1
  1

  9
$DIMBLK2
  1

  9
$DIMSTYLE
  2
STANDARD
  9
$DIMCLRD
 70
     0
  9
$DIMCLRE
 70
     0
  9
$DIMCLRT
 70
     0
  9
$DIMTFAC
 40
1.0
  9
$DIMGAP
 40
0.09
  9
$LUNITS
 70
     2
  9
$LUPREC
 70
     4
  9
$SKETCHINC
 40
0.1
  9
$FILLETRAD
 40
0.0
  9
$AUNITS
 70
     0
  9
$AUPREC
 70
     0
  9
$MENU
  1
.
  9
$ELEVATION
 40
0.0
  9
$PELEVATION
 40
0.0
  9
$THICKNESS
 40
0.0
  9
$LIMCHECK
 70
     0
  9
$BLIPMODE
 70
     0
  9
$CHAMFERA
 40
0.0
  9
$CHAMFERB
 40
0.0
  9
$SKPOLY
 70
     0
  9
$TDCREATE
 40
2457827.4934837957844138
  9
$TDUPDATE
 40
2459395.6841319450177252
  9
$TDINDWG
 40
0.3592496528
  9
$TDUSRTIMER
 40
0.3592496528
  9
$USRTIMER
 70
     1
  9
$ANGBASE
 50
0.0
  9
$ANGDIR
 70
     0
  9
$PDMODE
 70
     0
  9
$PDSIZE
 40
0.3125
  9
$PLINEWID
 40
0.0
  9
$COORDS
 70
     1
  9
$SPLFRAME
 70
     0
  9
$SPLINETYPE
 70
     6
  9
$SPLINESEGS
 70
     8
  9
$ATTDIA
 70
     1
  9
$ATTREQ
 70
     1
  9
$HANDLING
 70
     1
  9
$HANDSEED
  5
6697
  9
$SURFTAB1
 70
     6
  9
$SURFTAB2
 70
     6
  9
$SURFTYPE
 70
     6
  9
$SURFU
 70
     6
  9
$SURFV
 70
     6
  9
$UCSNAME
  2

  9
$UCSORG
 10
0.0
 20
0.0
 30
0.0
  9
$UCSXDIR
 10
1.0
 20
0.0
 30
0.0
  9
$UCSYDIR
 10
0.0
 20
1.0
 30
0.0
  9
$PUCSNAME
  2

  9
$PUCSORG
 10
0.0
 20
0.0
 30
0.0
  9
$PUCSXDIR
 10
1.0
 20
0.0
 30
0.0
  9
$PUCSYDIR
 10
0.0
 20
1.0
 30
0.0
  9
$USERI1
 70
     0
  9
$USERI2
 70
     0
  9
$USERI3
 70
     0
  9
$USERI4
 70
     0
  9
$USERI5
 70
     0
  9
$USERR1
 40
0.0
  9
$USERR2
 40
0.0
  9
$USERR3
 40
0.0
  9
$USERR4
 40
0.0
  9
$USERR5
 40
0.0
  9
$WORLDVIEW
 70
     1
  9
$SHADEDGE
 70
     3
  9
$SHADEDIF
 70
    70
  9
$TILEMODE
 70
     1
  9
$MAXACTVP
 70
    48
  9
$PLIMCHECK
 70
     0
  9
$PEXTMIN
 10
1.0000000000000000E+20
 20
1.0000000000000000E+20
 30
1.0000000000000000E+20
  9
$PEXTMAX
 10
-1.0000000000000000E+20
 20
-1.0000000000000000E+20
 30
-1.0000000000000000E+20
  9
$PLIMMIN
 10
0.0
 20
0.0
  9
$PLIMMAX
 10
12.0
 20
9.0
  9
$UNITMODE
 70
     0
  9
$VISRETAIN
 70
     1
  9
$PLINEGEN
 70
     0
  9
$PSLTSCALE
 70
     1
  0
ENDSEC
  0
SECTION
  2
TABLES
  0
TABLE
  2
VPORT
 70
     1
  0
VPORT
  2
*ACTIVE
 70
     0
 10
0.0
 20
0.0
 11
1.0
 21
1.0
 12
52.287959213251213
 22
-24.9390911832677489
 13
0.0
 23
0.0
 14
1.0
 24
1.0
 15
0.0
 25
0.0
 16
-0.0000000000000568
 26
0.0
 36
161.3760680385011881
 17
299.3826613025150891
 27
23.0899863857244405
 37
0.0
 40
45.9046058005612565
 41
2.0416666666666661
 42
50.0
 43
0.0
 44
0.0
 50
0.0
 51
0.0
 71
     0
 72
   100
 73
     1
 74
     1
 75
     0
 76
     0
 77
     0
 78
     0
  0
ENDTAB
  0
TABLE
  2
LTYPE
 70
     2
  0
LTYPE
  2
CONTINUOUS
 70
     0
  3
Solid line
 72
    65
 73
     0
 40
0.0
  0
LTYPE
  2
PHANTOM2
 70
     0
  3
___ _ _ ___ _ _ ___ _ _ ___ _ _
 72
    65
 73
     6
 40
1.25
 49
0.625
 49
-0.125
 49
0.125
 49
-0.125
 49
0.125
 49
-0.125
  0
ENDTAB
  0
TABLE
  2
LAYER
 70
     2
  0
LAYER
  2
0
 70
     0
 62
     7
  6
CONTINUOUS
  0
LAYER
  2
DEFPOINTS
 70
     0
 62
     7
  6
CONTINUOUS
  0
ENDTAB
  0
TABLE
  2
STYLE
 70
     1
  0
STYLE
  2
STANDARD
 70
     0
 40
0.0
 41
0.8
 50
0.0
 71
     0
 42
0.2
  3
txt
  4

  0
ENDTAB
  0
TABLE
  2
VIEW
 70
     0
  0
ENDTAB
  0
TABLE
  2
UCS
 70
     0
  0
ENDTAB
  0
TABLE
  2
APPID
 70
     8
  0
APPID
  2
ACAD
 70
     0
  0
APPID
  2
ACAD_MLEADERVER
 70
     0
  0
APPID
  2
ACAD_EXEMPT_FROM_CAD_STANDARDS
 70
     0
  0
APPID
  2
ACAD_NAV_VCDISPLAY
 70
     0
  0
APPID
  2
ACADANNOMONITORALERTICONDI
 70
     0
  0
APPID
  2
ACAD_DSTYLE_DIMJAG
 70
     0
  0
APPID
  2
ACAD_DSTYLE_DIMTALN
 70
     0
  0
APPID
  2
ACDBATTR
 70
     0
  0
ENDTAB
  0
TABLE
  2
DIMSTYLE
 70
     1
  0
DIMSTYLE
  2
STANDARD
 70
     0
  3

  4

  5

  6

  7

 40
1.0
 41
0.1875
 42
0.0625
 43
0.38
 44
0.125
 45
0.0
 46
0.0
 47
1.5
 48
1.5
140
1.5
141
0.09
142
0.0
143
25.3999999999999986
144
1.0
145
0.0
146
1.0
147
0.09
 71
     0
 72
     0
 73
     1
 74
     1
 75
     0
 76
     0
 77
     0
 78
     4
170
     0
171
     2
172
     0
173
     0
174
     0
175
     0
176
     0
177
     0
178
     0
  0
ENDTAB
  0
ENDSEC
  0
SECTION
  2
BLOCKS
  0
BLOCK
  8
0
  2
$MODEL_SPACE
 70
     0
 10
0.0
 20
0.0
 30
0.0
  3
$MODEL_SPACE
  1

  0
ENDBLK
  5
21
  8
0
  0
BLOCK
 67
     1
  8
0
  2
$PAPER_SPACE
 70
     0
 10
0.0
 20
0.0
 30
0.0
  3
$PAPER_SPACE
  1

  0
ENDBLK
  5
1D
 67
     1
  8
0
  0
BLOCK
  8
0
  2
_FILLED
 70
     0
 10
0.0
 20
0.0
 30
0.0
  3
_FILLED
  1

  0
SOLID
  5
4F44
  8
0
  6
BYBLOCK
 62
     0
 10
0.0
 20
0.0
 30
0.0
 11
-1.0
 21
0.1666666667
 31
0.0
 12
-1.0
 22
-0.1666666667
 32
0.0
 13
-1.0
 23
-0.1666666667
 33
0.0
  0
ENDBLK
  5
4F45
  8
0
  6
BYBLOCK
 62
     0
  0
ENDSEC
  0
SECTION
  2
ENTITIES
  0
ATTDEF
  5
4EF9
  8
DEFPOINTS
 10
325.2752213673447841
 20
0.9720406831341176
 30
0.0
 40
0.001
  1
K-10272T-4
  3

  2
MODELNUMBER
 70
     0
1001
ACDBATTR
1070
     0
1070
     1
  0
ATTDEF
  5
4EFA
  8
DEFPOINTS
 10
325.2752213673447841
 20
0.9703740164674381
 30
0.0
 40
0.001
  1
FORTE
  3

  2
TRADENAME
 70
     0
1001
ACDBATTR
1070
     0
1070
     1
  0
ATTDEF
  5
4EFB
  8
DEFPOINTS
 10
325.2752213673447841
 20
0.9687073498007588
 30
0.0
 40
0.001
  1
BATHROOM SINK FAUCET
  3

  2
PRODUCT
 70
     0
1001
ACDBATTR
1070
     0
1070
     1
  0
ARC
  5
5DA3
  8
0
 10
325.2663415173873886
 20
5.2726078555687019
 30
0.0
 40
0.538699819765043
 50
36.6068371046166519
 51
89.4006873377466604
  0
ARC
  5
5DA4
  8
0
 10
324.776725622782692
 20
4.9367973521543798
 30
0.0
 40
1.1322094783508549
 50
12.8696694275490806
 51
35.4733347998501287
  0
ARC
  5
5DA5
  8
0
 10
323.2325921167944784
 20
4.4564492263729436
 30
0.0
 40
2.7473586703803021
 50
6.6548945914249158
 51
15.4638630050648604
  0
ARC
  5
5DA6
  8
0
 10
325.4801364956929888
 20
4.6992342732391403
 30
0.0
 40
0.487204803745077
 50
358.8701013054280224
 51
8.9270833833142902
  0
ARC
  5
5DA7
  8
0
 10
325.8495025929069016
 20
4.6911155552799046
 30
0.0
 40
0.1177533825917622
 50
330.44583999595568
 51
359.2756862908486823
  0
ARC
  5
5DA8
  8
0
 10
325.8862465983746119
 20
4.671495575655614
 30
0.0
 40
0.0761200018538923
 50
282.3809920415757801
 51
329.650496691096123
  0
ARC
  5
5DA9
  8
0
 10
325.8809424202760283
 20
4.7999327622948789
 30
0.0
 40
0.203936693634936
 50
259.9084867892386228
 51
276.0870095625364229
  0
ARC
  5
5DAA
  8
0
 10
324.0463903908237171
 20
-5.1171715183594557
 30
0.0
 40
9.8814306900668694
 50
79.5113791140023949
 51
81.0793150126935274
  0
ARC
  5
5DAB
  8
0
 10
325.2617382381184257
 20
2.5212079293697669
 30
0.0
 40
2.1470460852683351
 50
81.51125553044632
 51
89.7256680191919429
  0
ARC
  5
5DAC
  8
0
 10
325.2850287495840007
 20
3.3697039157429538
 30
0.0
 40
1.067827301493911
 50
73.911139326936663
 51
90.7003974949402476
  0
ARC
  5
5DAD
  8
0
 10
325.4717283631306941
 20
3.9930183478283592
 30
0.0
 40
0.4172395179437377
 50
51.9434243283621413
 51
74.824276282555843
  0
ARC
  5
5DAE
  8
0
 10
325.6762369172240028
 20
4.2431506695626862
 30
0.0
 40
0.0944655065413016
 50
338.8282981903200266
 51
56.0951766037103923
  0
ARC
  5
5DAF
  8
0
 10
325.6245558322810894
 20
4.2819974424863183
 30
0.0
 40
0.1576691239471261
 50
304.0328665495501923
 51
332.4340956039159209
  0
LINE
  5
5DB0
  8
0
 10
325.742100069405808
 20
4.3108690356887616
 30
0.0
 11
325.7418870067490957
 21
4.2585533925150134
 31
0.0
  0
ARC
  5
5DB1
  8
0
 10
325.4017913246677267
 20
4.2926963161822851
 30
0.0
 40
0.3418052255407136
 50
340.0033175607879912
 51
354.2671638268740821
  0
ARC
  5
5DB2
  8
0
 10
325.3921071280424258
 20
4.2991431573126926
 30
0.0
 40
0.3531208652799695
 50
321.6248381900368827
 51
339.5576763567099761
  0
ARC
  5
5DB3
  8
0
 10
325.2808346778055011
 20
3.3750478838121132
 30
0.0
 40
0.912618193010965
 50
75.8062669057736542
 51
90.5563934430040547
  0
ARC
  5
5DB4
  8
0
 10
325.3824573260865805
 20
3.7768420154286391
 30
0.0
 40
0.4981719518105895
 50
64.8291798719423298
 51
75.8062516195983847
  0
ARC
  5
5DB5
  8
0
 10
325.525046351314586
 20
4.0583347353894741
 30
0.0
 40
0.1830007288512902
 50
33.5212118746729004
 51
67.7500980735170515
  0
ARC
  5
5DB6
  8
0
 10
325.6206628249735218
 20
4.1265253911512838
 30
0.0
 40
0.0657536243359611
 50
340.0603058131426906
 51
29.9938539832717588
  0
ARC
  5
5DB7
  8
0
 10
325.5772355664491897
 20
4.1471321447809766
 30
0.0
 40
0.113696584812923
 50
308.4167286146608262
 51
337.7610435632810777
  0
ARC
  5
5DB8
  8
0
 10
325.4153797601844076
 20
4.3587505928102264
 30
0.0
 40
0.3801043950174732
 50
283.1051243806948037
 51
307.7114476203678919
  0
ARC
  5
5DB9
  8
0
 10
325.2632927421714726
 20
4.9859977741625281
 30
0.0
 40
1.0255163281497151
 50
270.8028759290530161
 51
283.4350387301980163
  0
ARC
  5
5DBA
  8
0
 10
323.3706295111072109
 20
5.202980360058131
 30
0.0
 40
2.6291941926759219
 50
338.521916007145478
 51
346.9851265175012145
  0
ARC
  5
5DBB
  8
0
 10
325.6040001181324897
 20
4.3403603920980247
 30
0.0
 40
0.2355491503265045
 50
293.8558650463423874
 51
334.8657908887926169
  0
ARC
  5
5DBC
  8
0
 10
325.3036614955183836
 20
4.4910423676365001
 30
0.0
 40
0.1598110241197259
 50
290.8959007763804152
 51
335.5308904393551757
  0
ARC
  5
5DBD
  8
0
 10
325.2735609040001918
 20
4.5617062688466641
 30
0.0
 40
0.2365813580146167
 50
269.6162110323094225
 51
291.6023881466060743
  0
ARC
  5
5DBE
  8
0
 10
339.7264671768122071
 20
5.5548827958981457
 30
0.0
 40
13.8656942310444506
 50
184.3997949964704901
 51
190.8478857539367937
  0
ARC
  5
5DBF
  8
0
 10
342.8807361540513057
 20
6.1593243756029832
 30
0.0
 40
17.0773546122256086
 50
190.8478857539367937
 51
192.0593812295659859
  0
ARC
  5
5DC0
  8
0
 10
335.7443065324284248
 20
4.8862802170584638
 30
0.0
 40
9.8355210836228881
 50
193.4927569458959908
 51
198.7617611655689132
  0
ARC
  5
5DC1
  8
0
 10
325.9739679292966912
 20
1.554584056519523
 30
0.0
 40
0.4874007811508922
 50
356.6512196929419929
 51
20.1951368818979411
  0
ARC
  5
5DC2
  8
0
 10
326.3704833410699848
 20
1.5313823985852859
 30
0.0
 40
0.0902071398313953
 50
322.7737179349130088
 51
356.6512196929418792
  0
ARC
  5
5DC3
  8
0
 10
384.9949739664805861
 20
10.3129963580209196
 30
0.0
 40
59.4146585881808775
 50
185.7090948079982979
 51
186.4362937233806861
  0
ARC
  5
5DC4
  8
0
 10
335.4772877314587731
 20
4.8465066581024772
 30
0.0
 40
9.5970276399815813
 50
187.1456785467921975
 51
191.5373828264268923
  0
ARC
  5
5DC5
  8
0
 10
334.3124365782139762
 20
4.4177120307516393
 30
0.0
 40
8.372043044219394
 50
190.256463965566013
 51
195.0891110032283962
  0
ARC
  5
5DC6
  8
0
 10
368.4264902736426279
 20
15.7313138616812793
 30
0.0
 40
44.3022131783017983
 50
197.7321540948832137
 51
198.4304323288297951
  0
ARC
  5
5DC7
  8
0
 10
325.4170312796990743
 20
1.3913653993228681
 30
0.0
 40
1.034854420881534
 50
7.2534145322637231
 51
18.8101508658180414
  0
ARC
  5
5DC8
  8
0
 10
321.7330044196207837
 20
1.6341307143488399
 30
0.0
 40
4.7119335946166032
 50
356.972322821949092
 51
358.636687119377882
  0
ARC
  5
5DC9
  8
0
 10
339.8769971703654846
 20
0.8185476032375493
 30
0.0
 40
13.4505800554449095
 50
177.5852707589210979
 51
179.1938911866452884
  0
ARC
  5
5DCA
  8
0
 10
326.3877509027782935
 20
1.008235341504198
 30
0.0
 40
0.0400000008891866
 50
269.9999982393101163
 51
359.3491509546649922
  0
LINE
  5
5DCB
  8
0
 10
326.3877509015491114
 20
0.9682353406150117
 30
0.0
 11
324.1562004883490999
 21
0.9682353406150117
 31
0.0
  0
ARC
  5
5DCC
  8
0
 10
325.2776098386912054
 20
5.2726078955963391
 30
0.0
 40
0.5386997687471771
 50
90.5992009270946852
 51
143.3931641679434961
  0
ARC
  5
5DCD
  8
0
 10
325.7672257671155194
 20
4.9367973521543798
 30
0.0
 40
1.1322094783508549
 50
144.5266652001498073
 51
167.1303305724509016
  0
ARC
  5
5DCE
  8
0
 10
327.3113592731036761
 20
4.4564492263729436
 30
0.0
 40
2.7473586703803021
 50
164.5361369949351058
 51
173.3451054085751082
  0
ARC
  5
5DCF
  8
0
 10
325.0638148942052226
 20
4.6992342732391403
 30
0.0
 40
0.487204803745077
 50
171.0729166166856885
 51
181.129898694572006
  0
ARC
  5
5DD0
  8
0
 10
324.6944487969911961
 20
4.6911155552799046
 30
0.0
 40
0.1177533825917622
 50
180.724313709151204
 51
209.5541600040440073
  0
ARC
  5
5DD1
  8
0
 10
324.6577047915235994
 20
4.671495575655614
 30
0.0
 40
0.0761200018538923
 50
210.3495033089039055
 51
257.6190079584209229
  0
ARC
  5
5DD2
  8
0
 10
324.663008969622183
 20
4.7999327622948789
 30
0.0
 40
0.203936693634936
 50
263.9129904374636908
 51
280.0915132107613772
  0
ARC
  5
5DD3
  8
0
 10
326.4975609990743806
 20
-5.1171715183594557
 30
0.0
 40
9.8814306900668694
 50
98.9206849873064726
 51
100.4886208859976051
  0
ARC
  5
5DD4
  8
0
 10
325.2822042991851959
 20
2.521286417427512
 30
0.0
 40
2.1469671502816698
 50
90.2718346001769163
 51
98.4888200042859125
  0
ARC
  5
5DD5
  8
0
 10
325.2589226403142106
 20
3.3697039157429538
 30
0.0
 40
1.067827301493911
 50
89.2996025050597666
 51
106.0888606730632944
  0
ARC
  5
5DD6
  8
0
 10
325.0722230267675172
 20
3.9930183478283592
 30
0.0
 40
0.4172395179437377
 50
105.1757237174441002
 51
128.0565756716378871
  0
ARC
  5
5DD7
  8
0
 10
324.8677144726740948
 20
4.2431506695626862
 30
0.0
 40
0.0944655065413016
 50
123.9048233962896006
 51
201.1717018096798881
  0
ARC
  5
5DD8
  8
0
 10
324.919395557617122
 20
4.2819974424863183
 30
0.0
 40
0.1576691239471261
 50
207.5659043960839938
 51
235.967133450449694
  0
LINE
  5
5DD9
  8
0
 10
324.8018513204924034
 20
4.3108690356887616
 30
0.0
 11
324.8020643831491157
 21
4.2585533925150134
 31
0.0
  0
ARC
  5
5DDA
  8
0
 10
325.1421600652304846
 20
4.2926963161822851
 30
0.0
 40
0.3418052255407136
 50
185.7328361731258042
 51
199.9966824392118951
  0
ARC
  5
5DDB
  8
0
 10
325.1518442618557856
 20
4.2991431573126926
 30
0.0
 40
0.3531208652799695
 50
200.4423236432899103
 51
218.3751618099630036
  0
ARC
  5
5DDC
  8
0
 10
325.2631160217688944
 20
3.375051606181164
 30
0.0
 40
0.9126144150094329
 50
89.4439651966747533
 51
104.1937483804016011
  0
ARC
  5
5DDD
  8
0
 10
325.1614940638115741
 20
3.7768420154286391
 30
0.0
 40
0.4981719518105895
 50
104.1937483804016011
 51
115.1708201280575992
  0
ARC
  5
5DDE
  8
0
 10
325.0189050385836254
 20
4.0583347353894741
 30
0.0
 40
0.1830007288512902
 50
112.2499019264830054
 51
146.4787881253270996
  0
ARC
  5
5DDF
  8
0
 10
324.9232885649246896
 20
4.1265253911512838
 30
0.0
 40
0.0657536243359611
 50
150.006146016728195
 51
199.9396941868573094
  0
ARC
  5
5DE0
  8
0
 10
324.9667158234490216
 20
4.1471321447809766
 30
0.0
 40
0.113696584812923
 50
202.2389564367188086
 51
231.5832713853392022
  0
ARC
  5
5DE1
  8
0
 10
325.1285716297139174
 20
4.3587505928102264
 30
0.0
 40
0.3801043950174732
 50
232.2885523796321934
 51
256.8948756193051963
  0
ARC
  5
5DE2
  8
0
 10
325.2788531113336035
 20
4.9743383815804867
 30
0.0
 40
1.0137569513258149
 50
256.5111078750827005
 51
269.9327175344412808
  0
ARC
  5
5DE3
  8
0
 10
327.1733218787910005
 20
5.202980360058131
 30
0.0
 40
2.6291941926759219
 50
193.0148734824985866
 51
201.4780839928544083
  0
ARC
  5
5DE4
  8
0
 10
324.9399512717657217
 20
4.3403603920980247
 30
0.0
 40
0.2355491503265045
 50
205.1342091112072978
 51
246.1441349536576979
  0
ARC
  5
5DE5
  8
0
 10
325.2402898943798277
 20
4.4910423676365001
 30
0.0
 40
0.1598110241197259
 50
204.4691095606445117
 51
249.1040992236196132
  0
ARC
  5
5DE6
  8
0
 10
325.2703905376752118
 20
4.5617064481649701
 30
0.0
 40
0.2365815438002682
 50
248.3976161831238869
 51
270.384022576404675
  0
ARC
  5
5DE7
  8
0
 10
310.8174842130860043
 20
5.5548827958981457
 30
0.0
 40
13.8656942310444506
 50
349.1521142460630927
 51
355.6002050035293109
  0
ARC
  5
5DE8
  8
0
 10
307.6632152358470194
 20
6.1593243756029832
 30
0.0
 40
17.0773546122256086
 50
347.9406187704340141
 51
349.1521142460630927
  0
ARC
  5
5DE9
  8
0
 10
314.7996448574697865
 20
4.8862802170584638
 30
0.0
 40
9.8355210836228881
 50
341.2382388344307742
 51
346.5072430541038102
  0
ARC
  5
5DEA
  8
0
 10
324.5699834606015202
 20
1.554584056519523
 30
0.0
 40
0.4874007811508922
 50
159.8048631181019914
 51
183.3487803070578934
  0
ARC
  5
5DEB
  8
0
 10
324.1734680488282265
 20
1.5313823985852859
 30
0.0
 40
0.0902071398313953
 50
183.3487803070580071
 51
217.2262820650867923
  0
ARC
  5
5DEC
  8
0
 10
265.5489774234176252
 20
10.3129963580209196
 30
0.0
 40
59.4146585881808775
 50
353.5637062766192003
 51
354.2909051920013894
  0
ARC
  5
5DED
  8
0
 10
315.0666636584393245
 20
4.8465066581024772
 30
0.0
 40
9.5970276399815813
 50
348.462617173572994
 51
352.8543214532077172
  0
ARC
  5
5DEE
  8
0
 10
316.2315148116841783
 20
4.4177120307516393
 30
0.0
 40
8.372043044219394
 50
344.9108889967715186
 51
349.7435360344338733
  0
ARC
  5
5DEF
  8
0
 10
282.1174611162556971
 20
15.7313138616812793
 30
0.0
 40
44.3022131783017983
 50
341.5695676711703186
 51
342.267845905116701
  0
ARC
  5
5DF0
  8
0
 10
325.1269201101990234
 20
1.3913653993228681
 30
0.0
 40
1.034854420881534
 50
161.1898491341819124
 51
172.7465854677363097
  0
ARC
  5
5DF1
  8
0
 10
328.8109469702774277
 20
1.6341307143488399
 30
0.0
 40
4.7119335946166032
 50
181.3633128806220043
 51
183.0276771780507943
  0
ARC
  5
5DF2
  8
0
 10
310.666954219532613
 20
0.8185476032375493
 30
0.0
 40
13.4505800554449095
 50
0.8061088133546427
 51
2.4147292410788852
  0
ARC
  5
5DF3
  8
0
 10
324.1562004871199179
 20
1.008235341504198
 30
0.0
 40
0.0400000008891866
 50
180.6508490453348088
 51
270.0000017606899974
  0
LINE
  5
5DF4
  8
0
 10
322.8593641588066134
 20
3.1103455768150119
 30
0.0
 11
321.7845654471066155
 21
3.1103455768150119
 31
0.0
  0
LINE
  5
5DF5
  8
0
 10
321.7845654471066155
 20
3.1103455768150119
 30
0.0
 11
321.7845654471066155
 21
3.0922353406150118
 31
0.0
  0
LINE
  5
5DF6
  8
0
 10
321.7845654471066155
 20
3.0922353406150118
 30
0.0
 11
322.8593641588066134
 21
3.0922353406150118
 31
0.0
  0
LINE
  5
5DF7
  8
0
 10
322.8593641588066134
 20
3.0922353406150118
 30
0.0
 11
322.8593641588066134
 21
3.1103455768150119
 31
0.0
  0
ARC
  5
5DF8
  8
0
 10
321.7964066046064886
 20
3.0772353406150108
 30
0.0
 40
0.0149999999999997
 50
89.9999994732993258
 51
152.6866394278987116
  0
ARC
  5
5DF9
  8
0
 10
321.6497770308440067
 20
3.1529658167457768
 30
0.0
 40
0.1500313210261071
 50
294.0290792544917053
 51
332.6846022404623113
  0
ARC
  5
5DFA
  8
0
 10
321.7169620242751193
 20
3.002234281940328
 30
0.0
 40
0.0149954078803552
 50
113.9708156521500939
 51
217.9493662290799136
  0
ARC
  5
5DFB
  8
0
 10
321.5117397507906958
 20
2.8422353412047641
 30
0.0
 40
0.245227271093831
 50
3.3044702318350092
 51
37.9408157397834813
  0
ARC
  5
5DFC
  8
0
 10
321.7715357945510846
 20
2.857235423672706
 30
0.0
 40
0.0150014491266749
 50
183.3044702318281907
 51
270.7732334510114924
  0
ARC
  5
5DFD
  8
0
 10
321.7717382399723078
 20
2.8272353406695041
 30
0.0
 40
0.0149999999455082
 50
89.9999998692555039
 51
178.9556084868366952
  0
ARC
  5
5DFE
  8
0
 10
319.1851035077285133
 20
2.8744005693661761
 30
0.0
 40
2.5720647067923559
 50
321.6416884386691777
 51
358.955371465360713
  0
LINE
  5
5DFF
  8
0
 10
321.2019756946685902
 20
1.2782353406150111
 30
0.0
 11
321.2019756947490805
 21
1.2682353406150111
 31
0.0
  0
LINE
  5
5E00
  8
0
 10
321.2019756947490805
 20
1.2682353406150111
 30
0.0
 11
323.4419757070602941
 21
1.268235340615012
 31
0.0
  0
ARC
  5
5E01
  8
0
 10
321.2169670219305999
 20
1.2532353405800309
 30
0.0
 40
0.0150000000349802
 50
90.0000000921080385
 51
228.317768708761605
  0
ARC
  5
5E02
  8
0
 10
320.8744926517831004
 20
0.8686104471316902
 30
0.0
 40
0.5000000027495866
 50
12.8601797403022502
 51
48.3177687087616121
  0
ARC
  5
5E03
  8
0
 10
321.3765744569091112
 20
0.9832353416108183
 30
0.0
 40
0.0150000025639536
 50
192.8601797403073874
 51
270.026199054720621
  0
LINE
  5
5E04
  8
0
 10
321.376581315806618
 20
0.9682353406150117
 30
0.0
 11
323.2673595912917222
 21
0.9682353406150117
 31
0.0
  0
ARC
  5
5E05
  8
0
 10
322.847534302491681
 20
3.0772353406150108
 30
0.0
 40
0.0149999999999997
 50
27.3133605721012991
 51
90.0000005267006458
  0
ARC
  5
5E06
  8
0
 10
322.9941384978886276
 20
3.1529467066767718
 30
0.0
 40
0.150000003208906
 50
207.3133605721012884
 51
245.9798278206353928
  0
ARC
  5
5E07
  8
0
 10
322.9269738852312912
 20
3.0022353406248898
 30
0.0
 40
0.0149999999748707
 50
322.0591842602166253
 51
65.9798278206385476
  0
ARC
  5
5E08
  8
0
 10
323.1322011563074739
 20
2.8422353412047641
 30
0.0
 40
0.245227271093831
 50
142.0591842602165116
 51
176.6955297681649881
  0
ARC
  5
5E09
  8
0
 10
322.8724051125471988
 20
2.857235423672706
 30
0.0
 40
0.0150014491266749
 50
269.2267665489885076
 51
356.6955297681716957
  0
ARC
  5
5E0A
  8
0
 10
322.8722026671259187
 20
2.8272353406695041
 30
0.0
 40
0.0149999999455082
 50
1.044391513163287
 51
90.0000001307445103
  0
ARC
  5
5E0B
  8
0
 10
325.4587593478074155
 20
2.8743862821375989
 30
0.0
 40
2.5719864077612282
 50
181.0443420123343117
 51
218.359286096061993
  0
LINE
  5
5E0C
  8
0
 10
323.4419757070602941
 20
1.27823534061501
 30
0.0
 11
323.4419757070602941
 21
1.268235340615012
 31
0.0
  0
ARC
  5
5E0D
  8
0
 10
323.4269738851676266
 20
1.2532353405800309
 30
0.0
 40
0.0150000000349802
 50
311.6822312912382813
 51
89.9999999078919473
  0
ARC
  5
5E0E
  8
0
 10
323.7694482553151261
 20
0.8686104471316902
 30
0.0
 40
0.5000000027495866
 50
131.682231291238395
 51
167.1398202596977001
  0
ARC
  5
5E0F
  8
0
 10
323.2673664501890016
 20
0.9832353416108183
 30
0.0
 40
0.0150000025639536
 50
269.9738009452793221
 51
347.1398202596924989
  0
LINE
  5
5E10
  8
0
 10
321.7717382400065276
 20
2.8422353406150118
 30
0.0
 11
322.8722026670915852
 21
2.84223534061501
 31
0.0
  0
ARC
  5
5E11
  8
0
 10
321.5214625699812245
 20
3.6896758752518539
 30
0.0
 40
0.4108193088801491
 50
344.4181982315438972
 51
16.7518728152915592
  0
ARC
  5
5E12
  8
0
 10
319.451909188529612
 20
4.216756712273761
 30
0.0
 40
2.5463498122443289
 50
340.4745822421828052
 51
345.5028462990914022
  0
ARC
  5
5E13
  8
0
 10
323.6680909006872753
 20
2.7402084465775558
 30
0.0
 40
1.9209524765074071
 50
160.9970493424515894
 51
168.3469799199216936
  0
ARC
  5
5E14
  8
0
 10
321.8014121608075016
 20
3.125309663203466
 30
0.0
 40
0.014964414743336
 50
168.821703660389602
 51
269.6204401254345271
  0
ARC
  5
5E15
  8
0
 10
319.9400115014825019
 20
2.2830387088160071
 30
0.0
 40
3.0435320092702778
 50
17.8622939706680306
 51
27.6155519484347494
  0
ARC
  5
5E16
  8
0
 10
321.72957993070969
 20
2.909431605999484
 30
0.0
 40
1.1490666757334971
 50
10.9665352329568098
 51
15.5039282105512708
  0
ARC
  5
5E17
  8
0
 10
322.842899199246915
 20
3.1253489800347132
 30
0.0
 40
0.0150042498354987
 50
270.6086613331116268
 51
10.2737967981022695
  0
LINE
  5
5E18
  8
0
 10
322.9388035795332144
 20
2.9930126332150109
 30
0.0
 11
321.7051373275650121
 21
2.9930126332150109
 31
0.0
  0
LINE
  5
5E19
  8
0
 10
321.2019756946685902
 20
1.2782353406150111
 30
0.0
 11
323.4419757070602941
 21
1.27823534061501
 31
0.0
  0
LINE
  5
5E1A
  8
0
 10
321.7108698209596014
 20
3.0159363736150122
 30
0.0
 11
322.933079758756719
 21
3.0159363737150109
 31
0.0
  0
ARC
  5
5E1B
  8
0
 10
321.5193221302694155
 20
3.6612400981390421
 30
0.0
 40
0.4219050158426481
 50
20.3682625904206596
 51
55.9389834499148932
  0
ARC
  5
5E1C
  8
0
 10
321.0060037046371804
 20
2.899140634647718
 30
0.0
 40
1.3407578952024981
 50
56.0064548177303223
 51
81.5826046085704064
  0
ARC
  5
5E1D
  8
0
 10
320.7667812728769832
 20
1.3964220908047169
 30
0.0
 40
2.8623558011951049
 50
81.248869165461727
 51
93.6356481307629167
  0
ARC
  5
5E1E
  8
0
 10
320.8672648567521719
 20
-1.1171657348738151
 30
0.0
 40
5.37758162676037
 50
93.0058558890583953
 51
95.9544003049697238
  0
ARC
  5
5E1F
  8
0
 10
321.0994281513587794
 20
-3.384737595073477
 30
0.0
 40
7.657004542429152
 50
95.9220730503755021
 51
98.2788262165059621
  0
ARC
  5
5E20
  8
0
 10
319.9571633107329944
 20
4.2533985589557437
 30
0.0
 40
0.0626902310964303
 50
210.1888630171546879
 51
249.9786390322082923
  0
ARC
  5
5E21
  8
0
 10
319.9651558233122159
 20
4.287061728917684
 30
0.0
 40
0.0971384126949789
 50
252.3479733319630043
 51
271.8957541505747031
  0
ARC
  5
5E22
  8
0
 10
319.9627632923554188
 20
4.4181366559513533
 30
0.0
 40
0.228229033035544
 50
271.4074948312826905
 51
278.600143568941121
  0
ARC
  5
5E23
  8
0
 10
321.5092667485448032
 20
5.2079863844661709
 30
0.0
 40
1.884830957225867
 50
204.3594296463757019
 51
211.5459582385219903
  0
ARC
  5
5E24
  8
0
 10
319.7886470185565031
 20
4.5517227182928428
 30
0.0
 40
0.040676662774746
 50
151.2959163042366981
 51
178.5521224851731006
  0
ARC
  5
5E25
  8
0
 10
319.8080459370474955
 20
4.5447051862850874
 30
0.0
 40
0.0611439160015374
 50
118.520693752087297
 51
154.2601121183446935
  0
ARC
  5
5E26
  8
0
 10
319.9444164372802106
 20
4.119703143453914
 30
0.0
 40
0.5065473995119153
 50
102.3785028575018003
 51
109.0777235458124039
  0
ARC
  5
5E27
  8
0
 10
320.535039957534309
 20
2.062550247903149
 30
0.0
 40
2.6459809647510539
 50
99.4696272112577304
 51
105.3226403901714008
  0
ARC
  5
5E28
  8
0
 10
320.4932960870331726
 20
1.8114159522994111
 30
0.0
 40
2.888003543966478
 50
92.3272008137917766
 51
97.8328099517175644
  0
ARC
  5
5E29
  8
0
 10
320.5487823894404187
 20
1.189388708341127
 30
0.0
 40
3.5119005447937521
 50
91.6464287667355535
 51
92.8196253151244122
  0
ARC
  5
5E2A
  8
0
 10
320.5970693637258933
 20
1.0073586807566659
 30
0.0
 40
3.6954933966193511
 50
87.9814145744535949
 51
92.3136996564196437
  0
ARC
  5
5E2B
  8
0
 10
320.6386577283848851
 20
1.8731045245543669
 30
0.0
 40
2.8288415444795958
 50
81.863608412612578
 51
88.2055841776021765
  0
ARC
  5
5E2C
  8
0
 10
320.366113352018715
 20
0.3419315994947754
 30
0.0
 40
4.383496394739625
 50
80.3123207253433264
 51
81.1696106896148137
  0
ARC
  5
5E2D
  8
0
 10
320.5726840805867823
 20
1.791851195655346
 30
0.0
 40
2.9197709448739362
 50
69.8728687915620981
 51
79.5202221280072337
  0
ARC
  5
5E2E
  8
0
 10
320.8070941728498724
 20
2.3762084880139929
 30
0.0
 40
2.2905169249448538
 50
61.3204152604923109
 51
70.3485249293347294
  0
ARC
  5
5E2F
  8
0
 10
320.4079993047869266
 20
1.6980371444886719
 30
0.0
 40
3.0771172119344579
 50
47.5117826170210265
 51
60.8610381977604575
  0
ARC
  5
5E30
  8
0
 10
322.3855628792381935
 20
3.8566699708282162
 30
0.0
 40
0.1495837893889218
 50
25.9909184273865215
 51
47.6127660262266232
  0
ARC
  5
5E31
  8
0
 10
317.0660343842712905
 20
0.9890341294278526
 30
0.0
 40
6.1926998000227584
 50
25.8980519741442095
 51
28.271650706027561
  0
ARC
  5
5E32
  8
0
 10
320.6393242535486934
 20
4.8064476270277261
 30
0.0
 40
0.9267420582291315
 50
195.8876307349439116
 51
203.9281274987150141
  0
ARC
  5
5E33
  8
0
 10
321.658900166959711
 20
-4.1946291142783716
 30
0.0
 40
8.9536726281102226
 50
99.9580498153875681
 51
102.323005950017901
  0
ARC
  5
5E34
  8
0
 10
320.9804856388743133
 20
-4.4434606346587202
 30
0.0
 40
9.1092467506837611
 50
94.3043687896314964
 51
95.480003265274263
  0
ARC
  5
5E35
  8
0
 10
320.5578044079770166
 20
2.0909937447347011
 30
0.0
 40
2.562427027984052
 50
84.7686687737362945
 51
95.8463392524472653
  0
ARC
  5
5E36
  8
0
 10
320.5349455593840844
 20
1.4993284373215421
 30
0.0
 40
3.1538662276878071
 50
71.0046579684967867
 51
85.3351694818539954
  0
ARC
  5
5E37
  8
0
 10
319.9731671845623282
 20
0.6579897880320547
 30
0.0
 40
4.1402489886794802
 50
52.0375843911590081
 51
67.4411254395423896
  0
ARC
  5
5E38
  8
0
 10
325.2644955953788894
 20
3.4237951605446031
 30
0.0
 40
0.8426997421206462
 50
89.491415829292194
 51
107.5358665444709061
  0
ARC
  5
5E39
  8
0
 10
325.0904828197118945
 20
3.9671489558543631
 30
0.0
 40
0.2721748598437994
 50
107.0701799580751015
 51
132.4070938471136003
  0
ARC
  5
5E3A
  8
0
 10
324.9631885976710919
 20
4.109149061773981
 30
0.0
 40
0.0814988429129108
 50
133.6540241740534896
 51
175.0089911146426118
  0
ARC
  5
5E3B
  8
0
 10
324.9528294178126089
 20
4.1163691711577073
 30
0.0
 40
0.0708307678562331
 50
180.1049625456871013
 51
220.8863125985544968
  0
ARC
  5
5E3C
  8
0
 10
325.052521123140707
 20
4.2049734325064589
 30
0.0
 40
0.2042028463646458
 50
221.3721387910435965
 51
249.2798281283714914
  0
ARC
  5
5E3D
  8
0
 10
325.2702663642322136
 20
4.9093530970187551
 30
0.0
 40
0.946405584840662
 50
260.7531200263396727
 51
270.1034836188213148
  0
ARC
  5
5E3E
  8
0
 10
325.1811839834415991
 20
4.4823802326486986
 30
0.0
 40
0.5096717195339914
 50
246.7841448111880993
 51
256.213357599033202
  0
ARC
  5
5E3F
  8
0
 10
325.2370399120014213
 20
4.694086611726707
 30
0.0
 40
0.7285995568657087
 50
255.9148777927850915
 51
260.6118668390715811
  0
ARC
  5
5E40
  8
0
 10
325.2681623033093956
 20
4.6990087240426588
 30
0.0
 40
0.7104153928259846
 50
255.9099732325582011
 51
270.307555669165481
  0
ARC
  5
5E41
  8
0
 10
325.2658752351539988
 20
4.705672385879577
 30
0.0
 40
0.7216905560570553
 50
256.2127836720231926
 51
270.4843277324558244
  0
ARC
  5
5E42
  8
0
 10
325.2698382817625884
 20
3.4098280096178728
 30
0.0
 40
0.8314775457381151
 50
89.8527141501882056
 51
102.0028023356170053
  0
ARC
  5
5E43
  8
0
 10
325.1872849187540169
 20
3.790405155189962
 30
0.0
 40
0.4420559453701147
 50
101.7949184793450996
 51
117.2675254532986031
  0
ARC
  5
5E44
  8
0
 10
325.0466434044232074
 20
4.057063379928314
 30
0.0
 40
0.1406240227074179
 50
116.108418782320598
 51
147.35998898378989
  0
ARC
  5
5E45
  8
0
 10
324.9780192669344956
 20
4.1043091566395873
 30
0.0
 40
0.0574217762981955
 50
150.1264717492732927
 51
179.7711316096325049
  0
ARC
  5
5E46
  8
0
 10
325.2709563130144943
 20
4.8332351664527504
 30
0.0
 40
0.8653921126241794
 50
262.183419995378415
 51
270.0674911186426925
  0
ARC
  5
5E47
  8
0
 10
325.2309754544507996
 20
4.5715349650197581
 30
0.0
 40
0.6006994395581858
 50
250.3089595884179914
 51
262.5666246022460086
  0
ARC
  5
5E48
  8
0
 10
324.9843450322621266
 20
4.106280671769265
 30
0.0
 40
0.0637708845972627
 50
181.5654467133161916
 51
218.4256233767422088
  0
ARC
  5
5E49
  8
0
 10
325.0454811030974156
 20
4.1544547211516623
 30
0.0
 40
0.1416061513907059
 50
218.3221813406582896
 51
238.188544285854789
  0
ARC
  5
5E4A
  8
0
 10
325.1308812191018092
 20
4.2890103476768164
 30
0.0
 40
0.3009709043483832
 50
237.875535721474904
 51
250.1271438105598861
  0
ARC
  5
5E4B
  8
0
 10
325.1646191035704874
 20
4.3044251854158828
 30
0.0
 40
0.3025274750301897
 50
236.6104471422414974
 51
256.7372936669232217
  0
ARC
  5
5E4C
  8
0
 10
325.165503293325628
 20
4.3250548450188759
 30
0.0
 40
0.3281891340096299
 50
238.4846930622288994
 51
257.3952088292837743
  0
ARC
  5
5E4D
  8
0
 10
325.2730543275284276
 20
3.4215180440769979
 30
0.0
 40
0.8099057131001991
 50
90.0763065700545269
 51
95.9752050450986331
  0
ARC
  5
5E4E
  8
0
 10
325.2557345902501993
 20
3.5908965356020448
 30
0.0
 40
0.6396446264286501
 50
96.0116022023793363
 51
104.3917877820937008
  0
ARC
  5
5E4F
  8
0
 10
325.228900193707716
 20
3.711581319508567
 30
0.0
 40
0.5160928912841217
 50
104.836313007468803
 51
106.2846283511757974
  0
ARC
  5
5E50
  8
0
 10
325.1972239647299148
 20
3.8187944134001861
 30
0.0
 40
0.4042989656832205
 50
106.236181363446704
 51
111.2551337789756047
  0
ARC
  5
5E51
  8
0
 10
325.1523140266406813
 20
3.9336355402784942
 30
0.0
 40
0.2809891295685158
 50
111.2097492277015931
 51
113.9282415024609065
  0
ARC
  5
5E52
  8
0
 10
325.1186836874883284
 20
4.0005668021774774
 30
0.0
 40
0.2062014380589278
 50
112.9297857549861988
 51
130.4320203301982986
  0
ARC
  5
5E53
  8
0
 10
325.0267224823334118
 20
4.105232368688533
 30
0.0
 40
0.0669250390154567
 50
128.618210086003387
 51
175.9033777427009966
  0
ARC
  5
5E54
  8
0
 10
325.0168554353916193
 20
4.1115553133234473
 30
0.0
 40
0.0569078910965128
 50
181.5526104959598968
 51
219.6232655716310092
  0
ARC
  5
5E55
  8
0
 10
325.0647890894122725
 20
4.1484226185437469
 30
0.0
 40
0.1173607318163855
 50
218.5629010951141993
 51
235.3899628393849923
  0
ARC
  5
5E56
  8
0
 10
325.0021590200425976
 20
4.1103749516224664
 30
0.0
 40
0.053937125672061
 50
174.4448393870515872
 51
210.5363981224240035
  0
ARC
  5
5E57
  8
0
 10
325.0439439710091847
 20
4.1342491806287169
 30
0.0
 40
0.1020591123614699
 50
210.1617730228323921
 51
240.6691968382581877
  0
ARC
  5
5E58
  8
0
 10
325.0102963274263175
 20
4.1072060756211091
 30
0.0
 40
0.0623878662988588
 50
136.7504573727227069
 51
172.2711832319924099
  0
ARC
  5
5E59
  8
0
 10
325.0669270745286781
 20
4.059065811068157
 30
0.0
 40
0.1366721019059798
 50
122.0183042714367048
 51
138.3176415832018051
  0
ARC
  5
5E5A
  8
0
 10
325.1426197544411139
 20
3.9386641224254531
 30
0.0
 40
0.2788898608490442
 50
109.9038865207400022
 51
122.0886528010544936
  0
ARC
  5
5E5B
  8
0
 10
325.2210989774252994
 20
3.7250681411585811
 30
0.0
 40
0.5064455606781941
 50
100.5207097574133002
 51
110.0253850324988036
  0
ARC
  5
5E5C
  8
0
 10
325.271509353680699
 20
3.4246945883680548
 30
0.0
 40
0.811322695733234
 50
89.9670669647387342
 51
95.920267440769706
  0
ARC
  5
5E5D
  8
0
 10
325.2601538744199843
 20
3.5329923087430588
 30
0.0
 40
0.7024313498303769
 50
95.9101031724340061
 51
100.7920902837582986
  0
ARC
  5
5E5E
  8
0
 10
325.2794557941192011
 20
3.4237951605446031
 30
0.0
 40
0.8426997421206462
 50
72.4641334555290939
 51
90.5085841707077918
  0
ARC
  5
5E5F
  8
0
 10
325.4534685697863097
 20
3.9671489558543631
 30
0.0
 40
0.2721748598437994
 50
47.5929061528863997
 51
72.9298200419217721
  0
ARC
  5
5E60
  8
0
 10
325.5807627918271123
 20
4.109149061773981
 30
0.0
 40
0.0814988429129108
 50
4.9910088853573731
 51
46.345975825946482
  0
ARC
  5
5E61
  8
0
 10
325.5911219716855953
 20
4.1163691711577073
 30
0.0
 40
0.0708307678562331
 50
319.1136874014454747
 51
359.8950374543128987
  0
ARC
  5
5E62
  8
0
 10
325.4914302663574972
 20
4.2049734325064589
 30
0.0
 40
0.2042028463646458
 50
290.7201718716285086
 51
318.6278612089564035
  0
ARC
  5
5E63
  8
0
 10
325.2736850252659906
 20
4.9093530970187551
 30
0.0
 40
0.946405584840662
 50
269.8965163811786852
 51
279.2468799736603273
  0
ARC
  5
5E64
  8
0
 10
325.3627674060566051
 20
4.4823802326486986
 30
0.0
 40
0.5096717195339914
 50
283.786642400966798
 51
293.2158551888118154
  0
ARC
  5
5E65
  8
0
 10
325.3069114774967829
 20
4.694086611726707
 30
0.0
 40
0.7285995568657087
 50
279.3881331609284189
 51
284.0851222072149085
  0
ARC
  5
5E66
  8
0
 10
325.2757890861888086
 20
4.6990087240426588
 30
0.0
 40
0.7104153928259846
 50
269.692444330834519
 51
284.0900267674417137
  0
ARC
  5
5E67
  8
0
 10
325.2780761543442054
 20
4.705672385879577
 30
0.0
 40
0.7216905560570553
 50
269.5156722675441756
 51
283.7872163279768074
  0
ARC
  5
5E68
  8
0
 10
325.2741131077100931
 20
3.4098280093769282
 30
0.0
 40
0.8314775459790972
 50
77.9971976661177138
 51
90.1472858507888759
  0
ARC
  5
5E69
  8
0
 10
325.3566664707441873
 20
3.790405155189962
 30
0.0
 40
0.4420559453701147
 50
62.73247454670134
 51
78.2050815206549146
  0
ARC
  5
5E6A
  8
0
 10
325.4973079850749969
 20
4.057063379928314
 30
0.0
 40
0.1406240227074179
 50
32.6400110162100319
 51
63.8915812176793523
  0
ARC
  5
5E6B
  8
0
 10
325.5659321225637086
 20
4.1043091566395873
 30
0.0
 40
0.0574217762981955
 50
0.2288683903674262
 51
29.8735282507267108
  0
ARC
  5
5E6C
  8
0
 10
325.2729950764837099
 20
4.8332351664527504
 30
0.0
 40
0.8653921126241794
 50
269.9325088813573075
 51
277.816580004621585
  0
ARC
  5
5E6D
  8
0
 10
325.3129759350472909
 20
4.5715349650197581
 30
0.0
 40
0.6006994395581858
 50
277.4333753977539914
 51
289.6910404115789106
  0
ARC
  5
5E6E
  8
0
 10
325.5596063572360777
 20
4.106280671769265
 30
0.0
 40
0.0637708845972627
 50
321.5743766232578196
 51
358.4345532866838084
  0
ARC
  5
5E6F
  8
0
 10
325.4984702864007886
 20
4.1544547211516623
 30
0.0
 40
0.1416061513907059
 50
301.811455714145211
 51
321.6778186593417104
  0
ARC
  5
5E70
  8
0
 10
325.413070170396395
 20
4.2890103476768164
 30
0.0
 40
0.3009709043483832
 50
289.8728561894400855
 51
302.1244642785251244
  0
ARC
  5
5E71
  8
0
 10
325.3793322859277168
 20
4.3044251854158828
 30
0.0
 40
0.3025274750301897
 50
283.2627063330767783
 51
303.3895528577584741
  0
ARC
  5
5E72
  8
0
 10
325.3784480961725762
 20
4.3250548450188759
 30
0.0
 40
0.3281891340096299
 50
282.6047911707162257
 51
301.5153069377710722
  0
ARC
  5
5E73
  8
0
 10
325.2708970619867159
 20
3.4215180443718691
 30
0.0
 40
0.8099057128051725
 50
84.024794953915702
 51
89.9236934381854098
  0
ARC
  5
5E74
  8
0
 10
325.2882167992480049
 20
3.5908965356020448
 30
0.0
 40
0.6396446264286501
 50
75.6082122179063134
 51
83.9883977976206779
  0
ARC
  5
5E75
  8
0
 10
325.3150511957904882
 20
3.711581319508567
 30
0.0
 40
0.5160928912841217
 50
73.7153716488242168
 51
75.1636869925311402
  0
ARC
  5
5E76
  8
0
 10
325.3467274247682894
 20
3.8187944134001861
 30
0.0
 40
0.4042989656832205
 50
68.7448662210243384
 51
73.7638186365532533
  0
ARC
  5
5E77
  8
0
 10
325.3916373628575229
 20
3.9336355402784942
 30
0.0
 40
0.2809891295685158
 50
66.0717584975390508
 51
68.7902507722983785
  0
ARC
  5
5E78
  8
0
 10
325.4252677020098758
 20
4.0005668021774774
 30
0.0
 40
0.2062014380589278
 50
49.5679796698017228
 51
67.0702142450137586
  0
ARC
  5
5E79
  8
0
 10
325.5172289071647924
 20
4.105232368688533
 30
0.0
 40
0.0669250390154567
 50
4.0966222572989537
 51
51.381789913996549
  0
ARC
  5
5E7A
  8
0
 10
325.5270959541065849
 20
4.1115553133234473
 30
0.0
 40
0.0569078910965128
 50
320.3767344283689908
 51
358.447389504040018
  0
ARC
  5
5E7B
  8
0
 10
325.4791623000858749
 20
4.1484226185437469
 30
0.0
 40
0.1173607318163855
 50
304.6100371606149793
 51
321.4370989048857155
  0
ARC
  5
5E7C
  8
0
 10
325.5417923694557203
 20
4.1103749516224664
 30
0.0
 40
0.053937125672061
 50
329.4636018775759112
 51
5.5551606129483471
  0
ARC
  5
5E7D
  8
0
 10
325.5000074184890195
 20
4.1342491806287169
 30
0.0
 40
0.1020591123614699
 50
299.3308031617418123
 51
329.8382269771674942
  0
ARC
  5
5E7E
  8
0
 10
325.5336550620718867
 20
4.1072060756211091
 30
0.0
 40
0.0623878662988588
 50
7.7288167680075572
 51
43.2495426272772505
  0
ARC
  5
5E7F
  8
0
 10
325.4770243149695261
 20
4.059065811068157
 30
0.0
 40
0.1366721019059798
 50
41.6823584167981522
 51
57.9816957285632668
  0
ARC
  5
5E80
  8
0
 10
325.4013316350570904
 20
3.9386641224254531
 30
0.0
 40
0.2788898608490442
 50
57.911347198945478
 51
70.0961134792599552
  0
ARC
  5
5E81
  8
0
 10
325.3228524120729048
 20
3.7250681411585811
 30
0.0
 40
0.5064455606781941
 50
69.9746149675011395
 51
79.4792902425866714
  0
ARC
  5
5E82
  8
0
 10
325.2724420358175053
 20
3.4246945883680548
 30
0.0
 40
0.811322695733234
 50
84.079732559230294
 51
90.0329330352612942
  0
ARC
  5
5E83
  8
0
 10
325.2837975150782199
 20
3.5329923087430588
 30
0.0
 40
0.7024313498303769
 50
79.2079097162417014
 51
84.0898968275660366
  0
ARC
  5
5E84
  8
0
 10
325.2379281118019776
 20
4.2019452719427832
 30
0.0
 40
0.0066726449957093
 50
269.5886483020195783
 51
302.8589034399964817
  0
ARC
  5
5E85
  8
0
 10
325.2446689582633894
 20
4.2018690310334721
 30
0.0
 40
0.0096311776606889
 50
180.8796481618757923
 51
202.6823709153781863
  0
ARC
  5
5E86
  8
0
 10
325.2419634723610784
 20
4.2004486988472411
 30
0.0
 40
0.0065926475283548
 50
200.3596788151677117
 51
231.7301013862004027
  0
LINE
  5
5E87
  8
0
 10
325.2350389156491133
 20
4.2053478859150104
 30
0.0
 11
325.2350389156491133
 21
4.2017211717150111
 31
0.0
  0
LINE
  5
5E88
  8
0
 10
325.2350389156491133
 20
4.2053478859150104
 30
0.0
 11
325.2449934641518894
 21
4.2120570769169019
 31
0.0
  0
LINE
  5
5E89
  8
0
 10
325.2415485026490956
 20
4.19634018841501
 30
0.0
 11
325.2564314926908082
 21
4.2063748122150111
 31
0.0
  0
LINE
  5
5E8A
  8
0
 10
325.2037847180491212
 20
4.1952727989150107
 30
0.0
 11
325.2048889644490828
 21
4.1948843142150114
 31
0.0
  0
LINE
  5
5E8B
  8
0
 10
325.2048889644490828
 20
4.1948843142150114
 30
0.0
 11
325.2367762419490873
 21
4.1948841865150106
 31
0.0
  0
LINE
  5
5E8C
  8
0
 10
325.2367762419490873
 20
4.1948841865150106
 30
0.0
 11
325.2378802063489047
 21
4.1952727989152168
 31
0.0
  0
ARC
  5
5E8D
  8
0
 10
325.1970541724824102
 20
4.2018572668180054
 30
0.0
 40
0.0095728037373393
 50
340.5389881286855029
 51
359.1854071254455221
  0
ARC
  5
5E8E
  8
0
 10
325.1994928466074839
 20
4.200647876119926
 30
0.0
 40
0.0068783439452858
 50
308.6065339385484094
 51
343.270679160816087
  0
LINE
  5
5E8F
  8
0
 10
325.1963853490813108
 20
4.2122499108212832
 30
0.0
 11
325.2066260087490832
 21
4.2053478859150104
 31
0.0
  0
LINE
  5
5E90
  8
0
 10
325.2066260087490832
 20
4.2053478859150104
 30
0.0
 11
325.2066260087490832
 21
4.2017211717150271
 31
0.0
  0
LINE
  5
5E91
  8
0
 10
325.186736973856398
 20
4.2067626793101436
 30
0.0
 11
325.2037847180491212
 21
4.1952727989150107
 31
0.0
  0
LINE
  5
5E92
  8
0
 10
325.2066260087490832
 20
4.2053478859150104
 30
0.0
 11
325.2350389156491133
 21
4.2053478859150104
 31
0.0
  0
ARC
  5
5E93
  8
0
 10
325.2379281118019776
 20
4.178965511042783
 30
0.0
 40
0.0066726449957093
 50
269.5886483020195783
 51
302.8589034399964817
  0
ARC
  5
5E94
  8
0
 10
325.2446689582633894
 20
4.1788892701334719
 30
0.0
 40
0.0096311776606889
 50
180.8796481618757923
 51
202.6823709153781863
  0
ARC
  5
5E95
  8
0
 10
325.2419634723610784
 20
4.1774689379472401
 30
0.0
 40
0.0065926475283548
 50
200.359678815167598
 51
231.7301013862004027
  0
LINE
  5
5E96
  8
0
 10
325.2350389156491133
 20
4.1823681250150111
 30
0.0
 11
325.2350389156491133
 21
4.1787414108150118
 31
0.0
  0
LINE
  5
5E97
  8
0
 10
325.2350389156491133
 20
4.1823681250150111
 30
0.0
 11
325.2449934641518894
 21
4.1890773160169017
 31
0.0
  0
LINE
  5
5E98
  8
0
 10
325.2415485026490956
 20
4.1733604275150116
 30
0.0
 11
325.256431492838999
 21
4.1833950514150109
 31
0.0
  0
LINE
  5
5E99
  8
0
 10
325.2037847180491212
 20
4.1722930380150114
 30
0.0
 11
325.2048889644490828
 21
4.1719045533150121
 31
0.0
  0
LINE
  5
5E9A
  8
0
 10
325.2048889644490828
 20
4.1719045533150121
 30
0.0
 11
325.2367762419490873
 21
4.1719044256150113
 31
0.0
  0
LINE
  5
5E9B
  8
0
 10
325.2367762419490873
 20
4.1719044256150113
 30
0.0
 11
325.2378802063489047
 21
4.1722930380152166
 31
0.0
  0
ARC
  5
5E9C
  8
0
 10
325.1970541724824102
 20
4.1788775059180061
 30
0.0
 40
0.0095728037373393
 50
340.5389881286855029
 51
359.1854071254455221
  0
ARC
  5
5E9D
  8
0
 10
325.1994928466074839
 20
4.1776681152199284
 30
0.0
 40
0.0068783439452858
 50
308.6065339385484094
 51
343.270679160816087
  0
LINE
  5
5E9E
  8
0
 10
325.1966714602490924
 20
4.1890773160150117
 30
0.0
 11
325.2066260087490832
 21
4.1823681250150111
 31
0.0
  0
LINE
  5
5E9F
  8
0
 10
325.2066260087490832
 20
4.1823681250150111
 30
0.0
 11
325.2066260087490832
 21
4.178741410815026
 31
0.0
  0
LINE
  5
5EA0
  8
0
 10
325.2066260087490832
 20
4.1823681250150111
 30
0.0
 11
325.2350389156491133
 21
4.1823681250150111
 31
0.0
  0
ARC
  5
5EA1
  8
0
 10
325.2379281118019776
 20
4.1559857502427828
 30
0.0
 40
0.0066726449957093
 50
269.5886483020195783
 51
302.8589034399964817
  0
ARC
  5
5EA2
  8
0
 10
325.2446689582633894
 20
4.1559095093334717
 30
0.0
 40
0.0096311776606889
 50
180.8796481618757923
 51
202.6823709153781863
  0
ARC
  5
5EA3
  8
0
 10
325.2419634723610784
 20
4.1544891771472399
 30
0.0
 40
0.0065926475283548
 50
200.359678815167598
 51
231.7301013862004027
  0
LINE
  5
5EA4
  8
0
 10
325.2350389156491133
 20
4.1593883642150109
 30
0.0
 11
325.2350389156491133
 21
4.1557616500150116
 31
0.0
  0
LINE
  5
5EA5
  8
0
 10
325.2350389156491133
 20
4.1593883642150109
 30
0.0
 11
325.2449934641518894
 21
4.1660975552169024
 31
0.0
  0
LINE
  5
5EA6
  8
0
 10
325.2415485026490956
 20
4.1503806667150123
 30
0.0
 11
325.2564314926908082
 21
4.1604152905150107
 31
0.0
  0
LINE
  5
5EA7
  8
0
 10
325.2037847180491212
 20
4.1493132772150112
 30
0.0
 11
325.2048889644490828
 21
4.148924792515011
 31
0.0
  0
LINE
  5
5EA8
  8
0
 10
325.2048889644490828
 20
4.148924792515011
 30
0.0
 11
325.2367762419490873
 21
4.1489246648150111
 31
0.0
  0
LINE
  5
5EA9
  8
0
 10
325.2367762419490873
 20
4.1489246648150111
 30
0.0
 11
325.2378802063489047
 21
4.1493132772152173
 31
0.0
  0
ARC
  5
5EAA
  8
0
 10
325.1970541724824102
 20
4.155897745118005
 30
0.0
 40
0.0095728037373393
 50
340.5389881286855029
 51
359.1854071254455221
  0
ARC
  5
5EAB
  8
0
 10
325.1994928466074839
 20
4.1546883544199282
 30
0.0
 40
0.0068783439452858
 50
308.6065339385484094
 51
343.270679160816087
  0
LINE
  5
5EAC
  8
0
 10
325.1966714602490924
 20
4.1660975552150123
 30
0.0
 11
325.2066260087490832
 21
4.1593883642150109
 31
0.0
  0
LINE
  5
5EAD
  8
0
 10
325.2066260087490832
 20
4.1593883642150109
 30
0.0
 11
325.2066260087490832
 21
4.1557616500150258
 31
0.0
  0
LINE
  5
5EAE
  8
0
 10
325.2066260087490832
 20
4.1593883642150109
 30
0.0
 11
325.2350389156491133
 21
4.1593883642150109
 31
0.0
  0
ARC
  5
5EAF
  8
0
 10
325.2037215533192125
 20
4.1789037719474713
 30
0.0
 40
0.0066110356910922
 50
236.9587369269337955
 51
270.5474372964976055
  0
ARC
  5
5EB0
  8
0
 10
325.2037387657126146
 20
4.1559731904107586
 30
0.0
 40
0.0066600717258032
 50
237.0616293835653039
 51
270.3953254462510927
  0
LINE
  5
5EB1
  8
0
 10
325.2001174408491124
 20
4.1503836858150214
 30
0.0
 11
325.1852333667641233
 21
4.1604152905150107
 31
0.0
  0
LINE
  5
5EB2
  8
0
 10
325.2001169331491042
 20
4.1733618854150114
 30
0.0
 11
325.1852334001256963
 21
4.1833950514150109
 31
0.0
  0
ARC
  5
5EB3
  8
0
 10
325.2379281118019776
 20
4.1330059894427844
 30
0.0
 40
0.0066726449957093
 50
269.5886483020195783
 51
302.8589034399964817
  0
ARC
  5
5EB4
  8
0
 10
325.2446689582633894
 20
4.1329297485334733
 30
0.0
 40
0.0096311776606889
 50
180.8796481618757923
 51
202.682370915378101
  0
ARC
  5
5EB5
  8
0
 10
325.2419634723610784
 20
4.1315094163472406
 30
0.0
 40
0.0065926475283548
 50
200.359678815167598
 51
231.7301013862004027
  0
LINE
  5
5EB6
  8
0
 10
325.2350389156491133
 20
4.1364086034150107
 30
0.0
 11
325.2350389156491133
 21
4.1327818892150123
 31
0.0
  0
LINE
  5
5EB7
  8
0
 10
325.2350389156491133
 20
4.1364086034150107
 30
0.0
 11
325.2449934641518894
 21
4.1431177944169031
 31
0.0
  0
LINE
  5
5EB8
  8
0
 10
325.2415485026490956
 20
4.1274009059150121
 30
0.0
 11
325.2564314926908082
 21
4.1374355297150114
 31
0.0
  0
LINE
  5
5EB9
  8
0
 10
325.2037847180491212
 20
4.126333516415011
 30
0.0
 11
325.2048889644490828
 21
4.1259450317150117
 31
0.0
  0
LINE
  5
5EBA
  8
0
 10
325.2048889644490828
 20
4.1259450317150117
 30
0.0
 11
325.2367762419490873
 21
4.1259449040150109
 31
0.0
  0
LINE
  5
5EBB
  8
0
 10
325.2367762419490873
 20
4.1259449040150109
 30
0.0
 11
325.2378802063489047
 21
4.1263335164152171
 31
0.0
  0
ARC
  5
5EBC
  8
0
 10
325.1970541724824102
 20
4.1329179843180048
 30
0.0
 40
0.0095728037373393
 50
340.5389881286855029
 51
359.1854071254455221
  0
ARC
  5
5EBD
  8
0
 10
325.1994928466074839
 20
4.131708593619928
 30
0.0
 40
0.0068783439452858
 50
308.6065339385484094
 51
343.270679160816087
  0
LINE
  5
5EBE
  8
0
 10
325.1966714602490924
 20
4.1431177944150122
 30
0.0
 11
325.2066260087490832
 21
4.1364086034150107
 31
0.0
  0
LINE
  5
5EBF
  8
0
 10
325.2066260087490832
 20
4.1364086034150107
 30
0.0
 11
325.2066260087490832
 21
4.1327818892150274
 31
0.0
  0
LINE
  5
5EC0
  8
0
 10
325.2066260087490832
 20
4.1364086034150107
 30
0.0
 11
325.2350389156491133
 21
4.1364086034150107
 31
0.0
  0
ARC
  5
5EC1
  8
0
 10
325.2037387657126146
 20
4.1329934296107602
 30
0.0
 40
0.0066600717258032
 50
237.0616293835653039
 51
270.3953254462510927
  0
LINE
  5
5EC2
  8
0
 10
325.2001174408491124
 20
4.1274039250150221
 30
0.0
 11
325.1852333667641233
 21
4.1374355297150114
 31
0.0
  0
ARC
  5
5EC3
  8
0
 10
325.2379281118019776
 20
4.1100262285427842
 30
0.0
 40
0.0066726449957093
 50
269.5886483020195783
 51
302.8589034399964817
  0
ARC
  5
5EC4
  8
0
 10
325.2446689582633894
 20
4.1099499876334731
 30
0.0
 40
0.0096311776606889
 50
180.8796481618757923
 51
202.682370915378101
  0
ARC
  5
5EC5
  8
0
 10
325.2419634723610784
 20
4.1085296554472412
 30
0.0
 40
0.0065926475283548
 50
200.359678815167598
 51
231.7301013862004027
  0
LINE
  5
5EC6
  8
0
 10
325.2350389156491133
 20
4.1134288425150114
 30
0.0
 11
325.2350389156491133
 21
4.1098021283150121
 31
0.0
  0
LINE
  5
5EC7
  8
0
 10
325.2350389156491133
 20
4.1134288425150114
 30
0.0
 11
325.2449934641518894
 21
4.120138033516902
 31
0.0
  0
LINE
  5
5EC8
  8
0
 10
325.2415485026490956
 20
4.104421145015011
 30
0.0
 11
325.2564314926908082
 21
4.1144557688150112
 31
0.0
  0
LINE
  5
5EC9
  8
0
 10
325.2037847180491212
 20
4.1033537555150108
 30
0.0
 11
325.2048889644490828
 21
4.1029652708150124
 31
0.0
  0
LINE
  5
5ECA
  8
0
 10
325.2048889644490828
 20
4.1029652708150124
 30
0.0
 11
325.2367762419490873
 21
4.1029651431150107
 31
0.0
  0
LINE
  5
5ECB
  8
0
 10
325.2367762419490873
 20
4.1029651431150107
 30
0.0
 11
325.2378802063489047
 21
4.1033537555152169
 31
0.0
  0
ARC
  5
5ECC
  8
0
 10
325.1970541724824102
 20
4.1099382234180046
 30
0.0
 40
0.0095728037373393
 50
340.5389881286855029
 51
359.1854071254455221
  0
ARC
  5
5ECD
  8
0
 10
325.1994928466074839
 20
4.1087288327199269
 30
0.0
 40
0.0068783439452858
 50
308.6065339385484094
 51
343.270679160816087
  0
LINE
  5
5ECE
  8
0
 10
325.1966714602490924
 20
4.1201380335150111
 30
0.0
 11
325.2066260087490832
 21
4.1134288425150114
 31
0.0
  0
LINE
  5
5ECF
  8
0
 10
325.2066260087490832
 20
4.1134288425150114
 30
0.0
 11
325.2066260087490832
 21
4.1098021283150272
 31
0.0
  0
LINE
  5
5ED0
  8
0
 10
325.2066260087490832
 20
4.1134288425150114
 30
0.0
 11
325.2350389156491133
 21
4.1134288425150114
 31
0.0
  0
ARC
  5
5ED1
  8
0
 10
325.2037387657126146
 20
4.11001366871076
 30
0.0
 40
0.0066600717258032
 50
237.0616293835653039
 51
270.3953254462510927
  0
LINE
  5
5ED2
  8
0
 10
325.2001174408491124
 20
4.104424164115021
 30
0.0
 11
325.1852333667641233
 21
4.1144557688150112
 31
0.0
  0
ARC
  5
5ED3
  8
0
 10
325.2379281118019776
 20
4.087046467742784
 30
0.0
 40
0.0066726449957093
 50
269.5886483020195783
 51
302.8589034399964817
  0
ARC
  5
5ED4
  8
0
 10
325.2446689582633894
 20
4.0869702268334729
 30
0.0
 40
0.0096311776606889
 50
180.8796481618757923
 51
202.682370915378101
  0
ARC
  5
5ED5
  8
0
 10
325.2419634723610784
 20
4.0855498946472411
 30
0.0
 40
0.0065926475283548
 50
200.359678815167598
 51
231.7301013862004027
  0
LINE
  5
5ED6
  8
0
 10
325.2350389156491133
 20
4.0904490817150112
 30
0.0
 11
325.2350389156491133
 21
4.086822367515011
 31
0.0
  0
LINE
  5
5ED7
  8
0
 10
325.2350389156491133
 20
4.0904490817150112
 30
0.0
 11
325.2449934641518894
 21
4.0971582727169027
 31
0.0
  0
LINE
  5
5ED8
  8
0
 10
325.2415485026490956
 20
4.0814413842150108
 30
0.0
 11
325.2564314926908082
 21
4.091476008015011
 31
0.0
  0
LINE
  5
5ED9
  8
0
 10
325.2037847180491212
 20
4.0803739947150124
 30
0.0
 11
325.2048889644490828
 21
4.0799855100150122
 31
0.0
  0
LINE
  5
5EDA
  8
0
 10
325.2048889644490828
 20
4.0799855100150122
 30
0.0
 11
325.2367762419490873
 21
4.0799853823150123
 31
0.0
  0
LINE
  5
5EDB
  8
0
 10
325.2367762419490873
 20
4.0799853823150123
 30
0.0
 11
325.2378802063489047
 21
4.0803739947152176
 31
0.0
  0
ARC
  5
5EDC
  8
0
 10
325.1970541724824102
 20
4.0869584626180062
 30
0.0
 40
0.0095728037373393
 50
340.5389881286855029
 51
359.1854071254455221
  0
ARC
  5
5EDD
  8
0
 10
325.1994928466074839
 20
4.0857490719199268
 30
0.0
 40
0.0068783439452858
 50
308.6065339385484094
 51
343.270679160816087
  0
LINE
  5
5EDE
  8
0
 10
325.1966714602490924
 20
4.0971582727150109
 30
0.0
 11
325.2066260087490832
 21
4.0904490817150112
 31
0.0
  0
LINE
  5
5EDF
  8
0
 10
325.2066260087490832
 20
4.0904490817150112
 30
0.0
 11
325.2066260087490832
 21
4.086822367515027
 31
0.0
  0
LINE
  5
5EE0
  8
0
 10
325.2066260087490832
 20
4.0904490817150112
 30
0.0
 11
325.2350389156491133
 21
4.0904490817150112
 31
0.0
  0
ARC
  5
5EE1
  8
0
 10
325.2037387657126146
 20
4.0870339079107589
 30
0.0
 40
0.0066600717258032
 50
237.0616293835653039
 51
270.3953254462510927
  0
LINE
  5
5EE2
  8
0
 10
325.2001174408491124
 20
4.0814444033150208
 30
0.0
 11
325.1852333667641233
 21
4.091476008015011
 31
0.0
  0
ARC
  5
5EE3
  8
0
 10
325.2379281118019776
 20
4.0640667069427829
 30
0.0
 40
0.0066726449957093
 50
269.5886483020195783
 51
302.8589034399964817
  0
ARC
  5
5EE4
  8
0
 10
325.2446689582633894
 20
4.0639904660334727
 30
0.0
 40
0.0096311776606889
 50
180.8796481618757923
 51
202.682370915378101
  0
ARC
  5
5EE5
  8
0
 10
325.2419634723610784
 20
4.0625701338472409
 30
0.0
 40
0.0065926475283548
 50
200.359678815167598
 51
231.7301013862004027
  0
LINE
  5
5EE6
  8
0
 10
325.2350389156491133
 20
4.067469320915011
 30
0.0
 11
325.2350389156491133
 21
4.0638426067150117
 31
0.0
  0
LINE
  5
5EE7
  8
0
 10
325.2350389156491133
 20
4.067469320915011
 30
0.0
 11
325.2449934641518894
 21
4.0741785119169034
 31
0.0
  0
LINE
  5
5EE8
  8
0
 10
325.2415485026490956
 20
4.0584616234150124
 30
0.0
 11
325.2564314926908082
 21
4.0684962472150117
 31
0.0
  0
LINE
  5
5EE9
  8
0
 10
325.2037847180491212
 20
4.0573942339150122
 30
0.0
 11
325.2048889644490828
 21
4.057005749215012
 31
0.0
  0
LINE
  5
5EEA
  8
0
 10
325.2048889644490828
 20
4.057005749215012
 30
0.0
 11
325.2367762419490873
 21
4.0570056215150121
 31
0.0
  0
LINE
  5
5EEB
  8
0
 10
325.2367762419490873
 20
4.0570056215150121
 30
0.0
 11
325.2378802063489047
 21
4.0573942339152183
 31
0.0
  0
ARC
  5
5EEC
  8
0
 10
325.1970541724824102
 20
4.063978701818006
 30
0.0
 40
0.0095728037373393
 50
340.5389881286855029
 51
359.1854071254455221
  0
ARC
  5
5EED
  8
0
 10
325.1994928466074839
 20
4.0627693111199283
 30
0.0
 40
0.0068783439452858
 50
308.6065339385484094
 51
343.270679160816087
  0
LINE
  5
5EEE
  8
0
 10
325.1966714602490924
 20
4.0741785119150116
 30
0.0
 11
325.2066260087490832
 21
4.067469320915011
 31
0.0
  0
LINE
  5
5EEF
  8
0
 10
325.2066260087490832
 20
4.067469320915011
 30
0.0
 11
325.2066260087490832
 21
4.0638426067150268
 31
0.0
  0
LINE
  5
5EF0
  8
0
 10
325.2066260087490832
 20
4.067469320915011
 30
0.0
 11
325.2350389156491133
 21
4.067469320915011
 31
0.0
  0
ARC
  5
5EF1
  8
0
 10
325.2037387657126146
 20
4.0640541471107587
 30
0.0
 40
0.0066600717258032
 50
237.0616293835653039
 51
270.3953254462510927
  0
LINE
  5
5EF2
  8
0
 10
325.2001174408491124
 20
4.0584646425150206
 30
0.0
 11
325.1852333667641233
 21
4.0684962472150117
 31
0.0
  0
ARC
  5
5EF3
  8
0
 10
325.2379281118019776
 20
4.0410869460427827
 30
0.0
 40
0.0066726449957093
 50
269.5886483020195783
 51
302.8589034399964817
  0
ARC
  5
5EF4
  8
0
 10
325.2446689582633894
 20
4.0410107051334734
 30
0.0
 40
0.0096311776606889
 50
180.8796481618757923
 51
202.682370915378101
  0
ARC
  5
5EF5
  8
0
 10
325.2419634723610784
 20
4.0395903729472407
 30
0.0
 40
0.0065926475283548
 50
200.359678815167598
 51
231.7301013862004027
  0
LINE
  5
5EF6
  8
0
 10
325.2350389156491133
 20
4.0444895600150099
 30
0.0
 11
325.2350389156491133
 21
4.0408628458150107
 31
0.0
  0
LINE
  5
5EF7
  8
0
 10
325.2350389156491133
 20
4.0444895600150099
 30
0.0
 11
325.2449934641518894
 21
4.0511987510169032
 31
0.0
  0
LINE
  5
5EF8
  8
0
 10
325.2415485026490956
 20
4.0354818625150113
 30
0.0
 11
325.2564314926908082
 21
4.0455164863150106
 31
0.0
  0
LINE
  5
5EF9
  8
0
 10
325.2037847180491212
 20
4.0344144730150111
 30
0.0
 11
325.2048889644490828
 21
4.0340259883150109
 31
0.0
  0
LINE
  5
5EFA
  8
0
 10
325.2048889644490828
 20
4.0340259883150109
 30
0.0
 11
325.2367762419490873
 21
4.034025860615011
 31
0.0
  0
LINE
  5
5EFB
  8
0
 10
325.2367762419490873
 20
4.034025860615011
 30
0.0
 11
325.2378802063489047
 21
4.0344144730152181
 31
0.0
  0
ARC
  5
5EFC
  8
0
 10
325.1970541724824102
 20
4.0409989409180049
 30
0.0
 40
0.0095728037373393
 50
340.5389881286855029
 51
359.1854071254455221
  0
ARC
  5
5EFD
  8
0
 10
325.1994928466074839
 20
4.0397895502199272
 30
0.0
 40
0.0068783439452858
 50
308.6065339385484094
 51
343.270679160816087
  0
LINE
  5
5EFE
  8
0
 10
325.1966714602490924
 20
4.0511987510150114
 30
0.0
 11
325.2066260087490832
 21
4.0444895600150099
 31
0.0
  0
LINE
  5
5EFF
  8
0
 10
325.2066260087490832
 20
4.0444895600150099
 30
0.0
 11
325.2066260087490832
 21
4.0408628458150266
 31
0.0
  0
LINE
  5
5F00
  8
0
 10
325.2066260087490832
 20
4.0444895600150099
 30
0.0
 11
325.2350389156491133
 21
4.0444895600150099
 31
0.0
  0
ARC
  5
5F01
  8
0
 10
325.2037387657126146
 20
4.0410743862107594
 30
0.0
 40
0.0066600717258032
 50
237.0616293835653039
 51
270.3953254462510927
  0
LINE
  5
5F02
  8
0
 10
325.2001174408491124
 20
4.0354848816150213
 30
0.0
 11
325.1852333667641233
 21
4.0455164863150106
 31
0.0
  0
ARC
  5
5F03
  8
0
 10
325.2379281118019776
 20
4.0181071852427834
 30
0.0
 40
0.0066726449957093
 50
269.5886483020195783
 51
302.8589034399964817
  0
ARC
  5
5F04
  8
0
 10
325.2446689582633894
 20
4.0180309443334732
 30
0.0
 40
0.0096311776606889
 50
180.8796481618757923
 51
202.682370915378101
  0
ARC
  5
5F05
  8
0
 10
325.2419634723610784
 20
4.0166106121472414
 30
0.0
 40
0.0065926475283548
 50
200.359678815167598
 51
231.7301013862004027
  0
LINE
  5
5F06
  8
0
 10
325.2350389156491133
 20
4.0215097992150106
 30
0.0
 11
325.2350389156491133
 21
4.0178830850150122
 31
0.0
  0
LINE
  5
5F07
  8
0
 10
325.2350389156491133
 20
4.0215097992150106
 30
0.0
 11
325.2449934641518894
 21
4.0282189902169021
 31
0.0
  0
LINE
  5
5F08
  8
0
 10
325.2415485026490956
 20
4.0125021017150111
 30
0.0
 11
325.2564314926908082
 21
4.0225367255150122
 31
0.0
  0
LINE
  5
5F09
  8
0
 10
325.2037847180491212
 20
4.0114347122150109
 30
0.0
 11
325.2048889644490828
 21
4.0110462275150107
 31
0.0
  0
LINE
  5
5F0A
  8
0
 10
325.2048889644490828
 20
4.0110462275150107
 30
0.0
 11
325.2367762419490873
 21
4.0110460998150108
 31
0.0
  0
LINE
  5
5F0B
  8
0
 10
325.2367762419490873
 20
4.0110460998150108
 30
0.0
 11
325.2378802063489047
 21
4.011434712215217
 31
0.0
  0
ARC
  5
5F0C
  8
0
 10
325.1970541724824102
 20
4.0180191801180056
 30
0.0
 40
0.0095728037373393
 50
340.5389881286855029
 51
359.1854071254455221
  0
ARC
  5
5F0D
  8
0
 10
325.1994928466074839
 20
4.0168097894199271
 30
0.0
 40
0.0068783439452858
 50
308.6065339385484094
 51
343.270679160816087
  0
LINE
  5
5F0E
  8
0
 10
325.1966714602490924
 20
4.0282189902150121
 30
0.0
 11
325.2066260087490832
 21
4.0215097992150106
 31
0.0
  0
LINE
  5
5F0F
  8
0
 10
325.2066260087490832
 20
4.0215097992150106
 30
0.0
 11
325.2066260087490832
 21
4.0178830850150273
 31
0.0
  0
LINE
  5
5F10
  8
0
 10
325.2066260087490832
 20
4.0215097992150106
 30
0.0
 11
325.2350389156491133
 21
4.0215097992150106
 31
0.0
  0
ARC
  5
5F11
  8
0
 10
325.2037387657126146
 20
4.0180946254107592
 30
0.0
 40
0.0066600717258032
 50
237.0616293835653039
 51
270.3953254462510927
  0
LINE
  5
5F12
  8
0
 10
325.2001174408491124
 20
4.0125051208150211
 30
0.0
 11
325.1852333667641233
 21
4.0225367255150122
 31
0.0
  0
ARC
  5
5F13
  8
0
 10
325.1867848793020244
 20
4.0295970656427844
 30
0.0
 40
0.0066726449957093
 50
269.5886483020195783
 51
302.8589034399964817
  0
ARC
  5
5F14
  8
0
 10
325.1935257257633793
 20
4.0295208247334733
 30
0.0
 40
0.0096311776606889
 50
180.8796481618757923
 51
202.682370915378101
  0
ARC
  5
5F15
  8
0
 10
325.1908202398611252
 20
4.0281004925472406
 30
0.0
 40
0.0065926475283548
 50
200.359678815167598
 51
231.7301013862004027
  0
LINE
  5
5F16
  8
0
 10
325.1838956831491032
 20
4.0329996796150107
 30
0.0
 11
325.1838956831491032
 21
4.0293729654150123
 31
0.0
  0
LINE
  5
5F17
  8
0
 10
325.1838956831491032
 20
4.0329996796150107
 30
0.0
 11
325.1938502316518793
 21
4.0397088706169031
 31
0.0
  0
LINE
  5
5F18
  8
0
 10
325.1904052701490855
 20
4.0239919821150121
 30
0.0
 11
325.2052882601906845
 21
4.0340266059150114
 31
0.0
  0
LINE
  5
5F19
  8
0
 10
325.1526414855491112
 20
4.022924592615011
 30
0.0
 11
325.1537457319490727
 21
4.0225361079150117
 31
0.0
  0
LINE
  5
5F1A
  8
0
 10
325.1537457319490727
 20
4.0225361079150117
 30
0.0
 11
325.1856330094490772
 21
4.0225359802150109
 31
0.0
  0
LINE
  5
5F1B
  8
0
 10
325.1856330094490772
 20
4.0225359802150109
 30
0.0
 11
325.186736973848781
 21
4.0229245926152171
 31
0.0
  0
ARC
  5
5F1C
  8
0
 10
325.1459109399824001
 20
4.0295090605180048
 30
0.0
 40
0.0095728037373393
 50
340.5389881286855029
 51
359.1854071254455221
  0
ARC
  5
5F1D
  8
0
 10
325.1483496141074738
 20
4.028299669819928
 30
0.0
 40
0.0068783439452858
 50
308.6065339385484094
 51
343.270679160816087
  0
LINE
  5
5F1E
  8
0
 10
325.1455282277490824
 20
4.0397088706150122
 30
0.0
 11
325.1554827762490731
 21
4.0329996796150107
 31
0.0
  0
LINE
  5
5F1F
  8
0
 10
325.1554827762490731
 20
4.0329996796150107
 30
0.0
 11
325.1554827762490731
 21
4.0293729654150274
 31
0.0
  0
LINE
  5
5F20
  8
0
 10
325.1554827762490731
 20
4.0329996796150107
 30
0.0
 11
325.1838956831491032
 21
4.0329996796150107
 31
0.0
  0
ARC
  5
5F21
  8
0
 10
325.1525955332126046
 20
4.0295845058107602
 30
0.0
 40
0.0066600717258032
 50
237.0616293835653039
 51
270.3953254462510927
  0
LINE
  5
5F22
  8
0
 10
325.1489742083491024
 20
4.0239950012150221
 30
0.0
 11
325.1340901342639995
 21
4.0340266059150114
 31
0.0
  0
ARC
  5
5F23
  8
0
 10
325.1867848793020244
 20
4.0759444544427827
 30
0.0
 40
0.0066726449957093
 50
269.5886483020195783
 51
302.8589034399964817
  0
ARC
  5
5F24
  8
0
 10
325.1935257257633793
 20
4.0758682135334734
 30
0.0
 40
0.0096311776606889
 50
180.8796481618757923
 51
202.682370915378101
  0
ARC
  5
5F25
  8
0
 10
325.1908202398611252
 20
4.0744478813472407
 30
0.0
 40
0.0065926475283548
 50
200.359678815167598
 51
231.7301013862004027
  0
LINE
  5
5F26
  8
0
 10
325.1838956831491032
 20
4.0793470684150108
 30
0.0
 11
325.1838956831491032
 21
4.0757203542150124
 31
0.0
  0
LINE
  5
5F27
  8
0
 10
325.1838956831491032
 20
4.0793470684150108
 30
0.0
 11
325.1938502316518793
 21
4.0860562594169032
 31
0.0
  0
LINE
  5
5F28
  8
0
 10
325.1904052701490855
 20
4.0703393709150122
 30
0.0
 11
325.2052882601906845
 21
4.0803739947150124
 31
0.0
  0
LINE
  5
5F29
  8
0
 10
325.1526414855491112
 20
4.069271981415012
 30
0.0
 11
325.1537457319490727
 21
4.0688834967150109
 31
0.0
  0
LINE
  5
5F2A
  8
0
 10
325.1537457319490727
 20
4.0688834967150109
 30
0.0
 11
325.1856330094490772
 21
4.068883369015011
 31
0.0
  0
LINE
  5
5F2B
  8
0
 10
325.1856330094490772
 20
4.068883369015011
 30
0.0
 11
325.186736973848781
 21
4.0692719814152181
 31
0.0
  0
ARC
  5
5F2C
  8
0
 10
325.1459109399824001
 20
4.0758564493180058
 30
0.0
 40
0.0095728037373393
 50
340.5389881286855029
 51
359.1854071254455221
  0
ARC
  5
5F2D
  8
0
 10
325.1483496141074738
 20
4.0746470586199282
 30
0.0
 40
0.0068783439452858
 50
308.6065339385484094
 51
343.270679160816087
  0
LINE
  5
5F2E
  8
0
 10
325.1455282277490824
 20
4.0860562594150123
 30
0.0
 11
325.1554827762490731
 21
4.0793470684150108
 31
0.0
  0
LINE
  5
5F2F
  8
0
 10
325.1554827762490731
 20
4.0793470684150108
 30
0.0
 11
325.1554827762490731
 21
4.0757203542150267
 31
0.0
  0
LINE
  5
5F30
  8
0
 10
325.1554827762490731
 20
4.0793470684150108
 30
0.0
 11
325.1838956831491032
 21
4.0793470684150108
 31
0.0
  0
ARC
  5
5F31
  8
0
 10
325.1525955332126046
 20
4.0759318946107594
 30
0.0
 40
0.0066600717258032
 50
237.0616293835653039
 51
270.3953254462510927
  0
LINE
  5
5F32
  8
0
 10
325.1489742083491024
 20
4.0703423900150213
 30
0.0
 11
325.1340901342639995
 21
4.0803739947150124
 31
0.0
  0
ARC
  5
5F33
  8
0
 10
325.1867848793020244
 20
4.0985363481427841
 30
0.0
 40
0.0066726449957093
 50
269.5886483020195783
 51
302.8589034399964817
  0
ARC
  5
5F34
  8
0
 10
325.1935257257633793
 20
4.0984601072334721
 30
0.0
 40
0.0096311776606889
 50
180.8796481618757923
 51
202.682370915378101
  0
ARC
  5
5F35
  8
0
 10
325.1908202398611252
 20
4.0970397750472412
 30
0.0
 40
0.0065926475283548
 50
200.359678815167598
 51
231.7301013862004027
  0
LINE
  5
5F36
  8
0
 10
325.1838956831491032
 20
4.1019389621150122
 30
0.0
 11
325.1838956831491032
 21
4.098312247915012
 31
0.0
  0
LINE
  5
5F37
  8
0
 10
325.1838956831491032
 20
4.1019389621150122
 30
0.0
 11
325.1938502316518793
 21
4.1086481531169019
 31
0.0
  0
LINE
  5
5F38
  8
0
 10
325.1904052701490855
 20
4.0929312646150118
 30
0.0
 11
325.2052882601906845
 21
4.1029658884150111
 31
0.0
  0
LINE
  5
5F39
  8
0
 10
325.1526414855491112
 20
4.0918638751150107
 30
0.0
 11
325.1537457319490727
 21
4.0914753904150123
 31
0.0
  0
LINE
  5
5F3A
  8
0
 10
325.1537457319490727
 20
4.0914753904150123
 30
0.0
 11
325.1856330094490772
 21
4.0914752627150106
 31
0.0
  0
LINE
  5
5F3B
  8
0
 10
325.1856330094490772
 20
4.0914752627150106
 30
0.0
 11
325.186736973848781
 21
4.0918638751152168
 31
0.0
  0
ARC
  5
5F3C
  8
0
 10
325.1459109399824001
 20
4.0984483430180063
 30
0.0
 40
0.0095728037373393
 50
340.5389881286855029
 51
359.1854071254455221
  0
ARC
  5
5F3D
  8
0
 10
325.1483496141074738
 20
4.0972389523199277
 30
0.0
 40
0.0068783439452858
 50
308.6065339385484094
 51
343.270679160816087
  0
LINE
  5
5F3E
  8
0
 10
325.1455282277490824
 20
4.1086481531150119
 30
0.0
 11
325.1554827762490731
 21
4.1019389621150122
 31
0.0
  0
LINE
  5
5F3F
  8
0
 10
325.1554827762490731
 20
4.1019389621150122
 30
0.0
 11
325.1554827762490731
 21
4.0983122479150271
 31
0.0
  0
LINE
  5
5F40
  8
0
 10
325.1554827762490731
 20
4.1019389621150122
 30
0.0
 11
325.1838956831491032
 21
4.1019389621150122
 31
0.0
  0
ARC
  5
5F41
  8
0
 10
325.1525955332126046
 20
4.098523788310759
 30
0.0
 40
0.0066600717258032
 50
237.0616293835653039
 51
270.3953254462510927
  0
LINE
  5
5F42
  8
0
 10
325.1489742083491024
 20
4.0929342837150209
 30
0.0
 11
325.1340901342639995
 21
4.1029658884150111
 31
0.0
  0
ARC
  5
5F43
  8
0
 10
325.1867848793020244
 20
4.1215161090427834
 30
0.0
 40
0.0066726449957093
 50
269.5886483020195783
 51
302.8589034399964817
  0
ARC
  5
5F44
  8
0
 10
325.1935257257633793
 20
4.1214398681334732
 30
0.0
 40
0.0096311776606889
 50
180.8796481618757923
 51
202.682370915378101
  0
ARC
  5
5F45
  8
0
 10
325.1908202398611252
 20
4.1200195359472414
 30
0.0
 40
0.0065926475283548
 50
200.359678815167598
 51
231.7301013862004027
  0
LINE
  5
5F46
  8
0
 10
325.1838956831491032
 20
4.1249187230150106
 30
0.0
 11
325.1838956831491032
 21
4.1212920088150122
 31
0.0
  0
LINE
  5
5F47
  8
0
 10
325.1838956831491032
 20
4.1249187230150106
 30
0.0
 11
325.1938502316518793
 21
4.1316279140169021
 31
0.0
  0
LINE
  5
5F48
  8
0
 10
325.1904052701490855
 20
4.1159110255150111
 30
0.0
 11
325.2052882601906845
 21
4.1259456493150122
 31
0.0
  0
LINE
  5
5F49
  8
0
 10
325.1526414855491112
 20
4.1148436360150109
 30
0.0
 11
325.1537457319490727
 21
4.1144551513150107
 31
0.0
  0
LINE
  5
5F4A
  8
0
 10
325.1537457319490727
 20
4.1144551513150107
 30
0.0
 11
325.1856330094490772
 21
4.1144550236150108
 31
0.0
  0
LINE
  5
5F4B
  8
0
 10
325.1856330094490772
 20
4.1144550236150108
 30
0.0
 11
325.186736973848781
 21
4.114843636015217
 31
0.0
  0
ARC
  5
5F4C
  8
0
 10
325.1459109399824001
 20
4.1214281039180056
 30
0.0
 40
0.0095728037373393
 50
340.5389881286855029
 51
359.1854071254455221
  0
ARC
  5
5F4D
  8
0
 10
325.1483496141074738
 20
4.1202187132199271
 30
0.0
 40
0.0068783439452858
 50
308.6065339385484094
 51
343.270679160816087
  0
LINE
  5
5F4E
  8
0
 10
325.1455282277490824
 20
4.1316279140150121
 30
0.0
 11
325.1554827762490731
 21
4.1249187230150106
 31
0.0
  0
LINE
  5
5F4F
  8
0
 10
325.1554827762490731
 20
4.1249187230150106
 30
0.0
 11
325.1554827762490731
 21
4.1212920088150273
 31
0.0
  0
LINE
  5
5F50
  8
0
 10
325.1554827762490731
 20
4.1249187230150106
 30
0.0
 11
325.1838956831491032
 21
4.1249187230150106
 31
0.0
  0
ARC
  5
5F51
  8
0
 10
325.1525955332126046
 20
4.1215035492107592
 30
0.0
 40
0.0066600717258032
 50
237.0616293835653039
 51
270.3953254462510927
  0
LINE
  5
5F52
  8
0
 10
325.1489742083491024
 20
4.1159140446150211
 30
0.0
 11
325.1340901342639995
 21
4.1259456493150122
 31
0.0
  0
ARC
  5
5F53
  8
0
 10
325.1867848793020244
 20
4.1444958698427827
 30
0.0
 40
0.0066726449957093
 50
269.5886483020195783
 51
302.8589034399964817
  0
ARC
  5
5F54
  8
0
 10
325.1935257257633793
 20
4.1444196289334734
 30
0.0
 40
0.0096311776606889
 50
180.8796481618757923
 51
202.682370915378101
  0
ARC
  5
5F55
  8
0
 10
325.1908202398611252
 20
4.1429992967472407
 30
0.0
 40
0.0065926475283548
 50
200.359678815167598
 51
231.7301013862004027
  0
LINE
  5
5F56
  8
0
 10
325.1838956831491032
 20
4.1478984838150099
 30
0.0
 11
325.1838956831491032
 21
4.1442717696150106
 31
0.0
  0
LINE
  5
5F57
  8
0
 10
325.1838956831491032
 20
4.1478984838150099
 30
0.0
 11
325.1938502316518793
 21
4.1546076748169032
 31
0.0
  0
LINE
  5
5F58
  8
0
 10
325.1904052701490855
 20
4.1388907863150113
 30
0.0
 11
325.2052882601906845
 21
4.1489254101150106
 31
0.0
  0
LINE
  5
5F59
  8
0
 10
325.1526414855491112
 20
4.1378233968150111
 30
0.0
 11
325.1537457319490727
 21
4.1374349121150109
 31
0.0
  0
LINE
  5
5F5A
  8
0
 10
325.1537457319490727
 20
4.1374349121150109
 30
0.0
 11
325.1856330094490772
 21
4.137434784415011
 31
0.0
  0
LINE
  5
5F5B
  8
0
 10
325.1856330094490772
 20
4.137434784415011
 30
0.0
 11
325.186736973848781
 21
4.137823396815218
 31
0.0
  0
ARC
  5
5F5C
  8
0
 10
325.1459109399824001
 20
4.1444078647180049
 30
0.0
 40
0.0095728037373393
 50
340.5389881286855029
 51
359.1854071254455221
  0
ARC
  5
5F5D
  8
0
 10
325.1483496141074738
 20
4.1431984740199272
 30
0.0
 40
0.0068783439452858
 50
308.6065339385484094
 51
343.270679160816087
  0
LINE
  5
5F5E
  8
0
 10
325.1455282277490824
 20
4.1546076748150114
 30
0.0
 11
325.1554827762490731
 21
4.1478984838150099
 31
0.0
  0
LINE
  5
5F5F
  8
0
 10
325.1554827762490731
 20
4.1478984838150099
 30
0.0
 11
325.1554827762490731
 21
4.1442717696150266
 31
0.0
  0
LINE
  5
5F60
  8
0
 10
325.1554827762490731
 20
4.1478984838150099
 30
0.0
 11
325.1838956831491032
 21
4.1478984838150099
 31
0.0
  0
ARC
  5
5F61
  8
0
 10
325.1525955332126046
 20
4.1444833100107594
 30
0.0
 40
0.0066600717258032
 50
237.0616293835653039
 51
270.3953254462510927
  0
LINE
  5
5F62
  8
0
 10
325.1489742083491024
 20
4.1388938054150213
 30
0.0
 11
325.1340901342639995
 21
4.1489254101150106
 31
0.0
  0
ARC
  5
5F63
  8
0
 10
325.1867848793020244
 20
4.1674756306427829
 30
0.0
 40
0.0066726449957093
 50
269.5886483020195783
 51
302.8589034399964817
  0
ARC
  5
5F64
  8
0
 10
325.1935257257633793
 20
4.1673993897334727
 30
0.0
 40
0.0096311776606889
 50
180.8796481618757923
 51
202.682370915378101
  0
ARC
  5
5F65
  8
0
 10
325.1908202398611252
 20
4.1659790575472408
 30
0.0
 40
0.0065926475283548
 50
200.359678815167598
 51
231.7301013862004027
  0
LINE
  5
5F66
  8
0
 10
325.1838956831491032
 20
4.170878244615011
 30
0.0
 11
325.1838956831491032
 21
4.1672515304150117
 31
0.0
  0
LINE
  5
5F67
  8
0
 10
325.1838956831491032
 20
4.170878244615011
 30
0.0
 11
325.1938502316518793
 21
4.1775874356169034
 31
0.0
  0
LINE
  5
5F68
  8
0
 10
325.1904052701490855
 20
4.1618705471150124
 30
0.0
 11
325.2052882601906845
 21
4.1719051709150117
 31
0.0
  0
LINE
  5
5F69
  8
0
 10
325.1526414855491112
 20
4.1608031576150122
 30
0.0
 11
325.1537457319490727
 21
4.1604146729150111
 31
0.0
  0
LINE
  5
5F6A
  8
0
 10
325.1537457319490727
 20
4.1604146729150111
 30
0.0
 11
325.1856330094490772
 21
4.1604145452150121
 31
0.0
  0
LINE
  5
5F6B
  8
0
 10
325.1856330094490772
 20
4.1604145452150121
 30
0.0
 11
325.186736973848781
 21
4.1608031576152182
 31
0.0
  0
ARC
  5
5F6C
  8
0
 10
325.1459109399824001
 20
4.167387625518006
 30
0.0
 40
0.0095728037373393
 50
340.5389881286855029
 51
359.1854071254455221
  0
ARC
  5
5F6D
  8
0
 10
325.1483496141074738
 20
4.1661782348199283
 30
0.0
 40
0.0068783439452858
 50
308.6065339385484094
 51
343.270679160816087
  0
LINE
  5
5F6E
  8
0
 10
325.1455282277490824
 20
4.1775874356150116
 30
0.0
 11
325.1554827762490731
 21
4.170878244615011
 31
0.0
  0
LINE
  5
5F6F
  8
0
 10
325.1554827762490731
 20
4.170878244615011
 30
0.0
 11
325.1554827762490731
 21
4.1672515304150268
 31
0.0
  0
LINE
  5
5F70
  8
0
 10
325.1554827762490731
 20
4.170878244615011
 30
0.0
 11
325.1838956831491032
 21
4.170878244615011
 31
0.0
  0
ARC
  5
5F71
  8
0
 10
325.1525955332126046
 20
4.1674630708107587
 30
0.0
 40
0.0066600717258032
 50
237.0616293835653039
 51
270.3953254462510927
  0
LINE
  5
5F72
  8
0
 10
325.1489742083491024
 20
4.1618735662150206
 30
0.0
 11
325.1340901342639995
 21
4.1719051709150117
 31
0.0
  0
ARC
  5
5F73
  8
0
 10
325.1867848793020244
 20
4.213823019442783
 30
0.0
 40
0.0066726449957093
 50
269.5886483020195783
 51
302.8589034399964817
  0
ARC
  5
5F74
  8
0
 10
325.1935257257633793
 20
4.2137467785334719
 30
0.0
 40
0.0096311776606889
 50
180.8796481618757923
 51
202.682370915378101
  0
ARC
  5
5F75
  8
0
 10
325.1908202398611252
 20
4.2123264463472401
 30
0.0
 40
0.0065926475283548
 50
200.359678815167598
 51
231.7301013862004027
  0
LINE
  5
5F76
  8
0
 10
325.1838956831491032
 20
4.2172256334150111
 30
0.0
 11
325.1838956831491032
 21
4.2135989192150118
 31
0.0
  0
LINE
  5
5F77
  8
0
 10
325.1838956831491032
 20
4.2172256334150111
 30
0.0
 11
325.1935618910904964
 21
4.223740487938513
 31
0.0
  0
LINE
  5
5F78
  8
0
 10
325.1904052701490855
 20
4.2082179359150116
 30
0.0
 11
325.2047727260085139
 21
4.2179049688370283
 31
0.0
  0
LINE
  5
5F79
  8
0
 10
325.1526414855491112
 20
4.2071505464150114
 30
0.0
 11
325.1537457319490727
 21
4.2067620617150121
 31
0.0
  0
LINE
  5
5F7A
  8
0
 10
325.1537457319490727
 20
4.2067620617150121
 30
0.0
 11
325.1856330094490772
 21
4.2067619340150113
 31
0.0
  0
LINE
  5
5F7B
  8
0
 10
325.1856330094490772
 20
4.2067619340150113
 30
0.0
 11
325.186736973848781
 21
4.2071505464152166
 31
0.0
  0
ARC
  5
5F7C
  8
0
 10
325.1459109399824001
 20
4.2137350143180061
 30
0.0
 40
0.0095728037373393
 50
340.5389881286855029
 51
359.1854071254455221
  0
ARC
  5
5F7D
  8
0
 10
325.1483496141074738
 20
4.2125256236199284
 30
0.0
 40
0.0068783439452858
 50
308.6065339385484094
 51
343.270679160816087
  0
LINE
  5
5F7E
  8
0
 10
325.1490258230567747
 20
4.2215775065557537
 30
0.0
 11
325.1554827762490731
 21
4.2172256334150111
 31
0.0
  0
LINE
  5
5F7F
  8
0
 10
325.1554827762490731
 20
4.2172256334150111
 30
0.0
 11
325.1554827762490731
 21
4.2135989192150261
 31
0.0
  0
LINE
  5
5F80
  8
0
 10
325.1554827762490731
 20
4.2172256334150111
 30
0.0
 11
325.1838956831491032
 21
4.2172256334150111
 31
0.0
  0
ARC
  5
5F81
  8
0
 10
325.1525955332126046
 20
4.2138104596107588
 30
0.0
 40
0.0066600717258032
 50
237.0616293835653039
 51
270.3953254462510927
  0
LINE
  5
5F82
  8
0
 10
325.1489742083491024
 20
4.2082209550150207
 30
0.0
 11
325.1333815907443068
 21
4.2187301056116038
 31
0.0
  0
ARC
  5
5F83
  8
0
 10
325.1356416467519921
 20
4.2019452719427841
 30
0.0
 40
0.0066726449957093
 50
269.5886483020195783
 51
302.8589034399964817
  0
ARC
  5
5F84
  8
0
 10
325.1423824932134039
 20
4.2018690310334721
 30
0.0
 40
0.0096311776606889
 50
180.8796481618757923
 51
202.6823709153781863
  0
ARC
  5
5F85
  8
0
 10
325.1396770073110929
 20
4.2004486988472411
 30
0.0
 40
0.0065926475283548
 50
200.359678815167598
 51
231.7301013862004027
  0
LINE
  5
5F86
  8
0
 10
325.1327524505991278
 20
4.2053478859150122
 30
0.0
 11
325.1327524505991278
 21
4.201721171715012
 31
0.0
  0
LINE
  5
5F87
  8
0
 10
325.1327524505991278
 20
4.2053478859150122
 30
0.0
 11
325.1427069991019039
 21
4.2120570769169019
 31
0.0
  0
LINE
  5
5F88
  8
0
 10
325.13926203759911
 20
4.1963401884150118
 30
0.0
 11
325.1547202980547127
 21
4.2067626793150099
 31
0.0
  0
LINE
  5
5F89
  8
0
 10
325.1014982529990789
 20
4.1952727989150107
 30
0.0
 11
325.1026024993990973
 21
4.1948843142150123
 31
0.0
  0
LINE
  5
5F8A
  8
0
 10
325.1026024993990973
 20
4.1948843142150123
 30
0.0
 11
325.1344897768991018
 21
4.1948841865150106
 31
0.0
  0
LINE
  5
5F8B
  8
0
 10
325.1344897768991018
 20
4.1948841865150106
 30
0.0
 11
325.1355937412989192
 21
4.1952727989152168
 31
0.0
  0
ARC
  5
5F8C
  8
0
 10
325.0947677074324247
 20
4.2018572668180063
 30
0.0
 40
0.0095728037373393
 50
340.5389881286855029
 51
359.1854071254455221
  0
ARC
  5
5F8D
  8
0
 10
325.0972063815574984
 20
4.2006478761199277
 30
0.0
 40
0.0068783439452858
 50
308.6065339385484094
 51
343.270679160816087
  0
LINE
  5
5F8E
  8
0
 10
325.0967444889504918
 20
4.2104668195325061
 30
0.0
 11
325.1043395436990977
 21
4.2053478859150122
 31
0.0
  0
LINE
  5
5F8F
  8
0
 10
325.1043395436990977
 20
4.2053478859150122
 30
0.0
 11
325.1043395436990977
 21
4.2017211717150271
 31
0.0
  0
LINE
  5
5F90
  8
0
 10
325.1043395436990977
 20
4.2053478859150122
 30
0.0
 11
325.1327524505991278
 21
4.2053478859150122
 31
0.0
  0
ARC
  5
5F91
  8
0
 10
325.1014523006625723
 20
4.201932712110759
 30
0.0
 40
0.0066600717258032
 50
237.0616293835653039
 51
270.3953254462510927
  0
LINE
  5
5F92
  8
0
 10
325.0978309757991269
 20
4.1963432075150209
 30
0.0
 11
325.0827075436292262
 21
4.206536135363165
 31
0.0
  0
ARC
  5
5F93
  8
0
 10
325.1356416467519921
 20
4.178965511042783
 30
0.0
 40
0.0066726449957093
 50
269.5886483020195783
 51
302.8589034399964817
  0
ARC
  5
5F94
  8
0
 10
325.1423824932134039
 20
4.1788892701334719
 30
0.0
 40
0.0096311776606889
 50
180.8796481618757923
 51
202.6823709153781863
  0
ARC
  5
5F95
  8
0
 10
325.1396770073110929
 20
4.1774689379472401
 30
0.0
 40
0.0065926475283548
 50
200.359678815167598
 51
231.7301013862004027
  0
LINE
  5
5F96
  8
0
 10
325.1327524505991278
 20
4.1823681250150111
 30
0.0
 11
325.1327524505991278
 21
4.1787414108150118
 31
0.0
  0
LINE
  5
5F97
  8
0
 10
325.1327524505991278
 20
4.1823681250150111
 30
0.0
 11
325.1427069991019039
 21
4.1890773160169017
 31
0.0
  0
LINE
  5
5F98
  8
0
 10
325.13926203759911
 20
4.1733604275150116
 30
0.0
 11
325.1541450276408227
 21
4.1833950513150109
 31
0.0
  0
LINE
  5
5F99
  8
0
 10
325.1014982529990789
 20
4.1722930380150114
 30
0.0
 11
325.1026024993990973
 21
4.1719045533150121
 31
0.0
  0
LINE
  5
5F9A
  8
0
 10
325.1026024993990973
 20
4.1719045533150121
 30
0.0
 11
325.1344897768991018
 21
4.1719044256150113
 31
0.0
  0
LINE
  5
5F9B
  8
0
 10
325.1344897768991018
 20
4.1719044256150113
 30
0.0
 11
325.1355937412989192
 21
4.1722930380152166
 31
0.0
  0
ARC
  5
5F9C
  8
0
 10
325.0947677074324247
 20
4.1788775059180061
 30
0.0
 40
0.0095728037373393
 50
340.5389881286855029
 51
359.1854071254455221
  0
ARC
  5
5F9D
  8
0
 10
325.0972063815574984
 20
4.1776681152199284
 30
0.0
 40
0.0068783439452858
 50
308.6065339385484094
 51
343.270679160816087
  0
LINE
  5
5F9E
  8
0
 10
325.0943849951991069
 20
4.1890773160150117
 30
0.0
 11
325.1043395436990977
 21
4.1823681250150111
 31
0.0
  0
LINE
  5
5F9F
  8
0
 10
325.1043395436990977
 20
4.1823681250150111
 30
0.0
 11
325.1043395436990977
 21
4.178741410815026
 31
0.0
  0
LINE
  5
5FA0
  8
0
 10
325.1043395436990977
 20
4.1823681250150111
 30
0.0
 11
325.1327524505991278
 21
4.1823681250150111
 31
0.0
  0
ARC
  5
5FA1
  8
0
 10
325.1014523006625723
 20
4.1789529512107588
 30
0.0
 40
0.0066600717258032
 50
237.0616293835653039
 51
270.3953254462510927
  0
LINE
  5
5FA2
  8
0
 10
325.0978309757991269
 20
4.1733634466150207
 30
0.0
 11
325.0829469017140809
 21
4.1833950513150109
 31
0.0
  0
ARC
  5
5FA3
  8
0
 10
325.1356416467519921
 20
4.1559857502427828
 30
0.0
 40
0.0066726449957093
 50
269.5886483020195783
 51
302.8589034399964817
  0
ARC
  5
5FA4
  8
0
 10
325.1423824932134039
 20
4.1559095093334717
 30
0.0
 40
0.0096311776606889
 50
180.8796481618757923
 51
202.6823709153781863
  0
ARC
  5
5FA5
  8
0
 10
325.1396770073110929
 20
4.1544891771472399
 30
0.0
 40
0.0065926475283548
 50
200.359678815167598
 51
231.7301013862004027
  0
LINE
  5
5FA6
  8
0
 10
325.1327524505991278
 20
4.1593883642150109
 30
0.0
 11
325.1327524505991278
 21
4.1557616500150116
 31
0.0
  0
LINE
  5
5FA7
  8
0
 10
325.1327524505991278
 20
4.1593883642150109
 30
0.0
 11
325.1427069991019039
 21
4.1660975552169024
 31
0.0
  0
LINE
  5
5FA8
  8
0
 10
325.13926203759911
 20
4.1503806667150123
 30
0.0
 11
325.1541450276408227
 21
4.1604152905150107
 31
0.0
  0
LINE
  5
5FA9
  8
0
 10
325.1014982529990789
 20
4.1493132772150112
 30
0.0
 11
325.1026024993990973
 21
4.148924792515011
 31
0.0
  0
LINE
  5
5FAA
  8
0
 10
325.1026024993990973
 20
4.148924792515011
 30
0.0
 11
325.1344897768991018
 21
4.1489246648150111
 31
0.0
  0
LINE
  5
5FAB
  8
0
 10
325.1344897768991018
 20
4.1489246648150111
 30
0.0
 11
325.1355937412989192
 21
4.1493132772152173
 31
0.0
  0
ARC
  5
5FAC
  8
0
 10
325.0947677074324247
 20
4.155897745118005
 30
0.0
 40
0.0095728037373393
 50
340.5389881286855029
 51
359.1854071254455221
  0
ARC
  5
5FAD
  8
0
 10
325.0972063815574984
 20
4.1546883544199282
 30
0.0
 40
0.0068783439452858
 50
308.6065339385484094
 51
343.270679160816087
  0
LINE
  5
5FAE
  8
0
 10
325.0943849951991069
 20
4.1660975552150123
 30
0.0
 11
325.1043395436990977
 21
4.1593883642150109
 31
0.0
  0
LINE
  5
5FAF
  8
0
 10
325.1043395436990977
 20
4.1593883642150109
 30
0.0
 11
325.1043395436990977
 21
4.1557616500150258
 31
0.0
  0
LINE
  5
5FB0
  8
0
 10
325.1043395436990977
 20
4.1593883642150109
 30
0.0
 11
325.1327524505991278
 21
4.1593883642150109
 31
0.0
  0
ARC
  5
5FB1
  8
0
 10
325.1014523006625723
 20
4.1559731904107586
 30
0.0
 40
0.0066600717258032
 50
237.0616293835653039
 51
270.3953254462510927
  0
LINE
  5
5FB2
  8
0
 10
325.0978309757991269
 20
4.1503836858150214
 30
0.0
 11
325.0829469017140809
 21
4.1604152905150107
 31
0.0
  0
ARC
  5
5FB3
  8
0
 10
325.1356416467519921
 20
4.1330059894427844
 30
0.0
 40
0.0066726449957093
 50
269.5886483020195783
 51
302.8589034399964817
  0
ARC
  5
5FB4
  8
0
 10
325.1423824932134039
 20
4.1329297485334733
 30
0.0
 40
0.0096311776606889
 50
180.8796481618757923
 51
202.6823709153781863
  0
ARC
  5
5FB5
  8
0
 10
325.1396770073110929
 20
4.1315094163472406
 30
0.0
 40
0.0065926475283548
 50
200.359678815167598
 51
231.7301013862004027
  0
LINE
  5
5FB6
  8
0
 10
325.1327524505991278
 20
4.1364086034150107
 30
0.0
 11
325.1327524505991278
 21
4.1327818892150123
 31
0.0
  0
LINE
  5
5FB7
  8
0
 10
325.1327524505991278
 20
4.1364086034150107
 30
0.0
 11
325.1427069991019039
 21
4.1431177944169031
 31
0.0
  0
LINE
  5
5FB8
  8
0
 10
325.13926203759911
 20
4.1274009059150121
 30
0.0
 11
325.1541450276408227
 21
4.1374355297150114
 31
0.0
  0
LINE
  5
5FB9
  8
0
 10
325.1014982529990789
 20
4.126333516415011
 30
0.0
 11
325.1026024993990973
 21
4.1259450317150117
 31
0.0
  0
LINE
  5
5FBA
  8
0
 10
325.1026024993990973
 20
4.1259450317150117
 30
0.0
 11
325.1344897768991018
 21
4.1259449040150109
 31
0.0
  0
LINE
  5
5FBB
  8
0
 10
325.1344897768991018
 20
4.1259449040150109
 30
0.0
 11
325.1355937412989192
 21
4.1263335164152171
 31
0.0
  0
ARC
  5
5FBC
  8
0
 10
325.0947677074324247
 20
4.1329179843180048
 30
0.0
 40
0.0095728037373393
 50
340.5389881286855029
 51
359.1854071254455221
  0
ARC
  5
5FBD
  8
0
 10
325.0972063815574984
 20
4.131708593619928
 30
0.0
 40
0.0068783439452858
 50
308.6065339385484094
 51
343.270679160816087
  0
LINE
  5
5FBE
  8
0
 10
325.0943849951991069
 20
4.1431177944150122
 30
0.0
 11
325.1043395436990977
 21
4.1364086034150107
 31
0.0
  0
LINE
  5
5FBF
  8
0
 10
325.1043395436990977
 20
4.1364086034150107
 30
0.0
 11
325.1043395436990977
 21
4.1327818892150274
 31
0.0
  0
LINE
  5
5FC0
  8
0
 10
325.1043395436990977
 20
4.1364086034150107
 30
0.0
 11
325.1327524505991278
 21
4.1364086034150107
 31
0.0
  0
ARC
  5
5FC1
  8
0
 10
325.1014523006625723
 20
4.1329934296107602
 30
0.0
 40
0.0066600717258032
 50
237.0616293835653039
 51
270.3953254462510927
  0
LINE
  5
5FC2
  8
0
 10
325.0978309757991269
 20
4.1274039250150221
 30
0.0
 11
325.0829469017140809
 21
4.1374355297150114
 31
0.0
  0
ARC
  5
5FC3
  8
0
 10
325.1356416467519921
 20
4.1100262285427842
 30
0.0
 40
0.0066726449957093
 50
269.5886483020195783
 51
302.8589034399964817
  0
ARC
  5
5FC4
  8
0
 10
325.1423824932134039
 20
4.1099499876334731
 30
0.0
 40
0.0096311776606889
 50
180.8796481618757923
 51
202.6823709153781863
  0
ARC
  5
5FC5
  8
0
 10
325.1396770073110929
 20
4.1085296554472412
 30
0.0
 40
0.0065926475283548
 50
200.359678815167598
 51
231.7301013862004027
  0
LINE
  5
5FC6
  8
0
 10
325.1327524505991278
 20
4.1134288425150114
 30
0.0
 11
325.1327524505991278
 21
4.1098021283150121
 31
0.0
  0
LINE
  5
5FC7
  8
0
 10
325.1327524505991278
 20
4.1134288425150114
 30
0.0
 11
325.1427069991019039
 21
4.120138033516902
 31
0.0
  0
LINE
  5
5FC8
  8
0
 10
325.13926203759911
 20
4.104421145015011
 30
0.0
 11
325.1541450276408227
 21
4.1144557688150112
 31
0.0
  0
LINE
  5
5FC9
  8
0
 10
325.1014982529990789
 20
4.1033537555150108
 30
0.0
 11
325.1026024993990973
 21
4.1029652708150124
 31
0.0
  0
LINE
  5
5FCA
  8
0
 10
325.1026024993990973
 20
4.1029652708150124
 30
0.0
 11
325.1344897768991018
 21
4.1029651431150107
 31
0.0
  0
LINE
  5
5FCB
  8
0
 10
325.1344897768991018
 20
4.1029651431150107
 30
0.0
 11
325.1355937412989192
 21
4.1033537555152169
 31
0.0
  0
ARC
  5
5FCC
  8
0
 10
325.0947677074324247
 20
4.1099382234180046
 30
0.0
 40
0.0095728037373393
 50
340.5389881286855029
 51
359.1854071254455221
  0
ARC
  5
5FCD
  8
0
 10
325.0972063815574984
 20
4.1087288327199269
 30
0.0
 40
0.0068783439452858
 50
308.6065339385484094
 51
343.270679160816087
  0
LINE
  5
5FCE
  8
0
 10
325.0943849951991069
 20
4.1201380335150111
 30
0.0
 11
325.1043395436990977
 21
4.1134288425150114
 31
0.0
  0
LINE
  5
5FCF
  8
0
 10
325.1043395436990977
 20
4.1134288425150114
 30
0.0
 11
325.1043395436990977
 21
4.1098021283150272
 31
0.0
  0
LINE
  5
5FD0
  8
0
 10
325.1043395436990977
 20
4.1134288425150114
 30
0.0
 11
325.1327524505991278
 21
4.1134288425150114
 31
0.0
  0
ARC
  5
5FD1
  8
0
 10
325.1014523006625723
 20
4.11001366871076
 30
0.0
 40
0.0066600717258032
 50
237.0616293835653039
 51
270.3953254462510927
  0
LINE
  5
5FD2
  8
0
 10
325.0978309757991269
 20
4.104424164115021
 30
0.0
 11
325.0829469017140809
 21
4.1144557688150112
 31
0.0
  0
ARC
  5
5FD3
  8
0
 10
325.1356416467519921
 20
4.087046467742784
 30
0.0
 40
0.0066726449957093
 50
269.5886483020195783
 51
302.8589034399964817
  0
ARC
  5
5FD4
  8
0
 10
325.1423824932134039
 20
4.0869702268334729
 30
0.0
 40
0.0096311776606889
 50
180.8796481618757923
 51
202.6823709153781863
  0
ARC
  5
5FD5
  8
0
 10
325.1396770073110929
 20
4.0855498946472411
 30
0.0
 40
0.0065926475283548
 50
200.359678815167598
 51
231.7301013862004027
  0
LINE
  5
5FD6
  8
0
 10
325.1327524505991278
 20
4.0904490817150112
 30
0.0
 11
325.1327524505991278
 21
4.086822367515011
 31
0.0
  0
LINE
  5
5FD7
  8
0
 10
325.1327524505991278
 20
4.0904490817150112
 30
0.0
 11
325.1427069991019039
 21
4.0971582727169027
 31
0.0
  0
LINE
  5
5FD8
  8
0
 10
325.13926203759911
 20
4.0814413842150108
 30
0.0
 11
325.1541450276408227
 21
4.091476008015011
 31
0.0
  0
LINE
  5
5FD9
  8
0
 10
325.1014982529990789
 20
4.0803739947150124
 30
0.0
 11
325.1026024993990973
 21
4.0799855100150122
 31
0.0
  0
LINE
  5
5FDA
  8
0
 10
325.1026024993990973
 20
4.0799855100150122
 30
0.0
 11
325.1344897768991018
 21
4.0799853823150123
 31
0.0
  0
LINE
  5
5FDB
  8
0
 10
325.1344897768991018
 20
4.0799853823150123
 30
0.0
 11
325.1355937412989192
 21
4.0803739947152176
 31
0.0
  0
ARC
  5
5FDC
  8
0
 10
325.0947677074324247
 20
4.0869584626180062
 30
0.0
 40
0.0095728037373393
 50
340.5389881286855029
 51
359.1854071254455221
  0
ARC
  5
5FDD
  8
0
 10
325.0972063815574984
 20
4.0857490719199268
 30
0.0
 40
0.0068783439452858
 50
308.6065339385484094
 51
343.270679160816087
  0
LINE
  5
5FDE
  8
0
 10
325.0943849951991069
 20
4.0971582727150109
 30
0.0
 11
325.1043395436990977
 21
4.0904490817150112
 31
0.0
  0
LINE
  5
5FDF
  8
0
 10
325.1043395436990977
 20
4.0904490817150112
 30
0.0
 11
325.1043395436990977
 21
4.086822367515027
 31
0.0
  0
LINE
  5
5FE0
  8
0
 10
325.1043395436990977
 20
4.0904490817150112
 30
0.0
 11
325.1327524505991278
 21
4.0904490817150112
 31
0.0
  0
ARC
  5
5FE1
  8
0
 10
325.1014523006625723
 20
4.0870339079107589
 30
0.0
 40
0.0066600717258032
 50
237.0616293835653039
 51
270.3953254462510927
  0
LINE
  5
5FE2
  8
0
 10
325.0978309757991269
 20
4.0814444033150208
 30
0.0
 11
325.0829469017140809
 21
4.091476008015011
 31
0.0
  0
ARC
  5
5FE3
  8
0
 10
325.1356416467519921
 20
4.0640667069427829
 30
0.0
 40
0.0066726449957093
 50
269.5886483020195783
 51
302.8589034399964817
  0
ARC
  5
5FE4
  8
0
 10
325.1423824932134039
 20
4.0639904660334727
 30
0.0
 40
0.0096311776606889
 50
180.8796481618757923
 51
202.6823709153781863
  0
ARC
  5
5FE5
  8
0
 10
325.1396770073110929
 20
4.0625701338472409
 30
0.0
 40
0.0065926475283548
 50
200.359678815167598
 51
231.7301013862004027
  0
LINE
  5
5FE6
  8
0
 10
325.1327524505991278
 20
4.067469320915011
 30
0.0
 11
325.1327524505991278
 21
4.0638426067150117
 31
0.0
  0
LINE
  5
5FE7
  8
0
 10
325.1327524505991278
 20
4.067469320915011
 30
0.0
 11
325.1427069991019039
 21
4.0741785119169034
 31
0.0
  0
LINE
  5
5FE8
  8
0
 10
325.13926203759911
 20
4.0584616234150124
 30
0.0
 11
325.1541450276408227
 21
4.0684962472150117
 31
0.0
  0
LINE
  5
5FE9
  8
0
 10
325.1014982529990789
 20
4.0573942339150122
 30
0.0
 11
325.1026024993990973
 21
4.057005749215012
 31
0.0
  0
LINE
  5
5FEA
  8
0
 10
325.1026024993990973
 20
4.057005749215012
 30
0.0
 11
325.1344897768991018
 21
4.0570056215150121
 31
0.0
  0
LINE
  5
5FEB
  8
0
 10
325.1344897768991018
 20
4.0570056215150121
 30
0.0
 11
325.1355937412989192
 21
4.0573942339152183
 31
0.0
  0
ARC
  5
5FEC
  8
0
 10
325.0947677074324247
 20
4.063978701818006
 30
0.0
 40
0.0095728037373393
 50
340.5389881286855029
 51
359.1854071254455221
  0
ARC
  5
5FED
  8
0
 10
325.0972063815574984
 20
4.0627693111199283
 30
0.0
 40
0.0068783439452858
 50
308.6065339385484094
 51
343.270679160816087
  0
LINE
  5
5FEE
  8
0
 10
325.0943849951991069
 20
4.0741785119150116
 30
0.0
 11
325.1043395436990977
 21
4.067469320915011
 31
0.0
  0
LINE
  5
5FEF
  8
0
 10
325.1043395436990977
 20
4.067469320915011
 30
0.0
 11
325.1043395436990977
 21
4.0638426067150268
 31
0.0
  0
LINE
  5
5FF0
  8
0
 10
325.1043395436990977
 20
4.067469320915011
 30
0.0
 11
325.1327524505991278
 21
4.067469320915011
 31
0.0
  0
ARC
  5
5FF1
  8
0
 10
325.1014523006625723
 20
4.0640541471107587
 30
0.0
 40
0.0066600717258032
 50
237.0616293835653039
 51
270.3953254462510927
  0
LINE
  5
5FF2
  8
0
 10
325.0978309757991269
 20
4.0584646425150206
 30
0.0
 11
325.0829469017140809
 21
4.0684962472150117
 31
0.0
  0
ARC
  5
5FF3
  8
0
 10
325.1356416467519921
 20
4.0410869460427827
 30
0.0
 40
0.0066726449957093
 50
269.5886483020195783
 51
302.8589034399964817
  0
ARC
  5
5FF4
  8
0
 10
325.1423824932134039
 20
4.0410107051334734
 30
0.0
 40
0.0096311776606889
 50
180.8796481618757923
 51
202.6823709153781863
  0
ARC
  5
5FF5
  8
0
 10
325.1396770073110929
 20
4.0395903729472407
 30
0.0
 40
0.0065926475283548
 50
200.359678815167598
 51
231.7301013862004027
  0
LINE
  5
5FF6
  8
0
 10
325.1327524505991278
 20
4.0444895600150099
 30
0.0
 11
325.1327524505991278
 21
4.0408628458150107
 31
0.0
  0
LINE
  5
5FF7
  8
0
 10
325.1327524505991278
 20
4.0444895600150099
 30
0.0
 11
325.1427069991019039
 21
4.0511987510169032
 31
0.0
  0
LINE
  5
5FF8
  8
0
 10
325.13926203759911
 20
4.0354818625150113
 30
0.0
 11
325.1541450276408227
 21
4.0455164863150106
 31
0.0
  0
LINE
  5
5FF9
  8
0
 10
325.1014982529990789
 20
4.0344144730150111
 30
0.0
 11
325.1026024993990973
 21
4.0340259883150109
 31
0.0
  0
LINE
  5
5FFA
  8
0
 10
325.1026024993990973
 20
4.0340259883150109
 30
0.0
 11
325.1344897768991018
 21
4.034025860615011
 31
0.0
  0
LINE
  5
5FFB
  8
0
 10
325.1344897768991018
 20
4.034025860615011
 30
0.0
 11
325.1355937412989192
 21
4.0344144730152181
 31
0.0
  0
ARC
  5
5FFC
  8
0
 10
325.0947677074324247
 20
4.0409989409180049
 30
0.0
 40
0.0095728037373393
 50
340.5389881286855029
 51
359.1854071254455221
  0
ARC
  5
5FFD
  8
0
 10
325.0972063815574984
 20
4.0397895502199272
 30
0.0
 40
0.0068783439452858
 50
308.6065339385484094
 51
343.270679160816087
  0
LINE
  5
5FFE
  8
0
 10
325.0943849951991069
 20
4.0511987510150114
 30
0.0
 11
325.1043395436990977
 21
4.0444895600150099
 31
0.0
  0
LINE
  5
5FFF
  8
0
 10
325.1043395436990977
 20
4.0444895600150099
 30
0.0
 11
325.1043395436990977
 21
4.0408628458150266
 31
0.0
  0
LINE
  5
6000
  8
0
 10
325.1043395436990977
 20
4.0444895600150099
 30
0.0
 11
325.1327524505991278
 21
4.0444895600150099
 31
0.0
  0
ARC
  5
6001
  8
0
 10
325.1014523006625723
 20
4.0410743862107594
 30
0.0
 40
0.0066600717258032
 50
237.0616293835653039
 51
270.3953254462510927
  0
LINE
  5
6002
  8
0
 10
325.0978309757991269
 20
4.0354848816150213
 30
0.0
 11
325.0829469017140809
 21
4.0455164863150106
 31
0.0
  0
ARC
  5
6003
  8
0
 10
325.0844984142520957
 20
4.0525768264427837
 30
0.0
 40
0.0066726449957093
 50
269.5886483020195783
 51
302.8589034399964817
  0
ARC
  5
6004
  8
0
 10
325.0912392607133938
 20
4.0525005855334726
 30
0.0
 40
0.0096311776606889
 50
180.8796481618757923
 51
202.6823709153781863
  0
ARC
  5
6005
  8
0
 10
325.0885337748110828
 20
4.0510802533472408
 30
0.0
 40
0.0065926475283548
 50
200.359678815167598
 51
231.7301013862004027
  0
LINE
  5
6006
  8
0
 10
325.0816092180991177
 20
4.0559794404150109
 30
0.0
 11
325.0816092180991177
 21
4.0523527262150116
 31
0.0
  0
LINE
  5
6007
  8
0
 10
325.0816092180991177
 20
4.0559794404150109
 30
0.0
 11
325.0915637666018938
 21
4.0626886314169033
 31
0.0
  0
LINE
  5
6008
  8
0
 10
325.0881188050991
 20
4.0469717429150123
 30
0.0
 11
325.1030017951408126
 21
4.0570063667150107
 31
0.0
  0
LINE
  5
6009
  8
0
 10
325.0503550204991257
 20
4.0459043534150121
 30
0.0
 11
325.0514592668990872
 21
4.0455158687150119
 31
0.0
  0
LINE
  5
600A
  8
0
 10
325.0514592668990872
 20
4.0455158687150119
 30
0.0
 11
325.0833465443990917
 21
4.0455157410150111
 31
0.0
  0
LINE
  5
600B
  8
0
 10
325.0833465443990917
 20
4.0455157410150111
 30
0.0
 11
325.0844505087989091
 21
4.0459043534152181
 31
0.0
  0
ARC
  5
600C
  8
0
 10
325.0436244749324146
 20
4.052488821318005
 30
0.0
 40
0.0095728037373393
 50
340.5389881286855029
 51
359.1854071254455221
  0
ARC
  5
600D
  8
0
 10
325.046063149057602
 20
4.0512794306199282
 30
0.0
 40
0.0068783439452858
 50
308.6065339385484094
 51
343.270679160816087
  0
LINE
  5
600E
  8
0
 10
325.0432417626990969
 20
4.0626886314150124
 30
0.0
 11
325.0531963111990876
 21
4.0559794404150109
 31
0.0
  0
LINE
  5
600F
  8
0
 10
325.0531963111990876
 20
4.0559794404150109
 30
0.0
 11
325.0531963111990876
 21
4.0523527262150267
 31
0.0
  0
LINE
  5
6010
  8
0
 10
325.0531963111990876
 20
4.0559794404150109
 30
0.0
 11
325.0816092180991177
 21
4.0559794404150109
 31
0.0
  0
ARC
  5
6011
  8
0
 10
325.050309068162619
 20
4.0525642666107604
 30
0.0
 40
0.0066600717258032
 50
237.0616293835653039
 51
270.3953254462510927
  0
LINE
  5
6012
  8
0
 10
325.0466877432991168
 20
4.0469747620150223
 30
0.0
 11
325.0318046886455932
 21
4.0570056796360356
 31
0.0
  0
ARC
  5
6013
  8
0
 10
325.0844984142520957
 20
4.075556587342783
 30
0.0
 40
0.0066726449957093
 50
269.5886483020195783
 51
302.8589034399964817
  0
ARC
  5
6014
  8
0
 10
325.0912392607133938
 20
4.0754803464334719
 30
0.0
 40
0.0096311776606889
 50
180.8796481618757923
 51
202.6823709153781863
  0
ARC
  5
6015
  8
0
 10
325.0885337748110828
 20
4.0740600142472401
 30
0.0
 40
0.0065926475283548
 50
200.359678815167598
 51
231.7301013862004027
  0
LINE
  5
6016
  8
0
 10
325.0816092180991177
 20
4.0789592013150111
 30
0.0
 11
325.0816092180991177
 21
4.0753324871150109
 31
0.0
  0
LINE
  5
6017
  8
0
 10
325.0816092180991177
 20
4.0789592013150111
 30
0.0
 11
325.0915637666018938
 21
4.0856683923169017
 31
0.0
  0
LINE
  5
6018
  8
0
 10
325.0881188050991
 20
4.0699515038150107
 30
0.0
 11
325.1030017951408126
 21
4.0799861276150109
 31
0.0
  0
LINE
  5
6019
  8
0
 10
325.0503550204991257
 20
4.0688841143150114
 30
0.0
 11
325.0514592668990872
 21
4.0684956296150112
 31
0.0
  0
LINE
  5
601A
  8
0
 10
325.0514592668990872
 20
4.0684956296150112
 30
0.0
 11
325.0833465443990917
 21
4.0684955019150113
 31
0.0
  0
LINE
  5
601B
  8
0
 10
325.0833465443990917
 20
4.0684955019150113
 30
0.0
 11
325.0844505087989091
 21
4.0688841143152166
 31
0.0
  0
ARC
  5
601C
  8
0
 10
325.0436244749324146
 20
4.0754685822180061
 30
0.0
 40
0.0095728037373393
 50
340.5389881286855029
 51
359.1854071254455221
  0
ARC
  5
601D
  8
0
 10
325.046063149057602
 20
4.0742591915199267
 30
0.0
 40
0.0068783439452858
 50
308.6065339385484094
 51
343.270679160816087
  0
LINE
  5
601E
  8
0
 10
325.0432417626990969
 20
4.0856683923150108
 30
0.0
 11
325.0531963111990876
 21
4.0789592013150111
 31
0.0
  0
LINE
  5
601F
  8
0
 10
325.0531963111990876
 20
4.0789592013150111
 30
0.0
 11
325.0531963111990876
 21
4.075332487115026
 31
0.0
  0
LINE
  5
6020
  8
0
 10
325.0531963111990876
 20
4.0789592013150111
 30
0.0
 11
325.0816092180991177
 21
4.0789592013150111
 31
0.0
  0
ARC
  5
6021
  8
0
 10
325.050309068162619
 20
4.0755440275107579
 30
0.0
 40
0.0066600717258032
 50
237.0616293835653039
 51
270.3953254462510927
  0
LINE
  5
6022
  8
0
 10
325.0466877432991168
 20
4.0699545229150198
 30
0.0
 11
325.0318036692141277
 21
4.0799861276150109
 31
0.0
  0
ARC
  5
6023
  8
0
 10
325.0844984142520957
 20
4.0985363481427841
 30
0.0
 40
0.0066726449957093
 50
269.5886483020195783
 51
302.8589034399964817
  0
ARC
  5
6024
  8
0
 10
325.0912392607133938
 20
4.0984601072334721
 30
0.0
 40
0.0096311776606889
 50
180.8796481618757923
 51
202.6823709153781863
  0
ARC
  5
6025
  8
0
 10
325.0885337748110828
 20
4.0970397750472412
 30
0.0
 40
0.0065926475283548
 50
200.359678815167598
 51
231.7301013862004027
  0
LINE
  5
6026
  8
0
 10
325.0816092180991177
 20
4.1019389621150122
 30
0.0
 11
325.0816092180991177
 21
4.098312247915012
 31
0.0
  0
LINE
  5
6027
  8
0
 10
325.0816092180991177
 20
4.1019389621150122
 30
0.0
 11
325.0915637666018938
 21
4.1086481531169019
 31
0.0
  0
LINE
  5
6028
  8
0
 10
325.0881188050991
 20
4.0929312646150118
 30
0.0
 11
325.1030017951408126
 21
4.1029658884150111
 31
0.0
  0
LINE
  5
6029
  8
0
 10
325.0503550204991257
 20
4.0918638751150107
 30
0.0
 11
325.0514592668990872
 21
4.0914753904150123
 31
0.0
  0
LINE
  5
602A
  8
0
 10
325.0514592668990872
 20
4.0914753904150123
 30
0.0
 11
325.0833465443990917
 21
4.0914752627150106
 31
0.0
  0
LINE
  5
602B
  8
0
 10
325.0833465443990917
 20
4.0914752627150106
 30
0.0
 11
325.0844505087989091
 21
4.0918638751152168
 31
0.0
  0
ARC
  5
602C
  8
0
 10
325.0436244749324146
 20
4.0984483430180063
 30
0.0
 40
0.0095728037373393
 50
340.5389881286855029
 51
359.1854071254455221
  0
ARC
  5
602D
  8
0
 10
325.046063149057602
 20
4.0972389523199277
 30
0.0
 40
0.0068783439452858
 50
308.6065339385484094
 51
343.270679160816087
  0
LINE
  5
602E
  8
0
 10
325.0432417626990969
 20
4.1086481531150119
 30
0.0
 11
325.0531963111990876
 21
4.1019389621150122
 31
0.0
  0
LINE
  5
602F
  8
0
 10
325.0531963111990876
 20
4.1019389621150122
 30
0.0
 11
325.0531963111990876
 21
4.0983122479150271
 31
0.0
  0
LINE
  5
6030
  8
0
 10
325.0531963111990876
 20
4.1019389621150122
 30
0.0
 11
325.0816092180991177
 21
4.1019389621150122
 31
0.0
  0
ARC
  5
6031
  8
0
 10
325.050309068162619
 20
4.098523788310759
 30
0.0
 40
0.0066600717258032
 50
237.0616293835653039
 51
270.3953254462510927
  0
LINE
  5
6032
  8
0
 10
325.0466877432991168
 20
4.0929342837150209
 30
0.0
 11
325.0318036692141277
 21
4.1029658884150111
 31
0.0
  0
ARC
  5
6033
  8
0
 10
325.0844984142520957
 20
4.1215161090427834
 30
0.0
 40
0.0066726449957093
 50
269.5886483020195783
 51
302.8589034399964817
  0
ARC
  5
6034
  8
0
 10
325.0912392607133938
 20
4.1214398681334732
 30
0.0
 40
0.0096311776606889
 50
180.8796481618757923
 51
202.6823709153781863
  0
ARC
  5
6035
  8
0
 10
325.0885337748110828
 20
4.1200195359472414
 30
0.0
 40
0.0065926475283548
 50
200.359678815167598
 51
231.7301013862004027
  0
LINE
  5
6036
  8
0
 10
325.0816092180991177
 20
4.1249187230150106
 30
0.0
 11
325.0816092180991177
 21
4.1212920088150122
 31
0.0
  0
LINE
  5
6037
  8
0
 10
325.0816092180991177
 20
4.1249187230150106
 30
0.0
 11
325.0915637666018938
 21
4.1316279140169021
 31
0.0
  0
LINE
  5
6038
  8
0
 10
325.0881188050991
 20
4.1159110255150111
 30
0.0
 11
325.1030017951408126
 21
4.1259456493150122
 31
0.0
  0
LINE
  5
6039
  8
0
 10
325.0503550204991257
 20
4.1148436360150109
 30
0.0
 11
325.0514592668990872
 21
4.1144551513150107
 31
0.0
  0
LINE
  5
603A
  8
0
 10
325.0514592668990872
 20
4.1144551513150107
 30
0.0
 11
325.0833465443990917
 21
4.1144550236150108
 31
0.0
  0
LINE
  5
603B
  8
0
 10
325.0833465443990917
 20
4.1144550236150108
 30
0.0
 11
325.0844505087989091
 21
4.114843636015217
 31
0.0
  0
ARC
  5
603C
  8
0
 10
325.0436244749324146
 20
4.1214281039180056
 30
0.0
 40
0.0095728037373393
 50
340.5389881286855029
 51
359.1854071254455221
  0
ARC
  5
603D
  8
0
 10
325.046063149057602
 20
4.1202187132199271
 30
0.0
 40
0.0068783439452858
 50
308.6065339385484094
 51
343.270679160816087
  0
LINE
  5
603E
  8
0
 10
325.0432417626990969
 20
4.1316279140150121
 30
0.0
 11
325.0531963111990876
 21
4.1249187230150106
 31
0.0
  0
LINE
  5
603F
  8
0
 10
325.0531963111990876
 20
4.1249187230150106
 30
0.0
 11
325.0531963111990876
 21
4.1212920088150273
 31
0.0
  0
LINE
  5
6040
  8
0
 10
325.0531963111990876
 20
4.1249187230150106
 30
0.0
 11
325.0816092180991177
 21
4.1249187230150106
 31
0.0
  0
ARC
  5
6041
  8
0
 10
325.050309068162619
 20
4.1215035492107592
 30
0.0
 40
0.0066600717258032
 50
237.0616293835653039
 51
270.3953254462510927
  0
LINE
  5
6042
  8
0
 10
325.0466877432991168
 20
4.1159140446150211
 30
0.0
 11
325.0318036692141277
 21
4.1259456493150122
 31
0.0
  0
ARC
  5
6043
  8
0
 10
325.0844984142520957
 20
4.1444958698427827
 30
0.0
 40
0.0066726449957093
 50
269.5886483020195783
 51
302.8589034399964817
  0
ARC
  5
6044
  8
0
 10
325.0912392607133938
 20
4.1444196289334734
 30
0.0
 40
0.0096311776606889
 50
180.8796481618757923
 51
202.6823709153781863
  0
ARC
  5
6045
  8
0
 10
325.0885337748110828
 20
4.1429992967472407
 30
0.0
 40
0.0065926475283548
 50
200.359678815167598
 51
231.7301013862004027
  0
LINE
  5
6046
  8
0
 10
325.0816092180991177
 20
4.1478984838150099
 30
0.0
 11
325.0816092180991177
 21
4.1442717696150106
 31
0.0
  0
LINE
  5
6047
  8
0
 10
325.0816092180991177
 20
4.1478984838150099
 30
0.0
 11
325.0915637666018938
 21
4.1546076748169032
 31
0.0
  0
LINE
  5
6048
  8
0
 10
325.0881188050991
 20
4.1388907863150113
 30
0.0
 11
325.1030017951408126
 21
4.1489254101150106
 31
0.0
  0
LINE
  5
6049
  8
0
 10
325.0503550204991257
 20
4.1378233968150111
 30
0.0
 11
325.0514592668990872
 21
4.1374349121150109
 31
0.0
  0
LINE
  5
604A
  8
0
 10
325.0514592668990872
 20
4.1374349121150109
 30
0.0
 11
325.0833465443990917
 21
4.137434784415011
 31
0.0
  0
LINE
  5
604B
  8
0
 10
325.0833465443990917
 20
4.137434784415011
 30
0.0
 11
325.0844505087989091
 21
4.137823396815218
 31
0.0
  0
ARC
  5
604C
  8
0
 10
325.0436244749324146
 20
4.1444078647180049
 30
0.0
 40
0.0095728037373393
 50
340.5389881286855029
 51
359.1854071254455221
  0
ARC
  5
604D
  8
0
 10
325.046063149057602
 20
4.1431984740199272
 30
0.0
 40
0.0068783439452858
 50
308.6065339385484094
 51
343.270679160816087
  0
LINE
  5
604E
  8
0
 10
325.0432417626990969
 20
4.1546076748150114
 30
0.0
 11
325.0531963111990876
 21
4.1478984838150099
 31
0.0
  0
LINE
  5
604F
  8
0
 10
325.0531963111990876
 20
4.1478984838150099
 30
0.0
 11
325.0531963111990876
 21
4.1442717696150266
 31
0.0
  0
LINE
  5
6050
  8
0
 10
325.0531963111990876
 20
4.1478984838150099
 30
0.0
 11
325.0816092180991177
 21
4.1478984838150099
 31
0.0
  0
ARC
  5
6051
  8
0
 10
325.050309068162619
 20
4.1444833100107594
 30
0.0
 40
0.0066600717258032
 50
237.0616293835653039
 51
270.3953254462510927
  0
LINE
  5
6052
  8
0
 10
325.0466877432991168
 20
4.1388938054150213
 30
0.0
 11
325.0318036692141277
 21
4.1489254101150106
 31
0.0
  0
ARC
  5
6053
  8
0
 10
325.0844984142520957
 20
4.1674756306427829
 30
0.0
 40
0.0066726449957093
 50
269.5886483020195783
 51
302.8589034399964817
  0
ARC
  5
6054
  8
0
 10
325.0912392607133938
 20
4.1673993897334727
 30
0.0
 40
0.0096311776606889
 50
180.8796481618757923
 51
202.6823709153781863
  0
ARC
  5
6055
  8
0
 10
325.0885337748110828
 20
4.1659790575472408
 30
0.0
 40
0.0065926475283548
 50
200.359678815167598
 51
231.7301013862004027
  0
LINE
  5
6056
  8
0
 10
325.0816092180991177
 20
4.170878244615011
 30
0.0
 11
325.0816092180991177
 21
4.1672515304150117
 31
0.0
  0
LINE
  5
6057
  8
0
 10
325.0816092180991177
 20
4.170878244615011
 30
0.0
 11
325.0915637666018938
 21
4.1775874356169034
 31
0.0
  0
LINE
  5
6058
  8
0
 10
325.0881188050991
 20
4.1618705471150124
 30
0.0
 11
325.1030017951408126
 21
4.1719051709150117
 31
0.0
  0
LINE
  5
6059
  8
0
 10
325.0503550204991257
 20
4.1608031576150122
 30
0.0
 11
325.0514592668990872
 21
4.1604146729150111
 31
0.0
  0
LINE
  5
605A
  8
0
 10
325.0514592668990872
 20
4.1604146729150111
 30
0.0
 11
325.0833465443990917
 21
4.1604145452150121
 31
0.0
  0
LINE
  5
605B
  8
0
 10
325.0833465443990917
 20
4.1604145452150121
 30
0.0
 11
325.0844505087989091
 21
4.1608031576152182
 31
0.0
  0
ARC
  5
605C
  8
0
 10
325.0436244749324146
 20
4.167387625518006
 30
0.0
 40
0.0095728037373393
 50
340.5389881286855029
 51
359.1854071254455221
  0
ARC
  5
605D
  8
0
 10
325.046063149057602
 20
4.1661782348199283
 30
0.0
 40
0.0068783439452858
 50
308.6065339385484094
 51
343.270679160816087
  0
LINE
  5
605E
  8
0
 10
325.0432417626990969
 20
4.1775874356150116
 30
0.0
 11
325.0531963111990876
 21
4.170878244615011
 31
0.0
  0
LINE
  5
605F
  8
0
 10
325.0531963111990876
 20
4.170878244615011
 30
0.0
 11
325.0531963111990876
 21
4.1672515304150268
 31
0.0
  0
LINE
  5
6060
  8
0
 10
325.0531963111990876
 20
4.170878244615011
 30
0.0
 11
325.0816092180991177
 21
4.170878244615011
 31
0.0
  0
ARC
  5
6061
  8
0
 10
325.050309068162619
 20
4.1674630708107587
 30
0.0
 40
0.0066600717258032
 50
237.0616293835653039
 51
270.3953254462510927
  0
LINE
  5
6062
  8
0
 10
325.0466877432991168
 20
4.1618735662150206
 30
0.0
 11
325.0318036692141277
 21
4.1719051709150117
 31
0.0
  0
ARC
  5
6063
  8
0
 10
325.0844984142520957
 20
4.190455391542784
 30
0.0
 40
0.0066726449957093
 50
269.5886483020195783
 51
302.8589034399964817
  0
ARC
  5
6064
  8
0
 10
325.0912392607133938
 20
4.1903791506334729
 30
0.0
 40
0.0096311776606889
 50
180.8796481618757923
 51
202.6823709153781863
  0
ARC
  5
6065
  8
0
 10
325.0885337748110828
 20
4.1889588184472411
 30
0.0
 40
0.0065926475283548
 50
200.359678815167598
 51
231.7301013862004027
  0
LINE
  5
6066
  8
0
 10
325.0816092180991177
 20
4.1938580055150112
 30
0.0
 11
325.0816092180991177
 21
4.190231291315011
 31
0.0
  0
LINE
  5
6067
  8
0
 10
325.0816092180991177
 20
4.1938580055150112
 30
0.0
 11
325.0915637666018938
 21
4.2005671965169027
 31
0.0
  0
LINE
  5
6068
  8
0
 10
325.0881188050991
 20
4.1848503080150108
 30
0.0
 11
325.1030017951408126
 21
4.194884931815011
 31
0.0
  0
LINE
  5
6069
  8
0
 10
325.0503550204991257
 20
4.1837829185150124
 30
0.0
 11
325.0514592668990872
 21
4.1833944338150122
 31
0.0
  0
LINE
  5
606A
  8
0
 10
325.0514592668990872
 20
4.1833944338150122
 30
0.0
 11
325.0833465443990917
 21
4.1833943061150123
 31
0.0
  0
LINE
  5
606B
  8
0
 10
325.0833465443990917
 20
4.1833943061150123
 30
0.0
 11
325.0844505087989091
 21
4.1837829185152184
 31
0.0
  0
ARC
  5
606C
  8
0
 10
325.0436244749324146
 20
4.1903673864180062
 30
0.0
 40
0.0095728037373393
 50
340.5389881286855029
 51
359.1854071254455221
  0
ARC
  5
606D
  8
0
 10
325.046063149057602
 20
4.1891579957199268
 30
0.0
 40
0.0068783439452858
 50
308.6065339385484094
 51
343.270679160816087
  0
LINE
  5
606E
  8
0
 10
325.0531963111990876
 20
4.1938580055150112
 30
0.0
 11
325.0531963111990876
 21
4.190231291315027
 31
0.0
  0
LINE
  5
606F
  8
0
 10
325.0531963111990876
 20
4.1938580055150112
 30
0.0
 11
325.0816092180991177
 21
4.1938580055150112
 31
0.0
  0
ARC
  5
6070
  8
0
 10
325.050309068162619
 20
4.1904428317107589
 30
0.0
 40
0.0066600717258032
 50
237.0616293835653039
 51
270.3953254462510927
  0
LINE
  5
6071
  8
0
 10
325.0466877432991168
 20
4.1848533271150208
 30
0.0
 11
325.0383470330664863
 21
4.1904748194223611
 31
0.0
  0
ARC
  5
6072
  8
0
 10
325.0333551817519719
 20
4.1559857502427828
 30
0.0
 40
0.0066726449957093
 50
269.5886483020195783
 51
302.8589034399964817
  0
ARC
  5
6073
  8
0
 10
325.0400960282134974
 20
4.1559095093334717
 30
0.0
 40
0.0096311776606889
 50
180.8796481618757923
 51
202.6823709153781863
  0
ARC
  5
6074
  8
0
 10
325.0373905423110727
 20
4.1544891771472399
 30
0.0
 40
0.0065926475283548
 50
200.359678815167598
 51
231.7301013862004027
  0
LINE
  5
6075
  8
0
 10
325.0304659855991076
 20
4.1593883642150109
 30
0.0
 11
325.0304659855991076
 21
4.1557616500150116
 31
0.0
  0
LINE
  5
6076
  8
0
 10
325.0304659855991076
 20
4.1593883642150109
 30
0.0
 11
325.0404205341018837
 21
4.1660975552169024
 31
0.0
  0
LINE
  5
6077
  8
0
 10
325.0369755725990899
 20
4.1503806667150123
 30
0.0
 11
325.0518585626406889
 21
4.1604152905150107
 31
0.0
  0
LINE
  5
6078
  8
0
 10
324.9992117879991156
 20
4.1493132772150112
 30
0.0
 11
325.0003160343990771
 21
4.148924792515011
 31
0.0
  0
LINE
  5
6079
  8
0
 10
325.0003160343990771
 20
4.148924792515011
 30
0.0
 11
325.0322033118990817
 21
4.1489246648150111
 31
0.0
  0
LINE
  5
607A
  8
0
 10
325.0322033118990817
 20
4.1489246648150111
 30
0.0
 11
325.0333072762987854
 21
4.1493132772152173
 31
0.0
  0
ARC
  5
607B
  8
0
 10
324.9924812424324045
 20
4.155897745118005
 30
0.0
 40
0.0095728037373393
 50
340.5389881286855029
 51
359.1854071254455221
  0
ARC
  5
607C
  8
0
 10
324.9949199165575919
 20
4.1546883544199282
 30
0.0
 40
0.0068783439452858
 50
308.6065339385484094
 51
343.270679160816087
  0
LINE
  5
607D
  8
0
 10
324.9940101691507834
 20
4.1648091441082933
 30
0.0
 11
325.0020530786990776
 21
4.1593883642150109
 31
0.0
  0
LINE
  5
607E
  8
0
 10
325.0020530786990776
 20
4.1593883642150109
 30
0.0
 11
325.0020530786990776
 21
4.1557616500150258
 31
0.0
  0
LINE
  5
607F
  8
0
 10
325.0020530786990776
 20
4.1593883642150109
 30
0.0
 11
325.0304659855991076
 21
4.1593883642150109
 31
0.0
  0
ARC
  5
6080
  8
0
 10
324.999165835662609
 20
4.1559731904107586
 30
0.0
 40
0.0066600717258032
 50
237.0616293835653039
 51
270.3953254462510927
  0
LINE
  5
6081
  8
0
 10
324.9955445107991068
 20
4.1503836858150214
 30
0.0
 11
324.9849526947613185
 21
4.1575223839254276
 31
0.0
  0
ARC
  5
6082
  8
0
 10
325.0333551817519719
 20
4.1330059894427844
 30
0.0
 40
0.0066726449957093
 50
269.5886483020195783
 51
302.8589034399964817
  0
ARC
  5
6083
  8
0
 10
325.0400960282134974
 20
4.1329297485334733
 30
0.0
 40
0.0096311776606889
 50
180.8796481618757923
 51
202.6823709153781863
  0
ARC
  5
6084
  8
0
 10
325.0373905423110727
 20
4.1315094163472406
 30
0.0
 40
0.0065926475283548
 50
200.359678815167598
 51
231.7301013862004027
  0
LINE
  5
6085
  8
0
 10
325.0304659855991076
 20
4.1364086034150107
 30
0.0
 11
325.0304659855991076
 21
4.1327818892150123
 31
0.0
  0
LINE
  5
6086
  8
0
 10
325.0304659855991076
 20
4.1364086034150107
 30
0.0
 11
325.0404205341018837
 21
4.1431177944169031
 31
0.0
  0
LINE
  5
6087
  8
0
 10
325.0369755725990899
 20
4.1274009059150121
 30
0.0
 11
325.0518585626406889
 21
4.1374355297150114
 31
0.0
  0
LINE
  5
6088
  8
0
 10
324.9992117879991156
 20
4.126333516415011
 30
0.0
 11
325.0003160343990771
 21
4.1259450317150117
 31
0.0
  0
LINE
  5
6089
  8
0
 10
325.0003160343990771
 20
4.1259450317150117
 30
0.0
 11
325.0322033118990817
 21
4.1259449040150109
 31
0.0
  0
LINE
  5
608A
  8
0
 10
325.0322033118990817
 20
4.1259449040150109
 30
0.0
 11
325.0333072762987854
 21
4.1263335164152171
 31
0.0
  0
ARC
  5
608B
  8
0
 10
324.9924812424324045
 20
4.1329179843180048
 30
0.0
 40
0.0095728037373393
 50
340.5389881286855029
 51
359.1854071254455221
  0
ARC
  5
608C
  8
0
 10
324.9949199165575919
 20
4.131708593619928
 30
0.0
 40
0.0068783439452858
 50
308.6065339385484094
 51
343.270679160816087
  0
LINE
  5
608D
  8
0
 10
324.9920985301990868
 20
4.1431177944150122
 30
0.0
 11
325.0020530786990776
 21
4.1364086034150107
 31
0.0
  0
LINE
  5
608E
  8
0
 10
325.0020530786990776
 20
4.1364086034150107
 30
0.0
 11
325.0020530786990776
 21
4.1327818892150274
 31
0.0
  0
LINE
  5
608F
  8
0
 10
325.0020530786990776
 20
4.1364086034150107
 30
0.0
 11
325.0304659855991076
 21
4.1364086034150107
 31
0.0
  0
ARC
  5
6090
  8
0
 10
324.999165835662609
 20
4.1329934296107602
 30
0.0
 40
0.0066600717258032
 50
237.0616293835653039
 51
270.3953254462510927
  0
LINE
  5
6091
  8
0
 10
324.9955445107991068
 20
4.1274039250150221
 30
0.0
 11
324.9806604367141176
 21
4.1374355297150114
 31
0.0
  0
ARC
  5
6092
  8
0
 10
325.0333551817519719
 20
4.1100262285427842
 30
0.0
 40
0.0066726449957093
 50
269.5886483020195783
 51
302.8589034399964817
  0
ARC
  5
6093
  8
0
 10
325.0400960282134974
 20
4.1099499876334731
 30
0.0
 40
0.0096311776606889
 50
180.8796481618757923
 51
202.6823709153781863
  0
ARC
  5
6094
  8
0
 10
325.0373905423110727
 20
4.1085296554472412
 30
0.0
 40
0.0065926475283548
 50
200.359678815167598
 51
231.7301013862004027
  0
LINE
  5
6095
  8
0
 10
325.0304659855991076
 20
4.1134288425150114
 30
0.0
 11
325.0304659855991076
 21
4.1098021283150121
 31
0.0
  0
LINE
  5
6096
  8
0
 10
325.0304659855991076
 20
4.1134288425150114
 30
0.0
 11
325.0404205341018837
 21
4.120138033516902
 31
0.0
  0
LINE
  5
6097
  8
0
 10
325.0369755725990899
 20
4.104421145015011
 30
0.0
 11
325.0518585626406889
 21
4.1144557688150112
 31
0.0
  0
LINE
  5
6098
  8
0
 10
324.9992117879991156
 20
4.1033537555150108
 30
0.0
 11
325.0003160343990771
 21
4.1029652708150124
 31
0.0
  0
LINE
  5
6099
  8
0
 10
325.0003160343990771
 20
4.1029652708150124
 30
0.0
 11
325.0322033118990817
 21
4.1029651431150107
 31
0.0
  0
LINE
  5
609A
  8
0
 10
325.0322033118990817
 20
4.1029651431150107
 30
0.0
 11
325.0333072762987854
 21
4.1033537555152169
 31
0.0
  0
ARC
  5
609B
  8
0
 10
324.9924812424324045
 20
4.1099382234180046
 30
0.0
 40
0.0095728037373393
 50
340.5389881286855029
 51
359.1854071254455221
  0
ARC
  5
609C
  8
0
 10
324.9949199165575919
 20
4.1087288327199269
 30
0.0
 40
0.0068783439452858
 50
308.6065339385484094
 51
343.270679160816087
  0
LINE
  5
609D
  8
0
 10
324.9920985301990868
 20
4.1201380335150111
 30
0.0
 11
325.0020530786990776
 21
4.1134288425150114
 31
0.0
  0
LINE
  5
609E
  8
0
 10
325.0020530786990776
 20
4.1134288425150114
 30
0.0
 11
325.0020530786990776
 21
4.1098021283150272
 31
0.0
  0
LINE
  5
609F
  8
0
 10
325.0020530786990776
 20
4.1134288425150114
 30
0.0
 11
325.0304659855991076
 21
4.1134288425150114
 31
0.0
  0
ARC
  5
60A0
  8
0
 10
324.999165835662609
 20
4.11001366871076
 30
0.0
 40
0.0066600717258032
 50
237.0616293835653039
 51
270.3953254462510927
  0
LINE
  5
60A1
  8
0
 10
324.9955445107991068
 20
4.104424164115021
 30
0.0
 11
324.9806604367141176
 21
4.1144557688150112
 31
0.0
  0
ARC
  5
60A2
  8
0
 10
325.0333551817519719
 20
4.087046467742784
 30
0.0
 40
0.0066726449957093
 50
269.5886483020195783
 51
302.8589034399964817
  0
ARC
  5
60A3
  8
0
 10
325.0400960282134974
 20
4.0869702268334729
 30
0.0
 40
0.0096311776606889
 50
180.8796481618757923
 51
202.6823709153781863
  0
ARC
  5
60A4
  8
0
 10
325.0373905423110727
 20
4.0855498946472411
 30
0.0
 40
0.0065926475283548
 50
200.359678815167598
 51
231.7301013862004027
  0
LINE
  5
60A5
  8
0
 10
325.0304659855991076
 20
4.0904490817150112
 30
0.0
 11
325.0304659855991076
 21
4.086822367515011
 31
0.0
  0
LINE
  5
60A6
  8
0
 10
325.0304659855991076
 20
4.0904490817150112
 30
0.0
 11
325.0404205341018837
 21
4.0971582727169027
 31
0.0
  0
LINE
  5
60A7
  8
0
 10
325.0369755725990899
 20
4.0814413842150108
 30
0.0
 11
325.0518585626406889
 21
4.091476008015011
 31
0.0
  0
LINE
  5
60A8
  8
0
 10
324.9992117879991156
 20
4.0803739947150124
 30
0.0
 11
325.0003160343990771
 21
4.0799855100150122
 31
0.0
  0
LINE
  5
60A9
  8
0
 10
325.0003160343990771
 20
4.0799855100150122
 30
0.0
 11
325.0322033118990817
 21
4.0799853823150123
 31
0.0
  0
LINE
  5
60AA
  8
0
 10
325.0322033118990817
 20
4.0799853823150123
 30
0.0
 11
325.0333072762987854
 21
4.0803739947152176
 31
0.0
  0
ARC
  5
60AB
  8
0
 10
324.9924812424324045
 20
4.0869584626180062
 30
0.0
 40
0.0095728037373393
 50
340.5389881286855029
 51
359.1854071254455221
  0
ARC
  5
60AC
  8
0
 10
324.9949199165575919
 20
4.0857490719199268
 30
0.0
 40
0.0068783439452858
 50
308.6065339385484094
 51
343.270679160816087
  0
LINE
  5
60AD
  8
0
 10
324.9920985301990868
 20
4.0971582727150109
 30
0.0
 11
325.0020530786990776
 21
4.0904490817150112
 31
0.0
  0
LINE
  5
60AE
  8
0
 10
325.0020530786990776
 20
4.0904490817150112
 30
0.0
 11
325.0020530786990776
 21
4.086822367515027
 31
0.0
  0
LINE
  5
60AF
  8
0
 10
325.0020530786990776
 20
4.0904490817150112
 30
0.0
 11
325.0304659855991076
 21
4.0904490817150112
 31
0.0
  0
ARC
  5
60B0
  8
0
 10
324.999165835662609
 20
4.0870339079107589
 30
0.0
 40
0.0066600717258032
 50
237.0616293835653039
 51
270.3953254462510927
  0
LINE
  5
60B1
  8
0
 10
324.9955445107991068
 20
4.0814444033150208
 30
0.0
 11
324.9806604367141176
 21
4.091476008015011
 31
0.0
  0
ARC
  5
60B2
  8
0
 10
325.2890713443019877
 20
4.0295970656427844
 30
0.0
 40
0.0066726449957093
 50
269.5886483020195783
 51
302.8589034399964817
  0
ARC
  5
60B3
  8
0
 10
325.2958121907633995
 20
4.0295208247334733
 30
0.0
 40
0.0096311776606889
 50
180.8796481618757923
 51
202.682370915378101
  0
ARC
  5
60B4
  8
0
 10
325.2931067048610885
 20
4.0281004925472406
 30
0.0
 40
0.0065926475283548
 50
200.359678815167598
 51
231.7301013862004027
  0
LINE
  5
60B5
  8
0
 10
325.2861821481491233
 20
4.0329996796150107
 30
0.0
 11
325.2861821481491233
 21
4.0293729654150123
 31
0.0
  0
LINE
  5
60B6
  8
0
 10
325.2861821481491233
 20
4.0329996796150107
 30
0.0
 11
325.2961366966518995
 21
4.0397088706169031
 31
0.0
  0
LINE
  5
60B7
  8
0
 10
325.2926917351491056
 20
4.0239919821150121
 30
0.0
 11
325.3075747251908183
 21
4.0340266059150114
 31
0.0
  0
LINE
  5
60B8
  8
0
 10
325.2549279505490745
 20
4.022924592615011
 30
0.0
 11
325.2560321969490928
 21
4.0225361079150117
 31
0.0
  0
LINE
  5
60B9
  8
0
 10
325.2560321969490928
 20
4.0225361079150117
 30
0.0
 11
325.2879194744490974
 21
4.0225359802150109
 31
0.0
  0
LINE
  5
60BA
  8
0
 10
325.2879194744490974
 20
4.0225359802150109
 30
0.0
 11
325.2890234388488011
 21
4.0229245926152171
 31
0.0
  0
ARC
  5
60BB
  8
0
 10
325.2481974049824203
 20
4.0295090605180048
 30
0.0
 40
0.0095728037373393
 50
340.5389881286855029
 51
359.1854071254455221
  0
ARC
  5
60BC
  8
0
 10
325.2506360791076077
 20
4.028299669819928
 30
0.0
 40
0.0068783439452858
 50
308.6065339385484094
 51
343.270679160816087
  0
LINE
  5
60BD
  8
0
 10
325.2478146927491025
 20
4.0397088706150122
 30
0.0
 11
325.2577692412490933
 21
4.0329996796150107
 31
0.0
  0
LINE
  5
60BE
  8
0
 10
325.2577692412490933
 20
4.0329996796150107
 30
0.0
 11
325.2577692412490933
 21
4.0293729654150274
 31
0.0
  0
LINE
  5
60BF
  8
0
 10
325.2577692412490933
 20
4.0329996796150107
 30
0.0
 11
325.2861821481491233
 21
4.0329996796150107
 31
0.0
  0
ARC
  5
60C0
  8
0
 10
325.2548819982126247
 20
4.0295845058107602
 30
0.0
 40
0.0066600717258032
 50
237.0616293835653039
 51
270.3953254462510927
  0
LINE
  5
60C1
  8
0
 10
325.2512606733491225
 20
4.0239950012150221
 30
0.0
 11
325.2363765992640765
 21
4.0340266059150114
 31
0.0
  0
ARC
  5
60C2
  8
0
 10
325.2890713443019877
 20
4.0525768264427837
 30
0.0
 40
0.0066726449957093
 50
269.5886483020195783
 51
302.8589034399964817
  0
ARC
  5
60C3
  8
0
 10
325.2958121907633995
 20
4.0525005855334726
 30
0.0
 40
0.0096311776606889
 50
180.8796481618757923
 51
202.682370915378101
  0
ARC
  5
60C4
  8
0
 10
325.2931067048610885
 20
4.0510802533472408
 30
0.0
 40
0.0065926475283548
 50
200.359678815167598
 51
231.7301013862004027
  0
LINE
  5
60C5
  8
0
 10
325.2861821481491233
 20
4.0559794404150109
 30
0.0
 11
325.2861821481491233
 21
4.0523527262150116
 31
0.0
  0
LINE
  5
60C6
  8
0
 10
325.2861821481491233
 20
4.0559794404150109
 30
0.0
 11
325.2961366966518995
 21
4.0626886314169033
 31
0.0
  0
LINE
  5
60C7
  8
0
 10
325.2926917351491056
 20
4.0469717429150123
 30
0.0
 11
325.3075747251908183
 21
4.0570063667150107
 31
0.0
  0
LINE
  5
60C8
  8
0
 10
325.2549279505490745
 20
4.0459043534150121
 30
0.0
 11
325.2560321969490928
 21
4.0455158687150119
 31
0.0
  0
LINE
  5
60C9
  8
0
 10
325.2560321969490928
 20
4.0455158687150119
 30
0.0
 11
325.2879194744490974
 21
4.0455157410150111
 31
0.0
  0
LINE
  5
60CA
  8
0
 10
325.2879194744490974
 20
4.0455157410150111
 30
0.0
 11
325.2890234388488011
 21
4.0459043534152181
 31
0.0
  0
ARC
  5
60CB
  8
0
 10
325.2481974049824203
 20
4.052488821318005
 30
0.0
 40
0.0095728037373393
 50
340.5389881286855029
 51
359.1854071254455221
  0
ARC
  5
60CC
  8
0
 10
325.2506360791076077
 20
4.0512794306199282
 30
0.0
 40
0.0068783439452858
 50
308.6065339385484094
 51
343.270679160816087
  0
LINE
  5
60CD
  8
0
 10
325.2478146927491025
 20
4.0626886314150124
 30
0.0
 11
325.2577692412490933
 21
4.0559794404150109
 31
0.0
  0
LINE
  5
60CE
  8
0
 10
325.2577692412490933
 20
4.0559794404150109
 30
0.0
 11
325.2577692412490933
 21
4.0523527262150267
 31
0.0
  0
LINE
  5
60CF
  8
0
 10
325.2577692412490933
 20
4.0559794404150109
 30
0.0
 11
325.2861821481491233
 21
4.0559794404150109
 31
0.0
  0
ARC
  5
60D0
  8
0
 10
325.2548819982126247
 20
4.0525642666107604
 30
0.0
 40
0.0066600717258032
 50
237.0616293835653039
 51
270.3953254462510927
  0
LINE
  5
60D1
  8
0
 10
325.2512606733491225
 20
4.0469747620150223
 30
0.0
 11
325.2363765992640765
 21
4.0570063667150107
 31
0.0
  0
ARC
  5
60D2
  8
0
 10
325.2890713443019877
 20
4.075556587342783
 30
0.0
 40
0.0066726449957093
 50
269.5886483020195783
 51
302.8589034399964817
  0
ARC
  5
60D3
  8
0
 10
325.2958121907633995
 20
4.0754803464334719
 30
0.0
 40
0.0096311776606889
 50
180.8796481618757923
 51
202.682370915378101
  0
ARC
  5
60D4
  8
0
 10
325.2931067048610885
 20
4.0740600142472401
 30
0.0
 40
0.0065926475283548
 50
200.359678815167598
 51
231.7301013862004027
  0
LINE
  5
60D5
  8
0
 10
325.2861821481491233
 20
4.0789592013150111
 30
0.0
 11
325.2861821481491233
 21
4.0753324871150109
 31
0.0
  0
LINE
  5
60D6
  8
0
 10
325.2861821481491233
 20
4.0789592013150111
 30
0.0
 11
325.2961366966518995
 21
4.0856683923169017
 31
0.0
  0
LINE
  5
60D7
  8
0
 10
325.2926917351491056
 20
4.0699515038150107
 30
0.0
 11
325.3075747251908183
 21
4.0799861276150109
 31
0.0
  0
LINE
  5
60D8
  8
0
 10
325.2549279505490745
 20
4.0688841143150114
 30
0.0
 11
325.2560321969490928
 21
4.0684956296150112
 31
0.0
  0
LINE
  5
60D9
  8
0
 10
325.2560321969490928
 20
4.0684956296150112
 30
0.0
 11
325.2879194744490974
 21
4.0684955019150113
 31
0.0
  0
LINE
  5
60DA
  8
0
 10
325.2879194744490974
 20
4.0684955019150113
 30
0.0
 11
325.2890234388488011
 21
4.0688841143152166
 31
0.0
  0
ARC
  5
60DB
  8
0
 10
325.2481974049824203
 20
4.0754685822180061
 30
0.0
 40
0.0095728037373393
 50
340.5389881286855029
 51
359.1854071254455221
  0
ARC
  5
60DC
  8
0
 10
325.2506360791076077
 20
4.0742591915199267
 30
0.0
 40
0.0068783439452858
 50
308.6065339385484094
 51
343.270679160816087
  0
LINE
  5
60DD
  8
0
 10
325.2478146927491025
 20
4.0856683923150108
 30
0.0
 11
325.2577692412490933
 21
4.0789592013150111
 31
0.0
  0
LINE
  5
60DE
  8
0
 10
325.2577692412490933
 20
4.0789592013150111
 30
0.0
 11
325.2577692412490933
 21
4.075332487115026
 31
0.0
  0
LINE
  5
60DF
  8
0
 10
325.2577692412490933
 20
4.0789592013150111
 30
0.0
 11
325.2861821481491233
 21
4.0789592013150111
 31
0.0
  0
ARC
  5
60E0
  8
0
 10
325.2548819982126247
 20
4.0755440275107579
 30
0.0
 40
0.0066600717258032
 50
237.0616293835653039
 51
270.3953254462510927
  0
LINE
  5
60E1
  8
0
 10
325.2512606733491225
 20
4.0699545229150198
 30
0.0
 11
325.2363765992640765
 21
4.0799861276150109
 31
0.0
  0
ARC
  5
60E2
  8
0
 10
325.2890713443019877
 20
4.0985363481427841
 30
0.0
 40
0.0066726449957093
 50
269.5886483020195783
 51
302.8589034399964817
  0
ARC
  5
60E3
  8
0
 10
325.2958121907633995
 20
4.0984601072334721
 30
0.0
 40
0.0096311776606889
 50
180.8796481618757923
 51
202.682370915378101
  0
ARC
  5
60E4
  8
0
 10
325.2931067048610885
 20
4.0970397750472412
 30
0.0
 40
0.0065926475283548
 50
200.359678815167598
 51
231.7301013862004027
  0
LINE
  5
60E5
  8
0
 10
325.2861821481491233
 20
4.1019389621150122
 30
0.0
 11
325.2861821481491233
 21
4.098312247915012
 31
0.0
  0
LINE
  5
60E6
  8
0
 10
325.2861821481491233
 20
4.1019389621150122
 30
0.0
 11
325.2961366966518995
 21
4.1086481531169019
 31
0.0
  0
LINE
  5
60E7
  8
0
 10
325.2926917351491056
 20
4.0929312646150118
 30
0.0
 11
325.3075747251908183
 21
4.1029658884150111
 31
0.0
  0
LINE
  5
60E8
  8
0
 10
325.2549279505490745
 20
4.0918638751150107
 30
0.0
 11
325.2560321969490928
 21
4.0914753904150123
 31
0.0
  0
LINE
  5
60E9
  8
0
 10
325.2560321969490928
 20
4.0914753904150123
 30
0.0
 11
325.2879194744490974
 21
4.0914752627150106
 31
0.0
  0
LINE
  5
60EA
  8
0
 10
325.2879194744490974
 20
4.0914752627150106
 30
0.0
 11
325.2890234388488011
 21
4.0918638751152168
 31
0.0
  0
ARC
  5
60EB
  8
0
 10
325.2481974049824203
 20
4.0984483430180063
 30
0.0
 40
0.0095728037373393
 50
340.5389881286855029
 51
359.1854071254455221
  0
ARC
  5
60EC
  8
0
 10
325.2506360791076077
 20
4.0972389523199277
 30
0.0
 40
0.0068783439452858
 50
308.6065339385484094
 51
343.270679160816087
  0
LINE
  5
60ED
  8
0
 10
325.2478146927491025
 20
4.1086481531150119
 30
0.0
 11
325.2577692412490933
 21
4.1019389621150122
 31
0.0
  0
LINE
  5
60EE
  8
0
 10
325.2577692412490933
 20
4.1019389621150122
 30
0.0
 11
325.2577692412490933
 21
4.0983122479150271
 31
0.0
  0
LINE
  5
60EF
  8
0
 10
325.2577692412490933
 20
4.1019389621150122
 30
0.0
 11
325.2861821481491233
 21
4.1019389621150122
 31
0.0
  0
ARC
  5
60F0
  8
0
 10
325.2548819982126247
 20
4.098523788310759
 30
0.0
 40
0.0066600717258032
 50
237.0616293835653039
 51
270.3953254462510927
  0
LINE
  5
60F1
  8
0
 10
325.2512606733491225
 20
4.0929342837150209
 30
0.0
 11
325.2363765992640765
 21
4.1029658884150111
 31
0.0
  0
ARC
  5
60F2
  8
0
 10
325.2890713443019877
 20
4.1448837369427842
 30
0.0
 40
0.0066726449957093
 50
269.5886483020195783
 51
302.8589034399964817
  0
ARC
  5
60F3
  8
0
 10
325.2958121907633995
 20
4.1448074960334731
 30
0.0
 40
0.0096311776606889
 50
180.8796481618757923
 51
202.682370915378101
  0
ARC
  5
60F4
  8
0
 10
325.2931067048610885
 20
4.1433871638472421
 30
0.0
 40
0.0065926475283548
 50
200.359678815167598
 51
231.7301013862004027
  0
LINE
  5
60F5
  8
0
 10
325.2861821481491233
 20
4.1482863509150114
 30
0.0
 11
325.2861821481491233
 21
4.1446596367150121
 31
0.0
  0
LINE
  5
60F6
  8
0
 10
325.2861821481491233
 20
4.1482863509150114
 30
0.0
 11
325.2961366966518995
 21
4.1549955419169029
 31
0.0
  0
LINE
  5
60F7
  8
0
 10
325.2926917351491056
 20
4.139278653415011
 30
0.0
 11
325.3075747251908183
 21
4.1493132772150121
 31
0.0
  0
LINE
  5
60F8
  8
0
 10
325.2549279505490745
 20
4.1382112639150117
 30
0.0
 11
325.2560321969490928
 21
4.1378227792150124
 31
0.0
  0
LINE
  5
60F9
  8
0
 10
325.2560321969490928
 20
4.1378227792150124
 30
0.0
 11
325.2879194744490974
 21
4.1378226515150116
 31
0.0
  0
LINE
  5
60FA
  8
0
 10
325.2879194744490974
 20
4.1378226515150116
 30
0.0
 11
325.2890234388488011
 21
4.1382112639152178
 31
0.0
  0
ARC
  5
60FB
  8
0
 10
325.2481974049824203
 20
4.1447957318180064
 30
0.0
 40
0.0095728037373393
 50
340.5389881286855029
 51
359.1854071254455221
  0
ARC
  5
60FC
  8
0
 10
325.2506360791076077
 20
4.143586341119927
 30
0.0
 40
0.0068783439452858
 50
308.6065339385484094
 51
343.270679160816087
  0
LINE
  5
60FD
  8
0
 10
325.2478146927491025
 20
4.1549955419150111
 30
0.0
 11
325.2577692412490933
 21
4.1482863509150114
 31
0.0
  0
LINE
  5
60FE
  8
0
 10
325.2577692412490933
 20
4.1482863509150114
 30
0.0
 11
325.2577692412490933
 21
4.1446596367150281
 31
0.0
  0
LINE
  5
60FF
  8
0
 10
325.2577692412490933
 20
4.1482863509150114
 30
0.0
 11
325.2861821481491233
 21
4.1482863509150114
 31
0.0
  0
ARC
  5
6100
  8
0
 10
325.2548819982126247
 20
4.14487117711076
 30
0.0
 40
0.0066600717258032
 50
237.0616293835653039
 51
270.3953254462510927
  0
LINE
  5
6101
  8
0
 10
325.2512606733491225
 20
4.139281672515021
 30
0.0
 11
325.2363765992640765
 21
4.1493132772150121
 31
0.0
  0
ARC
  5
6102
  8
0
 10
325.2890713443019877
 20
4.1674756306427829
 30
0.0
 40
0.0066726449957093
 50
269.5886483020195783
 51
302.8589034399964817
  0
ARC
  5
6103
  8
0
 10
325.2958121907633995
 20
4.1673993897334727
 30
0.0
 40
0.0096311776606889
 50
180.8796481618757923
 51
202.682370915378101
  0
ARC
  5
6104
  8
0
 10
325.2931067048610885
 20
4.1659790575472408
 30
0.0
 40
0.0065926475283548
 50
200.359678815167598
 51
231.7301013862004027
  0
LINE
  5
6105
  8
0
 10
325.2861821481491233
 20
4.170878244615011
 30
0.0
 11
325.2861821481491233
 21
4.1672515304150117
 31
0.0
  0
LINE
  5
6106
  8
0
 10
325.2861821481491233
 20
4.170878244615011
 30
0.0
 11
325.2961366966518995
 21
4.1775874356169034
 31
0.0
  0
LINE
  5
6107
  8
0
 10
325.2926917351491056
 20
4.1618705471150124
 30
0.0
 11
325.3075747251908183
 21
4.1719051709150117
 31
0.0
  0
LINE
  5
6108
  8
0
 10
325.2549279505490745
 20
4.1608031576150122
 30
0.0
 11
325.2560321969490928
 21
4.1604146729150111
 31
0.0
  0
LINE
  5
6109
  8
0
 10
325.2560321969490928
 20
4.1604146729150111
 30
0.0
 11
325.2879194744490974
 21
4.1604145452150121
 31
0.0
  0
LINE
  5
610A
  8
0
 10
325.2879194744490974
 20
4.1604145452150121
 30
0.0
 11
325.2890234388488011
 21
4.1608031576152182
 31
0.0
  0
ARC
  5
610B
  8
0
 10
325.2481974049824203
 20
4.167387625518006
 30
0.0
 40
0.0095728037373393
 50
340.5389881286855029
 51
359.1854071254455221
  0
ARC
  5
610C
  8
0
 10
325.2506360791076077
 20
4.1661782348199283
 30
0.0
 40
0.0068783439452858
 50
308.6065339385484094
 51
343.270679160816087
  0
LINE
  5
610D
  8
0
 10
325.2478146927491025
 20
4.1775874356150116
 30
0.0
 11
325.2577692412490933
 21
4.170878244615011
 31
0.0
  0
LINE
  5
610E
  8
0
 10
325.2577692412490933
 20
4.170878244615011
 30
0.0
 11
325.2577692412490933
 21
4.1672515304150268
 31
0.0
  0
LINE
  5
610F
  8
0
 10
325.2577692412490933
 20
4.170878244615011
 30
0.0
 11
325.2861821481491233
 21
4.170878244615011
 31
0.0
  0
ARC
  5
6110
  8
0
 10
325.2548819982126247
 20
4.1674630708107587
 30
0.0
 40
0.0066600717258032
 50
237.0616293835653039
 51
270.3953254462510927
  0
LINE
  5
6111
  8
0
 10
325.2512606733491225
 20
4.1618735662150206
 30
0.0
 11
325.2363765992640765
 21
4.1719051709150117
 31
0.0
  0
ARC
  5
6112
  8
0
 10
325.2890713443019877
 20
4.190455391542784
 30
0.0
 40
0.0066726449957093
 50
269.5886483020195783
 51
302.8589034399964817
  0
ARC
  5
6113
  8
0
 10
325.2958121907633995
 20
4.1903791506334729
 30
0.0
 40
0.0096311776606889
 50
180.8796481618757923
 51
202.682370915378101
  0
ARC
  5
6114
  8
0
 10
325.2931067048610885
 20
4.1889588184472411
 30
0.0
 40
0.0065926475283548
 50
200.359678815167598
 51
231.7301013862004027
  0
LINE
  5
6115
  8
0
 10
325.2861821481491233
 20
4.1938580055150112
 30
0.0
 11
325.2861821481491233
 21
4.190231291315011
 31
0.0
  0
LINE
  5
6116
  8
0
 10
325.2861821481491233
 20
4.1938580055150112
 30
0.0
 11
325.2961366966518995
 21
4.2005671965169027
 31
0.0
  0
LINE
  5
6117
  8
0
 10
325.2926917351491056
 20
4.1848503080150108
 30
0.0
 11
325.3075747251908183
 21
4.194884931815011
 31
0.0
  0
LINE
  5
6118
  8
0
 10
325.2549279505490745
 20
4.1837829185150124
 30
0.0
 11
325.2560321969490928
 21
4.1833944338150122
 31
0.0
  0
LINE
  5
6119
  8
0
 10
325.2560321969490928
 20
4.1833944338150122
 30
0.0
 11
325.2879194744490974
 21
4.1833943061150123
 31
0.0
  0
LINE
  5
611A
  8
0
 10
325.2879194744490974
 20
4.1833943061150123
 30
0.0
 11
325.2890234388488011
 21
4.1837829185152184
 31
0.0
  0
ARC
  5
611B
  8
0
 10
325.2481974049824203
 20
4.1903673864180062
 30
0.0
 40
0.0095728037373393
 50
340.5389881286855029
 51
359.1854071254455221
  0
ARC
  5
611C
  8
0
 10
325.2506360791076077
 20
4.1891579957199268
 30
0.0
 40
0.0068783439452858
 50
308.6065339385484094
 51
343.270679160816087
  0
LINE
  5
611D
  8
0
 10
325.2478146927491025
 20
4.2005671965150109
 30
0.0
 11
325.2577692412490933
 21
4.1938580055150112
 31
0.0
  0
LINE
  5
611E
  8
0
 10
325.2577692412490933
 20
4.1938580055150112
 30
0.0
 11
325.2577692412490933
 21
4.190231291315027
 31
0.0
  0
LINE
  5
611F
  8
0
 10
325.2577692412490933
 20
4.1938580055150112
 30
0.0
 11
325.2861821481491233
 21
4.1938580055150112
 31
0.0
  0
ARC
  5
6120
  8
0
 10
325.2548819982126247
 20
4.1904428317107589
 30
0.0
 40
0.0066600717258032
 50
237.0616293835653039
 51
270.3953254462510927
  0
LINE
  5
6121
  8
0
 10
325.2512606733491225
 20
4.1848533271150208
 30
0.0
 11
325.2363765992640765
 21
4.194884931815011
 31
0.0
  0
ARC
  5
6122
  8
0
 10
325.2890713443019877
 20
4.2134351523427842
 30
0.0
 40
0.0066726449957093
 50
269.5886483020195783
 51
302.8589034399964817
  0
ARC
  5
6123
  8
0
 10
325.2958121907633995
 20
4.2133589114334731
 30
0.0
 40
0.0096311776606889
 50
180.8796481618757923
 51
202.682370915378101
  0
ARC
  5
6124
  8
0
 10
325.2931067048610885
 20
4.2119385792472412
 30
0.0
 40
0.0065926475283548
 50
200.359678815167598
 51
231.7301013862004027
  0
LINE
  5
6125
  8
0
 10
325.2861821481491233
 20
4.2168377663150114
 30
0.0
 11
325.2861821481491233
 21
4.2132110521150121
 31
0.0
  0
LINE
  5
6126
  8
0
 10
325.2861821481491233
 20
4.2168377663150114
 30
0.0
 11
325.2961366966518995
 21
4.223546957316902
 31
0.0
  0
LINE
  5
6127
  8
0
 10
325.2926917351491056
 20
4.207830068815011
 30
0.0
 11
325.3075747251908183
 21
4.2178646926150112
 31
0.0
  0
LINE
  5
6128
  8
0
 10
325.2549279505490745
 20
4.2067626793150108
 30
0.0
 11
325.2560321969490928
 21
4.2063741946150124
 31
0.0
  0
LINE
  5
6129
  8
0
 10
325.2560321969490928
 20
4.2063741946150124
 30
0.0
 11
325.2879194744490974
 21
4.2063740669150107
 31
0.0
  0
LINE
  5
612A
  8
0
 10
325.2879194744490974
 20
4.2063740669150107
 30
0.0
 11
325.2890234388488011
 21
4.2067626793152169
 31
0.0
  0
ARC
  5
612B
  8
0
 10
325.2481974049824203
 20
4.2133471472180046
 30
0.0
 40
0.0095728037373393
 50
340.5389881286855029
 51
359.1854071254455221
  0
ARC
  5
612C
  8
0
 10
325.2506360791076077
 20
4.2121377565199269
 30
0.0
 40
0.0068783439452858
 50
308.6065339385484094
 51
343.270679160816087
  0
LINE
  5
612D
  8
0
 10
325.2478146927491025
 20
4.2235469573150111
 30
0.0
 11
325.2577692412490933
 21
4.2168377663150114
 31
0.0
  0
LINE
  5
612E
  8
0
 10
325.2577692412490933
 20
4.2168377663150114
 30
0.0
 11
325.2577692412490933
 21
4.2132110521150272
 31
0.0
  0
LINE
  5
612F
  8
0
 10
325.2577692412490933
 20
4.2168377663150114
 30
0.0
 11
325.2861821481491233
 21
4.2168377663150114
 31
0.0
  0
ARC
  5
6130
  8
0
 10
325.2548819982126247
 20
4.21342259251076
 30
0.0
 40
0.0066600717258032
 50
237.0616293835653039
 51
270.3953254462510927
  0
LINE
  5
6131
  8
0
 10
325.2512606733491225
 20
4.207833087915021
 30
0.0
 11
325.2363765992640765
 21
4.2178646926150112
 31
0.0
  0
ARC
  5
6132
  8
0
 10
325.3402145768520199
 20
4.2249250327427834
 30
0.0
 40
0.0066726449957093
 50
269.5886483020195783
 51
302.8589034399964817
  0
ARC
  5
6133
  8
0
 10
325.3469554233133749
 20
4.2248487918334732
 30
0.0
 40
0.0096311776606889
 50
180.8796481618757923
 51
202.682370915378101
  0
ARC
  5
6134
  8
0
 10
325.3442499374111208
 20
4.2234284596472413
 30
0.0
 40
0.0065926475283548
 50
200.359678815167598
 51
231.7301013862004027
  0
LINE
  5
6135
  8
0
 10
325.3373253806990988
 20
4.2283276467150106
 30
0.0
 11
325.3373253806990988
 21
4.2247009325150122
 31
0.0
  0
LINE
  5
6136
  8
0
 10
325.3373253806990988
 20
4.2283276467150106
 30
0.0
 11
325.3378108454820108
 21
4.228654841459444
 31
0.0
  0
LINE
  5
6137
  8
0
 10
325.3438349676990811
 20
4.2193199492150111
 30
0.0
 11
325.3552533990924758
 21
4.227018648407709
 31
0.0
  0
LINE
  5
6138
  8
0
 10
325.3060711830991067
 20
4.2182525597150109
 30
0.0
 11
325.3071754294991251
 21
4.2178640750150107
 31
0.0
  0
LINE
  5
6139
  8
0
 10
325.3071754294991251
 20
4.2178640750150107
 30
0.0
 11
325.3390627069990728
 21
4.2178639473150108
 31
0.0
  0
LINE
  5
613A
  8
0
 10
325.3390627069990728
 20
4.2178639473150108
 30
0.0
 11
325.3401666713987765
 21
4.218252559715217
 31
0.0
  0
ARC
  5
613B
  8
0
 10
325.2993406375323957
 20
4.2248370276180056
 30
0.0
 40
0.0095728037373393
 50
340.5389881286855029
 51
359.1854071254455221
  0
ARC
  5
613C
  8
0
 10
325.3017793116575263
 20
4.223627636919927
 30
0.0
 40
0.0068783439452858
 50
308.6065339385484094
 51
343.270679160816087
  0
LINE
  5
613D
  8
0
 10
325.3054102986441194
 20
4.230688051311005
 30
0.0
 11
325.3089124737991256
 21
4.2283276467150106
 31
0.0
  0
LINE
  5
613E
  8
0
 10
325.3089124737991256
 20
4.2283276467150106
 30
0.0
 11
325.3089124737991256
 21
4.2247009325150273
 31
0.0
  0
LINE
  5
613F
  8
0
 10
325.3089124737991256
 20
4.2283276467150106
 30
0.0
 11
325.3373253806990988
 21
4.2283276467150106
 31
0.0
  0
ARC
  5
6140
  8
0
 10
325.3060252307626001
 20
4.2249124729107592
 30
0.0
 40
0.0066600717258032
 50
237.0616293835653039
 51
270.3953254462510927
  0
LINE
  5
6141
  8
0
 10
325.3024039058990979
 20
4.2193229683150211
 30
0.0
 11
325.2875198318139951
 21
4.2293545730150122
 31
0.0
  0
ARC
  5
6142
  8
0
 10
325.3402145768520199
 20
4.2019452719427841
 30
0.0
 40
0.0066726449957093
 50
269.5886483020195783
 51
302.8589034399964817
  0
ARC
  5
6143
  8
0
 10
325.3469554233133749
 20
4.2018690310334721
 30
0.0
 40
0.0096311776606889
 50
180.8796481618757923
 51
202.682370915378101
  0
ARC
  5
6144
  8
0
 10
325.3442499374111208
 20
4.2004486988472411
 30
0.0
 40
0.0065926475283548
 50
200.359678815167598
 51
231.7301013862004027
  0
LINE
  5
6145
  8
0
 10
325.3373253806990988
 20
4.2053478859150122
 30
0.0
 11
325.3373253806990988
 21
4.201721171715012
 31
0.0
  0
LINE
  5
6146
  8
0
 10
325.3373253806990988
 20
4.2053478859150122
 30
0.0
 11
325.3472799292019886
 21
4.2120570769169019
 31
0.0
  0
LINE
  5
6147
  8
0
 10
325.3438349676990811
 20
4.1963401884150118
 30
0.0
 11
325.3587179577407937
 21
4.2063748122150111
 31
0.0
  0
LINE
  5
6148
  8
0
 10
325.3060711830991067
 20
4.1952727989150107
 30
0.0
 11
325.3071754294991251
 21
4.1948843142150123
 31
0.0
  0
LINE
  5
6149
  8
0
 10
325.3071754294991251
 20
4.1948843142150123
 30
0.0
 11
325.3390627069990728
 21
4.1948841865150106
 31
0.0
  0
LINE
  5
614A
  8
0
 10
325.3390627069990728
 20
4.1948841865150106
 30
0.0
 11
325.3401666713987765
 21
4.1952727989152168
 31
0.0
  0
ARC
  5
614B
  8
0
 10
325.2993406375323957
 20
4.2018572668180063
 30
0.0
 40
0.0095728037373393
 50
340.5389881286855029
 51
359.1854071254455221
  0
ARC
  5
614C
  8
0
 10
325.3017793116575263
 20
4.2006478761199277
 30
0.0
 40
0.0068783439452858
 50
308.6065339385484094
 51
343.270679160816087
  0
LINE
  5
614D
  8
0
 10
325.2989579252990779
 20
4.2120570769150119
 30
0.0
 11
325.3089124737991256
 21
4.2053478859150122
 31
0.0
  0
LINE
  5
614E
  8
0
 10
325.3089124737991256
 20
4.2053478859150122
 30
0.0
 11
325.3089124737991256
 21
4.2017211717150271
 31
0.0
  0
LINE
  5
614F
  8
0
 10
325.3089124737991256
 20
4.2053478859150122
 30
0.0
 11
325.3373253806990988
 21
4.2053478859150122
 31
0.0
  0
ARC
  5
6150
  8
0
 10
325.3060252307626001
 20
4.201932712110759
 30
0.0
 40
0.0066600717258032
 50
237.0616293835653039
 51
270.3953254462510927
  0
LINE
  5
6151
  8
0
 10
325.3024039058990979
 20
4.1963432075150209
 30
0.0
 11
325.2875198318139951
 21
4.2063748122150111
 31
0.0
  0
ARC
  5
6152
  8
0
 10
325.3913578093519732
 20
4.2134351523427842
 30
0.0
 40
0.0066726449957093
 50
269.5886483020195783
 51
302.8589034399964817
  0
ARC
  5
6153
  8
0
 10
325.3980986558134987
 20
4.2133589114334731
 30
0.0
 40
0.0096311776606889
 50
180.8796481618757923
 51
202.682370915378101
  0
ARC
  5
6154
  8
0
 10
325.395393169911074
 20
4.2119385792472412
 30
0.0
 40
0.0065926475283548
 50
200.359678815167598
 51
231.7301013862004027
  0
LINE
  5
6155
  8
0
 10
325.3884686131991089
 20
4.2168377663150114
 30
0.0
 11
325.3884686131991089
 21
4.2132110521150121
 31
0.0
  0
LINE
  5
6156
  8
0
 10
325.3884686131991089
 20
4.2168377663150114
 30
0.0
 11
325.3953853677859911
 21
4.221499537526836
 31
0.0
  0
LINE
  5
6157
  8
0
 10
325.3949782001990911
 20
4.207830068815011
 30
0.0
 11
325.4110156317440214
 21
4.2186430567845123
 31
0.0
  0
LINE
  5
6158
  8
0
 10
325.3572144155991168
 20
4.2067626793150108
 30
0.0
 11
325.3583186619990784
 21
4.2063741946150124
 31
0.0
  0
LINE
  5
6159
  8
0
 10
325.3583186619990784
 20
4.2063741946150124
 30
0.0
 11
325.3902059394990829
 21
4.2063740669150107
 31
0.0
  0
LINE
  5
615A
  8
0
 10
325.3902059394990829
 20
4.2063740669150107
 30
0.0
 11
325.3913099038987866
 21
4.2067626793152169
 31
0.0
  0
ARC
  5
615B
  8
0
 10
325.3504838700324058
 20
4.2133471472180046
 30
0.0
 40
0.0095728037373393
 50
340.5389881286855029
 51
359.1854071254455221
  0
ARC
  5
615C
  8
0
 10
325.3529225441574795
 20
4.2121377565199269
 30
0.0
 40
0.0068783439452858
 50
308.6065339385484094
 51
343.270679160816087
  0
LINE
  5
615D
  8
0
 10
325.350101157799088
 20
4.2235469573150111
 30
0.0
 11
325.3600557062990788
 21
4.2168377663150114
 31
0.0
  0
LINE
  5
615E
  8
0
 10
325.3600557062990788
 20
4.2168377663150114
 30
0.0
 11
325.3600557062990788
 21
4.2132110521150272
 31
0.0
  0
LINE
  5
615F
  8
0
 10
325.3600557062990788
 20
4.2168377663150114
 30
0.0
 11
325.3884686131991089
 21
4.2168377663150114
 31
0.0
  0
ARC
  5
6160
  8
0
 10
325.3571684632626102
 20
4.21342259251076
 30
0.0
 40
0.0066600717258032
 50
237.0616293835653039
 51
270.3953254462510927
  0
LINE
  5
6161
  8
0
 10
325.353547138399108
 20
4.207833087915021
 30
0.0
 11
325.3386630643141189
 21
4.2178646926150112
 31
0.0
  0
ARC
  5
6162
  8
0
 10
325.3913578093519732
 20
4.190455391542784
 30
0.0
 40
0.0066726449957093
 50
269.5886483020195783
 51
302.8589034399964817
  0
ARC
  5
6163
  8
0
 10
325.3980986558134987
 20
4.1903791506334729
 30
0.0
 40
0.0096311776606889
 50
180.8796481618757923
 51
202.682370915378101
  0
ARC
  5
6164
  8
0
 10
325.395393169911074
 20
4.1889588184472411
 30
0.0
 40
0.0065926475283548
 50
200.359678815167598
 51
231.7301013862004027
  0
LINE
  5
6165
  8
0
 10
325.3884686131991089
 20
4.1938580055150112
 30
0.0
 11
325.3884686131991089
 21
4.190231291315011
 31
0.0
  0
LINE
  5
6166
  8
0
 10
325.3884686131991089
 20
4.1938580055150112
 30
0.0
 11
325.398423161701885
 21
4.2005671965169027
 31
0.0
  0
LINE
  5
6167
  8
0
 10
325.3949782001990911
 20
4.1848503080150108
 30
0.0
 11
325.4098611902406901
 21
4.194884931815011
 31
0.0
  0
LINE
  5
6168
  8
0
 10
325.3572144155991168
 20
4.1837829185150124
 30
0.0
 11
325.3583186619990784
 21
4.1833944338150122
 31
0.0
  0
LINE
  5
6169
  8
0
 10
325.3583186619990784
 20
4.1833944338150122
 30
0.0
 11
325.3902059394990829
 21
4.1833943061150123
 31
0.0
  0
LINE
  5
616A
  8
0
 10
325.3902059394990829
 20
4.1833943061150123
 30
0.0
 11
325.3913099038987866
 21
4.1837829185152184
 31
0.0
  0
ARC
  5
616B
  8
0
 10
325.3504838700324058
 20
4.1903673864180062
 30
0.0
 40
0.0095728037373393
 50
340.5389881286855029
 51
359.1854071254455221
  0
ARC
  5
616C
  8
0
 10
325.3529225441574795
 20
4.1891579957199268
 30
0.0
 40
0.0068783439452858
 50
308.6065339385484094
 51
343.270679160816087
  0
LINE
  5
616D
  8
0
 10
325.350101157799088
 20
4.2005671965150109
 30
0.0
 11
325.3600557062990788
 21
4.1938580055150112
 31
0.0
  0
LINE
  5
616E
  8
0
 10
325.3600557062990788
 20
4.1938580055150112
 30
0.0
 11
325.3600557062990788
 21
4.190231291315027
 31
0.0
  0
LINE
  5
616F
  8
0
 10
325.3600557062990788
 20
4.1938580055150112
 30
0.0
 11
325.3884686131991089
 21
4.1938580055150112
 31
0.0
  0
ARC
  5
6170
  8
0
 10
325.3571684632626102
 20
4.1904428317107589
 30
0.0
 40
0.0066600717258032
 50
237.0616293835653039
 51
270.3953254462510927
  0
LINE
  5
6171
  8
0
 10
325.353547138399108
 20
4.1848533271150208
 30
0.0
 11
325.3386630643141189
 21
4.194884931815011
 31
0.0
  0
ARC
  5
6172
  8
0
 10
325.4425010418520969
 20
4.2019452719427841
 30
0.0
 40
0.0066726449957093
 50
269.5886483020195783
 51
302.8589034399964817
  0
ARC
  5
6173
  8
0
 10
325.4492418883133951
 20
4.2018690310334721
 30
0.0
 40
0.0096311776606889
 50
180.8796481618757923
 51
202.682370915378101
  0
ARC
  5
6174
  8
0
 10
325.4465364024110841
 20
4.2004486988472411
 30
0.0
 40
0.0065926475283548
 50
200.359678815167598
 51
231.7301013862004027
  0
LINE
  5
6175
  8
0
 10
325.4396118456991189
 20
4.2053478859150122
 30
0.0
 11
325.4396118456991189
 21
4.201721171715012
 31
0.0
  0
LINE
  5
6176
  8
0
 10
325.4461214326991012
 20
4.1963401884150118
 30
0.0
 11
325.461243738440487
 21
4.206536167091274
 31
0.0
  0
LINE
  5
6177
  8
0
 10
325.4083576480991269
 20
4.1952727989150107
 30
0.0
 11
325.4094618944990884
 21
4.1948843142150123
 31
0.0
  0
LINE
  5
6178
  8
0
 10
325.4094618944990884
 20
4.1948843142150123
 30
0.0
 11
325.441349171999093
 21
4.1948841865150106
 31
0.0
  0
LINE
  5
6179
  8
0
 10
325.441349171999093
 20
4.1948841865150106
 30
0.0
 11
325.4424531363989104
 21
4.1952727989152168
 31
0.0
  0
ARC
  5
617A
  8
0
 10
325.4016271025324158
 20
4.2018572668180063
 30
0.0
 40
0.0095728037373393
 50
340.5389881286855029
 51
359.1854071254455221
  0
ARC
  5
617B
  8
0
 10
325.4040657766576032
 20
4.2006478761199277
 30
0.0
 40
0.0068783439452858
 50
308.6065339385484094
 51
343.270679160816087
  0
LINE
  5
617C
  8
0
 10
325.4012443902990981
 20
4.2120570769150119
 30
0.0
 11
325.4111989387990889
 21
4.2053478859150122
 31
0.0
  0
LINE
  5
617D
  8
0
 10
325.4111989387990889
 20
4.2053478859150122
 30
0.0
 11
325.4111989387990889
 21
4.2017211717150271
 31
0.0
  0
LINE
  5
617E
  8
0
 10
325.4111989387990889
 20
4.2053478859150122
 30
0.0
 11
325.4396118456991189
 21
4.2053478859150122
 31
0.0
  0
ARC
  5
617F
  8
0
 10
325.4083116957626203
 20
4.201932712110759
 30
0.0
 40
0.0066600717258032
 50
237.0616293835653039
 51
270.3953254462510927
  0
LINE
  5
6180
  8
0
 10
325.4046903708990044
 20
4.1963432075150209
 30
0.0
 11
325.3898062968140721
 21
4.2063748122150111
 31
0.0
  0
ARC
  5
6181
  8
0
 10
325.3402145768520199
 20
4.178965511042783
 30
0.0
 40
0.0066726449957093
 50
269.5886483020195783
 51
302.8589034399964817
  0
ARC
  5
6182
  8
0
 10
325.3469554233133749
 20
4.1788892701334719
 30
0.0
 40
0.0096311776606889
 50
180.8796481618757923
 51
202.682370915378101
  0
ARC
  5
6183
  8
0
 10
325.3442499374111208
 20
4.1774689379472401
 30
0.0
 40
0.0065926475283548
 50
200.359678815167598
 51
231.7301013862004027
  0
LINE
  5
6184
  8
0
 10
325.3373253806990988
 20
4.1823681250150111
 30
0.0
 11
325.3373253806990988
 21
4.1787414108150118
 31
0.0
  0
LINE
  5
6185
  8
0
 10
325.3373253806990988
 20
4.1823681250150111
 30
0.0
 11
325.3472799292019886
 21
4.1890773160169017
 31
0.0
  0
LINE
  5
6186
  8
0
 10
325.3438349676990811
 20
4.1733604275150116
 30
0.0
 11
325.3587179577407937
 21
4.1833950513150109
 31
0.0
  0
LINE
  5
6187
  8
0
 10
325.3060711830991067
 20
4.1722930380150114
 30
0.0
 11
325.3071754294991251
 21
4.1719045533150121
 31
0.0
  0
LINE
  5
6188
  8
0
 10
325.3071754294991251
 20
4.1719045533150121
 30
0.0
 11
325.3390627069990728
 21
4.1719044256150113
 31
0.0
  0
LINE
  5
6189
  8
0
 10
325.3390627069990728
 20
4.1719044256150113
 30
0.0
 11
325.3401666713987765
 21
4.1722930380152166
 31
0.0
  0
ARC
  5
618A
  8
0
 10
325.2993406375323957
 20
4.1788775059180061
 30
0.0
 40
0.0095728037373393
 50
340.5389881286855029
 51
359.1854071254455221
  0
ARC
  5
618B
  8
0
 10
325.3017793116575263
 20
4.1776681152199284
 30
0.0
 40
0.0068783439452858
 50
308.6065339385484094
 51
343.270679160816087
  0
LINE
  5
618C
  8
0
 10
325.2989579252990779
 20
4.1890773160150117
 30
0.0
 11
325.3089124737991256
 21
4.1823681250150111
 31
0.0
  0
LINE
  5
618D
  8
0
 10
325.3089124737991256
 20
4.1823681250150111
 30
0.0
 11
325.3089124737991256
 21
4.178741410815026
 31
0.0
  0
LINE
  5
618E
  8
0
 10
325.3089124737991256
 20
4.1823681250150111
 30
0.0
 11
325.3373253806990988
 21
4.1823681250150111
 31
0.0
  0
ARC
  5
618F
  8
0
 10
325.3060252307626001
 20
4.1789529512107588
 30
0.0
 40
0.0066600717258032
 50
237.0616293835653039
 51
270.3953254462510927
  0
LINE
  5
6190
  8
0
 10
325.3024039058990979
 20
4.1733634466150207
 30
0.0
 11
325.2875198318139951
 21
4.1833950513150109
 31
0.0
  0
ARC
  5
6191
  8
0
 10
325.3402145768520199
 20
4.1559857502427828
 30
0.0
 40
0.0066726449957093
 50
269.5886483020195783
 51
302.8589034399964817
  0
ARC
  5
6192
  8
0
 10
325.3469554233133749
 20
4.1559095093334717
 30
0.0
 40
0.0096311776606889
 50
180.8796481618757923
 51
202.682370915378101
  0
ARC
  5
6193
  8
0
 10
325.3442499374111208
 20
4.1544891771472399
 30
0.0
 40
0.0065926475283548
 50
200.359678815167598
 51
231.7301013862004027
  0
LINE
  5
6194
  8
0
 10
325.3373253806990988
 20
4.1593883642150109
 30
0.0
 11
325.3373253806990988
 21
4.1557616500150116
 31
0.0
  0
LINE
  5
6195
  8
0
 10
325.3373253806990988
 20
4.1593883642150109
 30
0.0
 11
325.3472799292019886
 21
4.1660975552169024
 31
0.0
  0
LINE
  5
6196
  8
0
 10
325.3438349676990811
 20
4.1503806667150123
 30
0.0
 11
325.3587179577407937
 21
4.1604152905150107
 31
0.0
  0
LINE
  5
6197
  8
0
 10
325.3060711830991067
 20
4.1493132772150112
 30
0.0
 11
325.3071754294991251
 21
4.148924792515011
 31
0.0
  0
LINE
  5
6198
  8
0
 10
325.3071754294991251
 20
4.148924792515011
 30
0.0
 11
325.3390627069990728
 21
4.1489246648150111
 31
0.0
  0
LINE
  5
6199
  8
0
 10
325.3390627069990728
 20
4.1489246648150111
 30
0.0
 11
325.3401666713987765
 21
4.1493132772152173
 31
0.0
  0
ARC
  5
619A
  8
0
 10
325.2993406375323957
 20
4.155897745118005
 30
0.0
 40
0.0095728037373393
 50
340.5389881286855029
 51
359.1854071254455221
  0
ARC
  5
619B
  8
0
 10
325.3017793116575263
 20
4.1546883544199282
 30
0.0
 40
0.0068783439452858
 50
308.6065339385484094
 51
343.270679160816087
  0
LINE
  5
619C
  8
0
 10
325.2989579252990779
 20
4.1660975552150123
 30
0.0
 11
325.3089124737991256
 21
4.1593883642150109
 31
0.0
  0
LINE
  5
619D
  8
0
 10
325.3089124737991256
 20
4.1593883642150109
 30
0.0
 11
325.3089124737991256
 21
4.1557616500150258
 31
0.0
  0
LINE
  5
619E
  8
0
 10
325.3089124737991256
 20
4.1593883642150109
 30
0.0
 11
325.3373253806990988
 21
4.1593883642150109
 31
0.0
  0
ARC
  5
619F
  8
0
 10
325.3060252307626001
 20
4.1559731904107586
 30
0.0
 40
0.0066600717258032
 50
237.0616293835653039
 51
270.3953254462510927
  0
LINE
  5
61A0
  8
0
 10
325.3024039058990979
 20
4.1503836858150214
 30
0.0
 11
325.2875198318139951
 21
4.1604152905150107
 31
0.0
  0
ARC
  5
61A1
  8
0
 10
325.3913578093519732
 20
4.1674756306427829
 30
0.0
 40
0.0066726449957093
 50
269.5886483020195783
 51
302.8589034399964817
  0
ARC
  5
61A2
  8
0
 10
325.3980986558134987
 20
4.1673993897334727
 30
0.0
 40
0.0096311776606889
 50
180.8796481618757923
 51
202.682370915378101
  0
ARC
  5
61A3
  8
0
 10
325.395393169911074
 20
4.1659790575472408
 30
0.0
 40
0.0065926475283548
 50
200.359678815167598
 51
231.7301013862004027
  0
LINE
  5
61A4
  8
0
 10
325.3884686131991089
 20
4.170878244615011
 30
0.0
 11
325.3884686131991089
 21
4.1672515304150117
 31
0.0
  0
LINE
  5
61A5
  8
0
 10
325.3884686131991089
 20
4.170878244615011
 30
0.0
 11
325.398423161701885
 21
4.1775874356169034
 31
0.0
  0
LINE
  5
61A6
  8
0
 10
325.3949782001990911
 20
4.1618705471150124
 30
0.0
 11
325.4098611902406901
 21
4.1719051709150117
 31
0.0
  0
LINE
  5
61A7
  8
0
 10
325.3572144155991168
 20
4.1608031576150122
 30
0.0
 11
325.3583186619990784
 21
4.1604146729150111
 31
0.0
  0
LINE
  5
61A8
  8
0
 10
325.3583186619990784
 20
4.1604146729150111
 30
0.0
 11
325.3902059394990829
 21
4.1604145452150121
 31
0.0
  0
LINE
  5
61A9
  8
0
 10
325.3902059394990829
 20
4.1604145452150121
 30
0.0
 11
325.3913099038987866
 21
4.1608031576152182
 31
0.0
  0
ARC
  5
61AA
  8
0
 10
325.3504838700324058
 20
4.167387625518006
 30
0.0
 40
0.0095728037373393
 50
340.5389881286855029
 51
359.1854071254455221
  0
ARC
  5
61AB
  8
0
 10
325.3529225441574795
 20
4.1661782348199283
 30
0.0
 40
0.0068783439452858
 50
308.6065339385484094
 51
343.270679160816087
  0
LINE
  5
61AC
  8
0
 10
325.350101157799088
 20
4.1775874356150116
 30
0.0
 11
325.3600557062990788
 21
4.170878244615011
 31
0.0
  0
LINE
  5
61AD
  8
0
 10
325.3600557062990788
 20
4.170878244615011
 30
0.0
 11
325.3600557062990788
 21
4.1672515304150268
 31
0.0
  0
LINE
  5
61AE
  8
0
 10
325.3600557062990788
 20
4.170878244615011
 30
0.0
 11
325.3884686131991089
 21
4.170878244615011
 31
0.0
  0
ARC
  5
61AF
  8
0
 10
325.3571684632626102
 20
4.1674630708107587
 30
0.0
 40
0.0066600717258032
 50
237.0616293835653039
 51
270.3953254462510927
  0
LINE
  5
61B0
  8
0
 10
325.353547138399108
 20
4.1618735662150206
 30
0.0
 11
325.3386630643141189
 21
4.1719051709150117
 31
0.0
  0
ARC
  5
61B1
  8
0
 10
325.4425010418520969
 20
4.178965511042783
 30
0.0
 40
0.0066726449957093
 50
269.5886483020195783
 51
302.8589034399964817
  0
ARC
  5
61B2
  8
0
 10
325.4492418883133951
 20
4.1788892701334719
 30
0.0
 40
0.0096311776606889
 50
180.8796481618757923
 51
202.682370915378101
  0
ARC
  5
61B3
  8
0
 10
325.4465364024110841
 20
4.1774689379472401
 30
0.0
 40
0.0065926475283548
 50
200.359678815167598
 51
231.7301013862004027
  0
LINE
  5
61B4
  8
0
 10
325.4396118456991189
 20
4.1823681250150111
 30
0.0
 11
325.4396118456991189
 21
4.1787414108150118
 31
0.0
  0
LINE
  5
61B5
  8
0
 10
325.4396118456991189
 20
4.1823681250150111
 30
0.0
 11
325.449566394201895
 21
4.1890773160169017
 31
0.0
  0
LINE
  5
61B6
  8
0
 10
325.4461214326991012
 20
4.1733604275150116
 30
0.0
 11
325.4610044227407002
 21
4.1833950513150109
 31
0.0
  0
LINE
  5
61B7
  8
0
 10
325.4083576480991269
 20
4.1722930380150114
 30
0.0
 11
325.4094618944990884
 21
4.1719045533150121
 31
0.0
  0
LINE
  5
61B8
  8
0
 10
325.4094618944990884
 20
4.1719045533150121
 30
0.0
 11
325.441349171999093
 21
4.1719044256150113
 31
0.0
  0
LINE
  5
61B9
  8
0
 10
325.441349171999093
 20
4.1719044256150113
 30
0.0
 11
325.4424531363989104
 21
4.1722930380152166
 31
0.0
  0
ARC
  5
61BA
  8
0
 10
325.4016271025324158
 20
4.1788775059180061
 30
0.0
 40
0.0095728037373393
 50
340.5389881286855029
 51
359.1854071254455221
  0
ARC
  5
61BB
  8
0
 10
325.4040657766576032
 20
4.1776681152199284
 30
0.0
 40
0.0068783439452858
 50
308.6065339385484094
 51
343.270679160816087
  0
LINE
  5
61BC
  8
0
 10
325.4012443902990981
 20
4.1890773160150117
 30
0.0
 11
325.4111989387990889
 21
4.1823681250150111
 31
0.0
  0
LINE
  5
61BD
  8
0
 10
325.4111989387990889
 20
4.1823681250150111
 30
0.0
 11
325.4111989387990889
 21
4.178741410815026
 31
0.0
  0
LINE
  5
61BE
  8
0
 10
325.4111989387990889
 20
4.1823681250150111
 30
0.0
 11
325.4396118456991189
 21
4.1823681250150111
 31
0.0
  0
ARC
  5
61BF
  8
0
 10
325.4083116957626203
 20
4.1789529512107588
 30
0.0
 40
0.0066600717258032
 50
237.0616293835653039
 51
270.3953254462510927
  0
LINE
  5
61C0
  8
0
 10
325.4046903708990044
 20
4.1733634466150207
 30
0.0
 11
325.3898062968140721
 21
4.1833950513150109
 31
0.0
  0
ARC
  5
61C1
  8
0
 10
325.493644274352107
 20
4.190455391542784
 30
0.0
 40
0.0066726449957093
 50
269.5886483020195783
 51
302.8589034399964817
  0
ARC
  5
61C2
  8
0
 10
325.5003851208134051
 20
4.1903791506334729
 30
0.0
 40
0.0096311776606889
 50
180.8796481618757923
 51
202.682370915378101
  0
ARC
  5
61C3
  8
0
 10
325.4976796349110941
 20
4.1889588184472411
 30
0.0
 40
0.0065926475283548
 50
200.359678815167598
 51
231.7301013862004027
  0
LINE
  5
61C4
  8
0
 10
325.4907550781990722
 20
4.1938580055150112
 30
0.0
 11
325.4907550781990722
 21
4.190231291315011
 31
0.0
  0
LINE
  5
61C5
  8
0
 10
325.4972646651991113
 20
4.1848503080150108
 30
0.0
 11
325.5056058189064743
 21
4.1904742007460589
 31
0.0
  0
LINE
  5
61C6
  8
0
 10
325.4595008805990801
 20
4.1837829185150124
 30
0.0
 11
325.4606051269990985
 21
4.1833944338150122
 31
0.0
  0
LINE
  5
61C7
  8
0
 10
325.4606051269990985
 20
4.1833944338150122
 30
0.0
 11
325.492492404499103
 21
4.1833943061150123
 31
0.0
  0
LINE
  5
61C8
  8
0
 10
325.492492404499103
 20
4.1833943061150123
 30
0.0
 11
325.4935963688989204
 21
4.1837829185152184
 31
0.0
  0
ARC
  5
61C9
  8
0
 10
325.4527703350324259
 20
4.1903673864180062
 30
0.0
 40
0.0095728037373393
 50
340.5389881286855029
 51
359.1854071254455221
  0
ARC
  5
61CA
  8
0
 10
325.4552090091574996
 20
4.1891579957199268
 30
0.0
 40
0.0068783439452858
 50
308.6065339385484094
 51
343.270679160816087
  0
LINE
  5
61CB
  8
0
 10
325.4523876227991082
 20
4.2005671965150109
 30
0.0
 11
325.4623421712990989
 21
4.1938580055150112
 31
0.0
  0
LINE
  5
61CC
  8
0
 10
325.4623421712990989
 20
4.1938580055150112
 30
0.0
 11
325.4623421712990989
 21
4.190231291315027
 31
0.0
  0
LINE
  5
61CD
  8
0
 10
325.4623421712990989
 20
4.1938580055150112
 30
0.0
 11
325.4976522652150948
 21
4.1938580055150112
 31
0.0
  0
ARC
  5
61CE
  8
0
 10
325.4594549282625735
 20
4.1904428317107589
 30
0.0
 40
0.0066600717258032
 50
237.0616293835653039
 51
270.3953254462510927
  0
LINE
  5
61CF
  8
0
 10
325.4558336033991282
 20
4.1848533271150208
 30
0.0
 11
325.4409495293140822
 21
4.194884931815011
 31
0.0
  0
ARC
  5
61D0
  8
0
 10
325.493644274352107
 20
4.1674756306427829
 30
0.0
 40
0.0066726449957093
 50
269.5886483020195783
 51
302.8589034399964817
  0
ARC
  5
61D1
  8
0
 10
325.5003851208134051
 20
4.1673993897334727
 30
0.0
 40
0.0096311776606889
 50
180.8796481618757923
 51
202.682370915378101
  0
ARC
  5
61D2
  8
0
 10
325.4976796349110941
 20
4.1659790575472408
 30
0.0
 40
0.0065926475283548
 50
200.359678815167598
 51
231.7301013862004027
  0
LINE
  5
61D3
  8
0
 10
325.4907550781990722
 20
4.170878244615011
 30
0.0
 11
325.4907550781990722
 21
4.1672515304150117
 31
0.0
  0
LINE
  5
61D4
  8
0
 10
325.4907550781990722
 20
4.170878244615011
 30
0.0
 11
325.5007096267019051
 21
4.1775874356169034
 31
0.0
  0
LINE
  5
61D5
  8
0
 10
325.4972646651991113
 20
4.1618705471150124
 30
0.0
 11
325.512147655240824
 21
4.1719051709150117
 31
0.0
  0
LINE
  5
61D6
  8
0
 10
325.4595008805990801
 20
4.1608031576150122
 30
0.0
 11
325.4606051269990985
 21
4.1604146729150111
 31
0.0
  0
LINE
  5
61D7
  8
0
 10
325.4606051269990985
 20
4.1604146729150111
 30
0.0
 11
325.492492404499103
 21
4.1604145452150121
 31
0.0
  0
LINE
  5
61D8
  8
0
 10
325.492492404499103
 20
4.1604145452150121
 30
0.0
 11
325.4935963688989204
 21
4.1608031576152182
 31
0.0
  0
ARC
  5
61D9
  8
0
 10
325.4527703350324259
 20
4.167387625518006
 30
0.0
 40
0.0095728037373393
 50
340.5389881286855029
 51
359.1854071254455221
  0
ARC
  5
61DA
  8
0
 10
325.4552090091574996
 20
4.1661782348199283
 30
0.0
 40
0.0068783439452858
 50
308.6065339385484094
 51
343.270679160816087
  0
LINE
  5
61DB
  8
0
 10
325.4523876227991082
 20
4.1775874356150116
 30
0.0
 11
325.4623421712990989
 21
4.170878244615011
 31
0.0
  0
LINE
  5
61DC
  8
0
 10
325.4623421712990989
 20
4.170878244615011
 30
0.0
 11
325.4623421712990989
 21
4.1672515304150268
 31
0.0
  0
LINE
  5
61DD
  8
0
 10
325.4623421712990989
 20
4.170878244615011
 30
0.0
 11
325.4907550781990722
 21
4.170878244615011
 31
0.0
  0
ARC
  5
61DE
  8
0
 10
325.4594549282625735
 20
4.1674630708107587
 30
0.0
 40
0.0066600717258032
 50
237.0616293835653039
 51
270.3953254462510927
  0
LINE
  5
61DF
  8
0
 10
325.4558336033991282
 20
4.1618735662150206
 30
0.0
 11
325.4409495293140822
 21
4.1719051709150117
 31
0.0
  0
ARC
  5
61E0
  8
0
 10
325.4425010418520969
 20
4.1559857502427828
 30
0.0
 40
0.0066726449957093
 50
269.5886483020195783
 51
302.8589034399964817
  0
ARC
  5
61E1
  8
0
 10
325.4492418883133951
 20
4.1559095093334717
 30
0.0
 40
0.0096311776606889
 50
180.8796481618757923
 51
202.682370915378101
  0
ARC
  5
61E2
  8
0
 10
325.4465364024110841
 20
4.1544891771472399
 30
0.0
 40
0.0065926475283548
 50
200.359678815167598
 51
231.7301013862004027
  0
LINE
  5
61E3
  8
0
 10
325.4396118456991189
 20
4.1593883642150109
 30
0.0
 11
325.4396118456991189
 21
4.1557616500150116
 31
0.0
  0
LINE
  5
61E4
  8
0
 10
325.4396118456991189
 20
4.1593883642150109
 30
0.0
 11
325.449566394201895
 21
4.1660975552169024
 31
0.0
  0
LINE
  5
61E5
  8
0
 10
325.4461214326991012
 20
4.1503806667150123
 30
0.0
 11
325.4610044227407002
 21
4.1604152905150107
 31
0.0
  0
LINE
  5
61E6
  8
0
 10
325.4083576480991269
 20
4.1493132772150112
 30
0.0
 11
325.4094618944990884
 21
4.148924792515011
 31
0.0
  0
LINE
  5
61E7
  8
0
 10
325.4094618944990884
 20
4.148924792515011
 30
0.0
 11
325.441349171999093
 21
4.1489246648150111
 31
0.0
  0
LINE
  5
61E8
  8
0
 10
325.441349171999093
 20
4.1489246648150111
 30
0.0
 11
325.4424531363989104
 21
4.1493132772152173
 31
0.0
  0
ARC
  5
61E9
  8
0
 10
325.4016271025324158
 20
4.155897745118005
 30
0.0
 40
0.0095728037373393
 50
340.5389881286855029
 51
359.1854071254455221
  0
ARC
  5
61EA
  8
0
 10
325.4040657766576032
 20
4.1546883544199282
 30
0.0
 40
0.0068783439452858
 50
308.6065339385484094
 51
343.270679160816087
  0
LINE
  5
61EB
  8
0
 10
325.4012443902990981
 20
4.1660975552150123
 30
0.0
 11
325.4111989387990889
 21
4.1593883642150109
 31
0.0
  0
LINE
  5
61EC
  8
0
 10
325.4111989387990889
 20
4.1593883642150109
 30
0.0
 11
325.4111989387990889
 21
4.1557616500150258
 31
0.0
  0
LINE
  5
61ED
  8
0
 10
325.4111989387990889
 20
4.1593883642150109
 30
0.0
 11
325.4396118456991189
 21
4.1593883642150109
 31
0.0
  0
ARC
  5
61EE
  8
0
 10
325.4083116957626203
 20
4.1559731904107586
 30
0.0
 40
0.0066600717258032
 50
237.0616293835653039
 51
270.3953254462510927
  0
LINE
  5
61EF
  8
0
 10
325.4046903708990044
 20
4.1503836858150214
 30
0.0
 11
325.3898062968140721
 21
4.1604152905150107
 31
0.0
  0
ARC
  5
61F0
  8
0
 10
325.493644274352107
 20
4.1448837369427842
 30
0.0
 40
0.0066726449957093
 50
269.5886483020195783
 51
302.8589034399964817
  0
ARC
  5
61F1
  8
0
 10
325.5003851208134051
 20
4.1448074960334731
 30
0.0
 40
0.0096311776606889
 50
180.8796481618757923
 51
202.682370915378101
  0
ARC
  5
61F2
  8
0
 10
325.4976796349110941
 20
4.1433871638472421
 30
0.0
 40
0.0065926475283548
 50
200.359678815167598
 51
231.7301013862004027
  0
LINE
  5
61F3
  8
0
 10
325.4907550781990722
 20
4.1482863509150114
 30
0.0
 11
325.4907550781990722
 21
4.1446596367150121
 31
0.0
  0
LINE
  5
61F4
  8
0
 10
325.4907550781990722
 20
4.1482863509150114
 30
0.0
 11
325.5007096267019051
 21
4.1549955419169029
 31
0.0
  0
LINE
  5
61F5
  8
0
 10
325.4972646651991113
 20
4.139278653415011
 30
0.0
 11
325.512147655240824
 21
4.1493132772150121
 31
0.0
  0
LINE
  5
61F6
  8
0
 10
325.4595008805990801
 20
4.1382112639150117
 30
0.0
 11
325.4606051269990985
 21
4.1378227792150124
 31
0.0
  0
LINE
  5
61F7
  8
0
 10
325.4606051269990985
 20
4.1378227792150124
 30
0.0
 11
325.492492404499103
 21
4.1378226515150116
 31
0.0
  0
LINE
  5
61F8
  8
0
 10
325.492492404499103
 20
4.1378226515150116
 30
0.0
 11
325.4935963688989204
 21
4.1382112639152178
 31
0.0
  0
ARC
  5
61F9
  8
0
 10
325.4527703350324259
 20
4.1447957318180064
 30
0.0
 40
0.0095728037373393
 50
340.5389881286855029
 51
359.1854071254455221
  0
ARC
  5
61FA
  8
0
 10
325.4552090091574996
 20
4.143586341119927
 30
0.0
 40
0.0068783439452858
 50
308.6065339385484094
 51
343.270679160816087
  0
LINE
  5
61FB
  8
0
 10
325.4523876227991082
 20
4.1549955419150111
 30
0.0
 11
325.4623421712990989
 21
4.1482863509150114
 31
0.0
  0
LINE
  5
61FC
  8
0
 10
325.4623421712990989
 20
4.1482863509150114
 30
0.0
 11
325.4623421712990989
 21
4.1446596367150281
 31
0.0
  0
LINE
  5
61FD
  8
0
 10
325.4623421712990989
 20
4.1482863509150114
 30
0.0
 11
325.4907550781990722
 21
4.1482863509150114
 31
0.0
  0
ARC
  5
61FE
  8
0
 10
325.4594549282625735
 20
4.14487117711076
 30
0.0
 40
0.0066600717258032
 50
237.0616293835653039
 51
270.3953254462510927
  0
LINE
  5
61FF
  8
0
 10
325.4558336033991282
 20
4.139281672515021
 30
0.0
 11
325.4409495293140822
 21
4.1493132772150121
 31
0.0
  0
ARC
  5
6200
  8
0
 10
325.5447875068520034
 20
4.1559857502427828
 30
0.0
 40
0.0066726449957093
 50
269.5886483020195783
 51
302.8589034399964817
  0
ARC
  5
6201
  8
0
 10
325.5515283533134152
 20
4.1559095093334717
 30
0.0
 40
0.0096311776606889
 50
180.8796481618757923
 51
202.682370915378101
  0
ARC
  5
6202
  8
0
 10
325.5488228674111042
 20
4.1544891771472399
 30
0.0
 40
0.0065926475283548
 50
200.359678815167598
 51
231.7301013862004027
  0
LINE
  5
6203
  8
0
 10
325.5418983106990822
 20
4.1593883642150109
 30
0.0
 11
325.5418983106990822
 21
4.1557616500150116
 31
0.0
  0
LINE
  5
6204
  8
0
 10
325.5418983106990822
 20
4.1593883642150109
 30
0.0
 11
325.5499412203004113
 21
4.1648091441439927
 31
0.0
  0
LINE
  5
6205
  8
0
 10
325.5484078976991213
 20
4.1503806667150123
 30
0.0
 11
325.5589993991006281
 21
4.1575218212641918
 31
0.0
  0
LINE
  5
6206
  8
0
 10
325.5106441130990902
 20
4.1493132772150112
 30
0.0
 11
325.5117483594991086
 21
4.148924792515011
 31
0.0
  0
LINE
  5
6207
  8
0
 10
325.5117483594991086
 20
4.148924792515011
 30
0.0
 11
325.5436356369991131
 21
4.1489246648150111
 31
0.0
  0
LINE
  5
6208
  8
0
 10
325.5436356369991131
 20
4.1489246648150111
 30
0.0
 11
325.5447396013988168
 21
4.1493132772152173
 31
0.0
  0
ARC
  5
6209
  8
0
 10
325.5039135675323791
 20
4.155897745118005
 30
0.0
 40
0.0095728037373393
 50
340.5389881286855029
 51
359.1854071254455221
  0
ARC
  5
620A
  8
0
 10
325.5063522416576234
 20
4.1546883544199282
 30
0.0
 40
0.0068783439452858
 50
308.6065339385484094
 51
343.270679160816087
  0
LINE
  5
620B
  8
0
 10
325.5035308552991182
 20
4.1660975552150123
 30
0.0
 11
325.513485403799109
 21
4.1593883642150109
 31
0.0
  0
LINE
  5
620C
  8
0
 10
325.513485403799109
 20
4.1593883642150109
 30
0.0
 11
325.513485403799109
 21
4.1557616500150258
 31
0.0
  0
LINE
  5
620D
  8
0
 10
325.513485403799109
 20
4.1593883642150109
 30
0.0
 11
325.5418983106990822
 21
4.1593883642150109
 31
0.0
  0
ARC
  5
620E
  8
0
 10
325.5105981607625836
 20
4.1559731904107586
 30
0.0
 40
0.0066600717258032
 50
237.0616293835653039
 51
270.3953254462510927
  0
LINE
  5
620F
  8
0
 10
325.5069768358990814
 20
4.1503836858150214
 30
0.0
 11
325.4920927618140922
 21
4.1604152905150107
 31
0.0
  0
ARC
  5
6210
  8
0
 10
325.3913578093519732
 20
4.1444958698427827
 30
0.0
 40
0.0066726449957093
 50
269.5886483020195783
 51
302.8589034399964817
  0
ARC
  5
6211
  8
0
 10
325.3980986558134987
 20
4.1444196289334734
 30
0.0
 40
0.0096311776606889
 50
180.8796481618757923
 51
202.682370915378101
  0
ARC
  5
6212
  8
0
 10
325.395393169911074
 20
4.1429992967472407
 30
0.0
 40
0.0065926475283548
 50
200.359678815167598
 51
231.7301013862004027
  0
LINE
  5
6213
  8
0
 10
325.3884686131991089
 20
4.1478984838150099
 30
0.0
 11
325.3884686131991089
 21
4.1442717696150106
 31
0.0
  0
LINE
  5
6214
  8
0
 10
325.3884686131991089
 20
4.1478984838150099
 30
0.0
 11
325.398423161701885
 21
4.1546076748169032
 31
0.0
  0
LINE
  5
6215
  8
0
 10
325.3949782001990911
 20
4.1388907863150113
 30
0.0
 11
325.4098611902406901
 21
4.1489254101150106
 31
0.0
  0
LINE
  5
6216
  8
0
 10
325.3572144155991168
 20
4.1378233968150111
 30
0.0
 11
325.3583186619990784
 21
4.1374349121150109
 31
0.0
  0
LINE
  5
6217
  8
0
 10
325.3583186619990784
 20
4.1374349121150109
 30
0.0
 11
325.3902059394990829
 21
4.137434784415011
 31
0.0
  0
LINE
  5
6218
  8
0
 10
325.3902059394990829
 20
4.137434784415011
 30
0.0
 11
325.3913099038987866
 21
4.137823396815218
 31
0.0
  0
ARC
  5
6219
  8
0
 10
325.3504838700324058
 20
4.1444078647180049
 30
0.0
 40
0.0095728037373393
 50
340.5389881286855029
 51
359.1854071254455221
  0
ARC
  5
621A
  8
0
 10
325.3529225441574795
 20
4.1431984740199272
 30
0.0
 40
0.0068783439452858
 50
308.6065339385484094
 51
343.270679160816087
  0
LINE
  5
621B
  8
0
 10
325.350101157799088
 20
4.1546076748150114
 30
0.0
 11
325.3600557062990788
 21
4.1478984838150099
 31
0.0
  0
LINE
  5
621C
  8
0
 10
325.3600557062990788
 20
4.1478984838150099
 30
0.0
 11
325.3600557062990788
 21
4.1442717696150266
 31
0.0
  0
LINE
  5
621D
  8
0
 10
325.3600557062990788
 20
4.1478984838150099
 30
0.0
 11
325.3884686131991089
 21
4.1478984838150099
 31
0.0
  0
ARC
  5
621E
  8
0
 10
325.3571684632626102
 20
4.1444833100107594
 30
0.0
 40
0.0066600717258032
 50
237.0616293835653039
 51
270.3953254462510927
  0
LINE
  5
621F
  8
0
 10
325.353547138399108
 20
4.1388938054150213
 30
0.0
 11
325.3386630643141189
 21
4.1489254101150106
 31
0.0
  0
ARC
  5
6220
  8
0
 10
325.3402145768520199
 20
4.1330059894427844
 30
0.0
 40
0.0066726449957093
 50
269.5886483020195783
 51
302.8589034399964817
  0
ARC
  5
6221
  8
0
 10
325.3469554233133749
 20
4.1329297485334733
 30
0.0
 40
0.0096311776606889
 50
180.8796481618757923
 51
202.682370915378101
  0
ARC
  5
6222
  8
0
 10
325.3442499374111208
 20
4.1315094163472406
 30
0.0
 40
0.0065926475283548
 50
200.359678815167598
 51
231.7301013862004027
  0
LINE
  5
6223
  8
0
 10
325.3373253806990988
 20
4.1364086034150107
 30
0.0
 11
325.3373253806990988
 21
4.1327818892150123
 31
0.0
  0
LINE
  5
6224
  8
0
 10
325.3373253806990988
 20
4.1364086034150107
 30
0.0
 11
325.3472799292019886
 21
4.1431177944169031
 31
0.0
  0
LINE
  5
6225
  8
0
 10
325.3438349676990811
 20
4.1274009059150121
 30
0.0
 11
325.3587179577407937
 21
4.1374355297150114
 31
0.0
  0
LINE
  5
6226
  8
0
 10
325.3060711830991067
 20
4.126333516415011
 30
0.0
 11
325.3071754294991251
 21
4.1259450317150117
 31
0.0
  0
LINE
  5
6227
  8
0
 10
325.3071754294991251
 20
4.1259450317150117
 30
0.0
 11
325.3390627069990728
 21
4.1259449040150109
 31
0.0
  0
LINE
  5
6228
  8
0
 10
325.3390627069990728
 20
4.1259449040150109
 30
0.0
 11
325.3401666713987765
 21
4.1263335164152171
 31
0.0
  0
ARC
  5
6229
  8
0
 10
325.2993406375323957
 20
4.1329179843180048
 30
0.0
 40
0.0095728037373393
 50
340.5389881286855029
 51
359.1854071254455221
  0
ARC
  5
622A
  8
0
 10
325.3017793116575263
 20
4.131708593619928
 30
0.0
 40
0.0068783439452858
 50
308.6065339385484094
 51
343.270679160816087
  0
LINE
  5
622B
  8
0
 10
325.2989579252990779
 20
4.1431177944150122
 30
0.0
 11
325.3089124737991256
 21
4.1364086034150107
 31
0.0
  0
LINE
  5
622C
  8
0
 10
325.3089124737991256
 20
4.1364086034150107
 30
0.0
 11
325.3089124737991256
 21
4.1327818892150274
 31
0.0
  0
LINE
  5
622D
  8
0
 10
325.3089124737991256
 20
4.1364086034150107
 30
0.0
 11
325.3373253806990988
 21
4.1364086034150107
 31
0.0
  0
ARC
  5
622E
  8
0
 10
325.3060252307626001
 20
4.1329934296107602
 30
0.0
 40
0.0066600717258032
 50
237.0616293835653039
 51
270.3953254462510927
  0
LINE
  5
622F
  8
0
 10
325.3024039058990979
 20
4.1274039250150221
 30
0.0
 11
325.2875198318139951
 21
4.1374355297150114
 31
0.0
  0
ARC
  5
6230
  8
0
 10
325.3402145768520199
 20
4.1100262285427842
 30
0.0
 40
0.0066726449957093
 50
269.5886483020195783
 51
302.8589034399964817
  0
ARC
  5
6231
  8
0
 10
325.3469554233133749
 20
4.1099499876334731
 30
0.0
 40
0.0096311776606889
 50
180.8796481618757923
 51
202.682370915378101
  0
ARC
  5
6232
  8
0
 10
325.3442499374111208
 20
4.1085296554472412
 30
0.0
 40
0.0065926475283548
 50
200.359678815167598
 51
231.7301013862004027
  0
LINE
  5
6233
  8
0
 10
325.3373253806990988
 20
4.1134288425150114
 30
0.0
 11
325.3373253806990988
 21
4.1098021283150121
 31
0.0
  0
LINE
  5
6234
  8
0
 10
325.3373253806990988
 20
4.1134288425150114
 30
0.0
 11
325.3472799292019886
 21
4.120138033516902
 31
0.0
  0
LINE
  5
6235
  8
0
 10
325.3438349676990811
 20
4.104421145015011
 30
0.0
 11
325.3587179577407937
 21
4.1144557688150112
 31
0.0
  0
LINE
  5
6236
  8
0
 10
325.3060711830991067
 20
4.1033537555150108
 30
0.0
 11
325.3071754294991251
 21
4.1029652708150124
 31
0.0
  0
LINE
  5
6237
  8
0
 10
325.3071754294991251
 20
4.1029652708150124
 30
0.0
 11
325.3390627069990728
 21
4.1029651431150107
 31
0.0
  0
LINE
  5
6238
  8
0
 10
325.3390627069990728
 20
4.1029651431150107
 30
0.0
 11
325.3401666713987765
 21
4.1033537555152169
 31
0.0
  0
ARC
  5
6239
  8
0
 10
325.2993406375323957
 20
4.1099382234180046
 30
0.0
 40
0.0095728037373393
 50
340.5389881286855029
 51
359.1854071254455221
  0
ARC
  5
623A
  8
0
 10
325.3017793116575263
 20
4.1087288327199269
 30
0.0
 40
0.0068783439452858
 50
308.6065339385484094
 51
343.270679160816087
  0
LINE
  5
623B
  8
0
 10
325.2989579252990779
 20
4.1201380335150111
 30
0.0
 11
325.3089124737991256
 21
4.1134288425150114
 31
0.0
  0
LINE
  5
623C
  8
0
 10
325.3089124737991256
 20
4.1134288425150114
 30
0.0
 11
325.3089124737991256
 21
4.1098021283150272
 31
0.0
  0
LINE
  5
623D
  8
0
 10
325.3089124737991256
 20
4.1134288425150114
 30
0.0
 11
325.3373253806990988
 21
4.1134288425150114
 31
0.0
  0
ARC
  5
623E
  8
0
 10
325.3060252307626001
 20
4.11001366871076
 30
0.0
 40
0.0066600717258032
 50
237.0616293835653039
 51
270.3953254462510927
  0
LINE
  5
623F
  8
0
 10
325.3024039058990979
 20
4.104424164115021
 30
0.0
 11
325.2875198318139951
 21
4.1144557688150112
 31
0.0
  0
ARC
  5
6240
  8
0
 10
325.3913578093519732
 20
4.1215161090427834
 30
0.0
 40
0.0066726449957093
 50
269.5886483020195783
 51
302.8589034399964817
  0
ARC
  5
6241
  8
0
 10
325.3980986558134987
 20
4.1214398681334732
 30
0.0
 40
0.0096311776606889
 50
180.8796481618757923
 51
202.682370915378101
  0
ARC
  5
6242
  8
0
 10
325.395393169911074
 20
4.1200195359472414
 30
0.0
 40
0.0065926475283548
 50
200.359678815167598
 51
231.7301013862004027
  0
LINE
  5
6243
  8
0
 10
325.3884686131991089
 20
4.1249187230150106
 30
0.0
 11
325.3884686131991089
 21
4.1212920088150122
 31
0.0
  0
LINE
  5
6244
  8
0
 10
325.3884686131991089
 20
4.1249187230150106
 30
0.0
 11
325.398423161701885
 21
4.1316279140169021
 31
0.0
  0
LINE
  5
6245
  8
0
 10
325.3949782001990911
 20
4.1159110255150111
 30
0.0
 11
325.4098611902406901
 21
4.1259456493150122
 31
0.0
  0
LINE
  5
6246
  8
0
 10
325.3572144155991168
 20
4.1148436360150109
 30
0.0
 11
325.3583186619990784
 21
4.1144551513150107
 31
0.0
  0
LINE
  5
6247
  8
0
 10
325.3583186619990784
 20
4.1144551513150107
 30
0.0
 11
325.3902059394990829
 21
4.1144550236150108
 31
0.0
  0
LINE
  5
6248
  8
0
 10
325.3902059394990829
 20
4.1144550236150108
 30
0.0
 11
325.3913099038987866
 21
4.114843636015217
 31
0.0
  0
ARC
  5
6249
  8
0
 10
325.3504838700324058
 20
4.1214281039180056
 30
0.0
 40
0.0095728037373393
 50
340.5389881286855029
 51
359.1854071254455221
  0
ARC
  5
624A
  8
0
 10
325.3529225441574795
 20
4.1202187132199271
 30
0.0
 40
0.0068783439452858
 50
308.6065339385484094
 51
343.270679160816087
  0
LINE
  5
624B
  8
0
 10
325.350101157799088
 20
4.1316279140150121
 30
0.0
 11
325.3600557062990788
 21
4.1249187230150106
 31
0.0
  0
LINE
  5
624C
  8
0
 10
325.3600557062990788
 20
4.1249187230150106
 30
0.0
 11
325.3600557062990788
 21
4.1212920088150273
 31
0.0
  0
LINE
  5
624D
  8
0
 10
325.3600557062990788
 20
4.1249187230150106
 30
0.0
 11
325.3884686131991089
 21
4.1249187230150106
 31
0.0
  0
ARC
  5
624E
  8
0
 10
325.3571684632626102
 20
4.1215035492107592
 30
0.0
 40
0.0066600717258032
 50
237.0616293835653039
 51
270.3953254462510927
  0
LINE
  5
624F
  8
0
 10
325.353547138399108
 20
4.1159140446150211
 30
0.0
 11
325.3386630643141189
 21
4.1259456493150122
 31
0.0
  0
ARC
  5
6250
  8
0
 10
325.4425010418520969
 20
4.1330059894427844
 30
0.0
 40
0.0066726449957093
 50
269.5886483020195783
 51
302.8589034399964817
  0
ARC
  5
6251
  8
0
 10
325.4492418883133951
 20
4.1329297485334733
 30
0.0
 40
0.0096311776606889
 50
180.8796481618757923
 51
202.682370915378101
  0
ARC
  5
6252
  8
0
 10
325.4465364024110841
 20
4.1315094163472406
 30
0.0
 40
0.0065926475283548
 50
200.359678815167598
 51
231.7301013862004027
  0
LINE
  5
6253
  8
0
 10
325.4396118456991189
 20
4.1364086034150107
 30
0.0
 11
325.4396118456991189
 21
4.1327818892150123
 31
0.0
  0
LINE
  5
6254
  8
0
 10
325.4396118456991189
 20
4.1364086034150107
 30
0.0
 11
325.449566394201895
 21
4.1431177944169031
 31
0.0
  0
LINE
  5
6255
  8
0
 10
325.4461214326991012
 20
4.1274009059150121
 30
0.0
 11
325.4610044227407002
 21
4.1374355297150114
 31
0.0
  0
LINE
  5
6256
  8
0
 10
325.4083576480991269
 20
4.126333516415011
 30
0.0
 11
325.4094618944990884
 21
4.1259450317150117
 31
0.0
  0
LINE
  5
6257
  8
0
 10
325.4094618944990884
 20
4.1259450317150117
 30
0.0
 11
325.441349171999093
 21
4.1259449040150109
 31
0.0
  0
LINE
  5
6258
  8
0
 10
325.441349171999093
 20
4.1259449040150109
 30
0.0
 11
325.4424531363989104
 21
4.1263335164152171
 31
0.0
  0
ARC
  5
6259
  8
0
 10
325.4016271025324158
 20
4.1329179843180048
 30
0.0
 40
0.0095728037373393
 50
340.5389881286855029
 51
359.1854071254455221
  0
ARC
  5
625A
  8
0
 10
325.4040657766576032
 20
4.131708593619928
 30
0.0
 40
0.0068783439452858
 50
308.6065339385484094
 51
343.270679160816087
  0
LINE
  5
625B
  8
0
 10
325.4012443902990981
 20
4.1431177944150122
 30
0.0
 11
325.4111989387990889
 21
4.1364086034150107
 31
0.0
  0
LINE
  5
625C
  8
0
 10
325.4111989387990889
 20
4.1364086034150107
 30
0.0
 11
325.4111989387990889
 21
4.1327818892150274
 31
0.0
  0
LINE
  5
625D
  8
0
 10
325.4111989387990889
 20
4.1364086034150107
 30
0.0
 11
325.4396118456991189
 21
4.1364086034150107
 31
0.0
  0
ARC
  5
625E
  8
0
 10
325.4083116957626203
 20
4.1329934296107602
 30
0.0
 40
0.0066600717258032
 50
237.0616293835653039
 51
270.3953254462510927
  0
LINE
  5
625F
  8
0
 10
325.4046903708990044
 20
4.1274039250150221
 30
0.0
 11
325.3898062968140721
 21
4.1374355297150114
 31
0.0
  0
ARC
  5
6260
  8
0
 10
325.4425010418520969
 20
4.1100262285427842
 30
0.0
 40
0.0066726449957093
 50
269.5886483020195783
 51
302.8589034399964817
  0
ARC
  5
6261
  8
0
 10
325.4492418883133951
 20
4.1099499876334731
 30
0.0
 40
0.0096311776606889
 50
180.8796481618757923
 51
202.682370915378101
  0
ARC
  5
6262
  8
0
 10
325.4465364024110841
 20
4.1085296554472412
 30
0.0
 40
0.0065926475283548
 50
200.359678815167598
 51
231.7301013862004027
  0
LINE
  5
6263
  8
0
 10
325.4396118456991189
 20
4.1134288425150114
 30
0.0
 11
325.4396118456991189
 21
4.1098021283150121
 31
0.0
  0
LINE
  5
6264
  8
0
 10
325.4396118456991189
 20
4.1134288425150114
 30
0.0
 11
325.449566394201895
 21
4.120138033516902
 31
0.0
  0
LINE
  5
6265
  8
0
 10
325.4461214326991012
 20
4.104421145015011
 30
0.0
 11
325.4610044227407002
 21
4.1144557688150112
 31
0.0
  0
LINE
  5
6266
  8
0
 10
325.4083576480991269
 20
4.1033537555150108
 30
0.0
 11
325.4094618944990884
 21
4.1029652708150124
 31
0.0
  0
LINE
  5
6267
  8
0
 10
325.4094618944990884
 20
4.1029652708150124
 30
0.0
 11
325.441349171999093
 21
4.1029651431150107
 31
0.0
  0
LINE
  5
6268
  8
0
 10
325.441349171999093
 20
4.1029651431150107
 30
0.0
 11
325.4424531363989104
 21
4.1033537555152169
 31
0.0
  0
ARC
  5
6269
  8
0
 10
325.4016271025324158
 20
4.1099382234180046
 30
0.0
 40
0.0095728037373393
 50
340.5389881286855029
 51
359.1854071254455221
  0
ARC
  5
626A
  8
0
 10
325.4040657766576032
 20
4.1087288327199269
 30
0.0
 40
0.0068783439452858
 50
308.6065339385484094
 51
343.270679160816087
  0
LINE
  5
626B
  8
0
 10
325.4012443902990981
 20
4.1201380335150111
 30
0.0
 11
325.4111989387990889
 21
4.1134288425150114
 31
0.0
  0
LINE
  5
626C
  8
0
 10
325.4111989387990889
 20
4.1134288425150114
 30
0.0
 11
325.4111989387990889
 21
4.1098021283150272
 31
0.0
  0
LINE
  5
626D
  8
0
 10
325.4111989387990889
 20
4.1134288425150114
 30
0.0
 11
325.4396118456991189
 21
4.1134288425150114
 31
0.0
  0
ARC
  5
626E
  8
0
 10
325.4083116957626203
 20
4.11001366871076
 30
0.0
 40
0.0066600717258032
 50
237.0616293835653039
 51
270.3953254462510927
  0
LINE
  5
626F
  8
0
 10
325.4046903708990044
 20
4.104424164115021
 30
0.0
 11
325.3898062968140721
 21
4.1144557688150112
 31
0.0
  0
ARC
  5
6270
  8
0
 10
325.3913578093519732
 20
4.0985363481427841
 30
0.0
 40
0.0066726449957093
 50
269.5886483020195783
 51
302.8589034399964817
  0
ARC
  5
6271
  8
0
 10
325.3980986558134987
 20
4.0984601072334721
 30
0.0
 40
0.0096311776606889
 50
180.8796481618757923
 51
202.682370915378101
  0
ARC
  5
6272
  8
0
 10
325.395393169911074
 20
4.0970397750472412
 30
0.0
 40
0.0065926475283548
 50
200.359678815167598
 51
231.7301013862004027
  0
LINE
  5
6273
  8
0
 10
325.3884686131991089
 20
4.1019389621150122
 30
0.0
 11
325.3884686131991089
 21
4.098312247915012
 31
0.0
  0
LINE
  5
6274
  8
0
 10
325.3884686131991089
 20
4.1019389621150122
 30
0.0
 11
325.398423161701885
 21
4.1086481531169019
 31
0.0
  0
LINE
  5
6275
  8
0
 10
325.3949782001990911
 20
4.0929312646150118
 30
0.0
 11
325.4098611902406901
 21
4.1029658884150111
 31
0.0
  0
LINE
  5
6276
  8
0
 10
325.3572144155991168
 20
4.0918638751150107
 30
0.0
 11
325.3583186619990784
 21
4.0914753904150123
 31
0.0
  0
LINE
  5
6277
  8
0
 10
325.3583186619990784
 20
4.0914753904150123
 30
0.0
 11
325.3902059394990829
 21
4.0914752627150106
 31
0.0
  0
LINE
  5
6278
  8
0
 10
325.3902059394990829
 20
4.0914752627150106
 30
0.0
 11
325.3913099038987866
 21
4.0918638751152168
 31
0.0
  0
ARC
  5
6279
  8
0
 10
325.3504838700324058
 20
4.0984483430180063
 30
0.0
 40
0.0095728037373393
 50
340.5389881286855029
 51
359.1854071254455221
  0
ARC
  5
627A
  8
0
 10
325.3529225441574795
 20
4.0972389523199277
 30
0.0
 40
0.0068783439452858
 50
308.6065339385484094
 51
343.270679160816087
  0
LINE
  5
627B
  8
0
 10
325.350101157799088
 20
4.1086481531150119
 30
0.0
 11
325.3600557062990788
 21
4.1019389621150122
 31
0.0
  0
LINE
  5
627C
  8
0
 10
325.3600557062990788
 20
4.1019389621150122
 30
0.0
 11
325.3600557062990788
 21
4.0983122479150271
 31
0.0
  0
LINE
  5
627D
  8
0
 10
325.3600557062990788
 20
4.1019389621150122
 30
0.0
 11
325.3884686131991089
 21
4.1019389621150122
 31
0.0
  0
ARC
  5
627E
  8
0
 10
325.3571684632626102
 20
4.098523788310759
 30
0.0
 40
0.0066600717258032
 50
237.0616293835653039
 51
270.3953254462510927
  0
LINE
  5
627F
  8
0
 10
325.353547138399108
 20
4.0929342837150209
 30
0.0
 11
325.3386630643141189
 21
4.1029658884150111
 31
0.0
  0
ARC
  5
6280
  8
0
 10
325.3402145768520199
 20
4.087046467742784
 30
0.0
 40
0.0066726449957093
 50
269.5886483020195783
 51
302.8589034399964817
  0
ARC
  5
6281
  8
0
 10
325.3469554233133749
 20
4.0869702268334729
 30
0.0
 40
0.0096311776606889
 50
180.8796481618757923
 51
202.682370915378101
  0
ARC
  5
6282
  8
0
 10
325.3442499374111208
 20
4.0855498946472411
 30
0.0
 40
0.0065926475283548
 50
200.359678815167598
 51
231.7301013862004027
  0
LINE
  5
6283
  8
0
 10
325.3373253806990988
 20
4.0904490817150112
 30
0.0
 11
325.3373253806990988
 21
4.086822367515011
 31
0.0
  0
LINE
  5
6284
  8
0
 10
325.3373253806990988
 20
4.0904490817150112
 30
0.0
 11
325.3472799292019886
 21
4.0971582727169027
 31
0.0
  0
LINE
  5
6285
  8
0
 10
325.3438349676990811
 20
4.0814413842150108
 30
0.0
 11
325.3587179577407937
 21
4.091476008015011
 31
0.0
  0
LINE
  5
6286
  8
0
 10
325.3060711830991067
 20
4.0803739947150124
 30
0.0
 11
325.3071754294991251
 21
4.0799855100150122
 31
0.0
  0
LINE
  5
6287
  8
0
 10
325.3071754294991251
 20
4.0799855100150122
 30
0.0
 11
325.3390627069990728
 21
4.0799853823150123
 31
0.0
  0
LINE
  5
6288
  8
0
 10
325.3390627069990728
 20
4.0799853823150123
 30
0.0
 11
325.3401666713987765
 21
4.0803739947152176
 31
0.0
  0
ARC
  5
6289
  8
0
 10
325.2993406375323957
 20
4.0869584626180062
 30
0.0
 40
0.0095728037373393
 50
340.5389881286855029
 51
359.1854071254455221
  0
ARC
  5
628A
  8
0
 10
325.3017793116575263
 20
4.0857490719199268
 30
0.0
 40
0.0068783439452858
 50
308.6065339385484094
 51
343.270679160816087
  0
LINE
  5
628B
  8
0
 10
325.2989579252990779
 20
4.0971582727150109
 30
0.0
 11
325.3089124737991256
 21
4.0904490817150112
 31
0.0
  0
LINE
  5
628C
  8
0
 10
325.3089124737991256
 20
4.0904490817150112
 30
0.0
 11
325.3089124737991256
 21
4.086822367515027
 31
0.0
  0
LINE
  5
628D
  8
0
 10
325.3089124737991256
 20
4.0904490817150112
 30
0.0
 11
325.3373253806990988
 21
4.0904490817150112
 31
0.0
  0
ARC
  5
628E
  8
0
 10
325.3060252307626001
 20
4.0870339079107589
 30
0.0
 40
0.0066600717258032
 50
237.0616293835653039
 51
270.3953254462510927
  0
LINE
  5
628F
  8
0
 10
325.3024039058990979
 20
4.0814444033150208
 30
0.0
 11
325.2875198318139951
 21
4.091476008015011
 31
0.0
  0
ARC
  5
6290
  8
0
 10
325.3402145768520199
 20
4.0640667069427829
 30
0.0
 40
0.0066726449957093
 50
269.5886483020195783
 51
302.8589034399964817
  0
ARC
  5
6291
  8
0
 10
325.3469554233133749
 20
4.0639904660334727
 30
0.0
 40
0.0096311776606889
 50
180.8796481618757923
 51
202.682370915378101
  0
ARC
  5
6292
  8
0
 10
325.3442499374111208
 20
4.0625701338472409
 30
0.0
 40
0.0065926475283548
 50
200.359678815167598
 51
231.7301013862004027
  0
LINE
  5
6293
  8
0
 10
325.3373253806990988
 20
4.067469320915011
 30
0.0
 11
325.3373253806990988
 21
4.0638426067150117
 31
0.0
  0
LINE
  5
6294
  8
0
 10
325.3373253806990988
 20
4.067469320915011
 30
0.0
 11
325.3472799292019886
 21
4.0741785119169034
 31
0.0
  0
LINE
  5
6295
  8
0
 10
325.3438349676990811
 20
4.0584616234150124
 30
0.0
 11
325.3587179577407937
 21
4.0684962472150117
 31
0.0
  0
LINE
  5
6296
  8
0
 10
325.3060711830991067
 20
4.0573942339150122
 30
0.0
 11
325.3071754294991251
 21
4.057005749215012
 31
0.0
  0
LINE
  5
6297
  8
0
 10
325.3071754294991251
 20
4.057005749215012
 30
0.0
 11
325.3390627069990728
 21
4.0570056215150121
 31
0.0
  0
LINE
  5
6298
  8
0
 10
325.3390627069990728
 20
4.0570056215150121
 30
0.0
 11
325.3401666713987765
 21
4.0573942339152183
 31
0.0
  0
ARC
  5
6299
  8
0
 10
325.2993406375323957
 20
4.063978701818006
 30
0.0
 40
0.0095728037373393
 50
340.5389881286855029
 51
359.1854071254455221
  0
ARC
  5
629A
  8
0
 10
325.3017793116575263
 20
4.0627693111199283
 30
0.0
 40
0.0068783439452858
 50
308.6065339385484094
 51
343.270679160816087
  0
LINE
  5
629B
  8
0
 10
325.2989579252990779
 20
4.0741785119150116
 30
0.0
 11
325.3089124737991256
 21
4.067469320915011
 31
0.0
  0
LINE
  5
629C
  8
0
 10
325.3089124737991256
 20
4.067469320915011
 30
0.0
 11
325.3089124737991256
 21
4.0638426067150268
 31
0.0
  0
LINE
  5
629D
  8
0
 10
325.3089124737991256
 20
4.067469320915011
 30
0.0
 11
325.3373253806990988
 21
4.067469320915011
 31
0.0
  0
ARC
  5
629E
  8
0
 10
325.3060252307626001
 20
4.0640541471107587
 30
0.0
 40
0.0066600717258032
 50
237.0616293835653039
 51
270.3953254462510927
  0
LINE
  5
629F
  8
0
 10
325.3024039058990979
 20
4.0584646425150206
 30
0.0
 11
325.2875198318139951
 21
4.0684962472150117
 31
0.0
  0
ARC
  5
62A0
  8
0
 10
325.3402145768520199
 20
4.0410869460427827
 30
0.0
 40
0.0066726449957093
 50
269.5886483020195783
 51
302.8589034399964817
  0
ARC
  5
62A1
  8
0
 10
325.3469554233133749
 20
4.0410107051334734
 30
0.0
 40
0.0096311776606889
 50
180.8796481618757923
 51
202.682370915378101
  0
ARC
  5
62A2
  8
0
 10
325.3442499374111208
 20
4.0395903729472407
 30
0.0
 40
0.0065926475283548
 50
200.359678815167598
 51
231.7301013862004027
  0
LINE
  5
62A3
  8
0
 10
325.3373253806990988
 20
4.0444895600150099
 30
0.0
 11
325.3373253806990988
 21
4.0408628458150107
 31
0.0
  0
LINE
  5
62A4
  8
0
 10
325.3373253806990988
 20
4.0444895600150099
 30
0.0
 11
325.3472799292019886
 21
4.0511987510169032
 31
0.0
  0
LINE
  5
62A5
  8
0
 10
325.3438349676990811
 20
4.0354818625150113
 30
0.0
 11
325.3587179577407937
 21
4.0455164863150106
 31
0.0
  0
LINE
  5
62A6
  8
0
 10
325.3060711830991067
 20
4.0344144730150111
 30
0.0
 11
325.3071754294991251
 21
4.0340259883150109
 31
0.0
  0
LINE
  5
62A7
  8
0
 10
325.3071754294991251
 20
4.0340259883150109
 30
0.0
 11
325.3390627069990728
 21
4.034025860615011
 31
0.0
  0
LINE
  5
62A8
  8
0
 10
325.3390627069990728
 20
4.034025860615011
 30
0.0
 11
325.3401666713987765
 21
4.0344144730152181
 31
0.0
  0
ARC
  5
62A9
  8
0
 10
325.2993406375323957
 20
4.0409989409180049
 30
0.0
 40
0.0095728037373393
 50
340.5389881286855029
 51
359.1854071254455221
  0
ARC
  5
62AA
  8
0
 10
325.3017793116575263
 20
4.0397895502199272
 30
0.0
 40
0.0068783439452858
 50
308.6065339385484094
 51
343.270679160816087
  0
LINE
  5
62AB
  8
0
 10
325.2989579252990779
 20
4.0511987510150114
 30
0.0
 11
325.3089124737991256
 21
4.0444895600150099
 31
0.0
  0
LINE
  5
62AC
  8
0
 10
325.3089124737991256
 20
4.0444895600150099
 30
0.0
 11
325.3089124737991256
 21
4.0408628458150266
 31
0.0
  0
LINE
  5
62AD
  8
0
 10
325.3089124737991256
 20
4.0444895600150099
 30
0.0
 11
325.3373253806990988
 21
4.0444895600150099
 31
0.0
  0
ARC
  5
62AE
  8
0
 10
325.3060252307626001
 20
4.0410743862107594
 30
0.0
 40
0.0066600717258032
 50
237.0616293835653039
 51
270.3953254462510927
  0
LINE
  5
62AF
  8
0
 10
325.3024039058990979
 20
4.0354848816150213
 30
0.0
 11
325.2875198318139951
 21
4.0455164863150106
 31
0.0
  0
ARC
  5
62B0
  8
0
 10
325.3402145768520199
 20
4.0181071852427834
 30
0.0
 40
0.0066726449957093
 50
269.5886483020195783
 51
302.8589034399964817
  0
ARC
  5
62B1
  8
0
 10
325.3469554233133749
 20
4.0180309443334732
 30
0.0
 40
0.0096311776606889
 50
180.8796481618757923
 51
202.682370915378101
  0
ARC
  5
62B2
  8
0
 10
325.3442499374111208
 20
4.0166106121472414
 30
0.0
 40
0.0065926475283548
 50
200.359678815167598
 51
231.7301013862004027
  0
LINE
  5
62B3
  8
0
 10
325.3373253806990988
 20
4.0215097992150106
 30
0.0
 11
325.3373253806990988
 21
4.0178830850150122
 31
0.0
  0
LINE
  5
62B4
  8
0
 10
325.3373253806990988
 20
4.0215097992150106
 30
0.0
 11
325.3472799292019886
 21
4.0282189902169021
 31
0.0
  0
LINE
  5
62B5
  8
0
 10
325.3438349676990811
 20
4.0125021017150111
 30
0.0
 11
325.3587179577407937
 21
4.0225367255150122
 31
0.0
  0
LINE
  5
62B6
  8
0
 10
325.3060711830991067
 20
4.0114347122150109
 30
0.0
 11
325.3071754294991251
 21
4.0110462275150107
 31
0.0
  0
LINE
  5
62B7
  8
0
 10
325.3071754294991251
 20
4.0110462275150107
 30
0.0
 11
325.3390627069990728
 21
4.0110460998150108
 31
0.0
  0
LINE
  5
62B8
  8
0
 10
325.3390627069990728
 20
4.0110460998150108
 30
0.0
 11
325.3401666713987765
 21
4.011434712215217
 31
0.0
  0
ARC
  5
62B9
  8
0
 10
325.2993406375323957
 20
4.0180191801180056
 30
0.0
 40
0.0095728037373393
 50
340.5389881286855029
 51
359.1854071254455221
  0
ARC
  5
62BA
  8
0
 10
325.3017793116575263
 20
4.0168097894199271
 30
0.0
 40
0.0068783439452858
 50
308.6065339385484094
 51
343.270679160816087
  0
LINE
  5
62BB
  8
0
 10
325.2989579252990779
 20
4.0282189902150121
 30
0.0
 11
325.3089124737991256
 21
4.0215097992150106
 31
0.0
  0
LINE
  5
62BC
  8
0
 10
325.3089124737991256
 20
4.0215097992150106
 30
0.0
 11
325.3089124737991256
 21
4.0178830850150273
 31
0.0
  0
LINE
  5
62BD
  8
0
 10
325.3089124737991256
 20
4.0215097992150106
 30
0.0
 11
325.3373253806990988
 21
4.0215097992150106
 31
0.0
  0
ARC
  5
62BE
  8
0
 10
325.3060252307626001
 20
4.0180946254107592
 30
0.0
 40
0.0066600717258032
 50
237.0616293835653039
 51
270.3953254462510927
  0
LINE
  5
62BF
  8
0
 10
325.3024039058990979
 20
4.0125051208150211
 30
0.0
 11
325.2875198318139951
 21
4.0225367255150122
 31
0.0
  0
ARC
  5
62C0
  8
0
 10
325.3913578093519732
 20
4.0295970656427844
 30
0.0
 40
0.0066726449957093
 50
269.5886483020195783
 51
302.8589034399964817
  0
ARC
  5
62C1
  8
0
 10
325.3980986558134987
 20
4.0295208247334733
 30
0.0
 40
0.0096311776606889
 50
180.8796481618757923
 51
202.682370915378101
  0
ARC
  5
62C2
  8
0
 10
325.395393169911074
 20
4.0281004925472406
 30
0.0
 40
0.0065926475283548
 50
200.359678815167598
 51
231.7301013862004027
  0
LINE
  5
62C3
  8
0
 10
325.3884686131991089
 20
4.0329996796150107
 30
0.0
 11
325.3884686131991089
 21
4.0293729654150123
 31
0.0
  0
LINE
  5
62C4
  8
0
 10
325.3884686131991089
 20
4.0329996796150107
 30
0.0
 11
325.398423161701885
 21
4.0397088706169031
 31
0.0
  0
LINE
  5
62C5
  8
0
 10
325.3949782001990911
 20
4.0239919821150121
 30
0.0
 11
325.4098611902406901
 21
4.0340266059150114
 31
0.0
  0
LINE
  5
62C6
  8
0
 10
325.3572144155991168
 20
4.022924592615011
 30
0.0
 11
325.3583186619990784
 21
4.0225361079150117
 31
0.0
  0
LINE
  5
62C7
  8
0
 10
325.3583186619990784
 20
4.0225361079150117
 30
0.0
 11
325.3902059394990829
 21
4.0225359802150109
 31
0.0
  0
LINE
  5
62C8
  8
0
 10
325.3902059394990829
 20
4.0225359802150109
 30
0.0
 11
325.3913099038987866
 21
4.0229245926152171
 31
0.0
  0
ARC
  5
62C9
  8
0
 10
325.3504838700324058
 20
4.0295090605180048
 30
0.0
 40
0.0095728037373393
 50
340.5389881286855029
 51
359.1854071254455221
  0
ARC
  5
62CA
  8
0
 10
325.3529225441574795
 20
4.028299669819928
 30
0.0
 40
0.0068783439452858
 50
308.6065339385484094
 51
343.270679160816087
  0
LINE
  5
62CB
  8
0
 10
325.350101157799088
 20
4.0397088706150122
 30
0.0
 11
325.3600557062990788
 21
4.0329996796150107
 31
0.0
  0
LINE
  5
62CC
  8
0
 10
325.3600557062990788
 20
4.0329996796150107
 30
0.0
 11
325.3600557062990788
 21
4.0293729654150274
 31
0.0
  0
LINE
  5
62CD
  8
0
 10
325.3600557062990788
 20
4.0329996796150107
 30
0.0
 11
325.3884686131991089
 21
4.0329996796150107
 31
0.0
  0
ARC
  5
62CE
  8
0
 10
325.3571684632626102
 20
4.0295845058107602
 30
0.0
 40
0.0066600717258032
 50
237.0616293835653039
 51
270.3953254462510927
  0
LINE
  5
62CF
  8
0
 10
325.353547138399108
 20
4.0239950012150221
 30
0.0
 11
325.3386630643141189
 21
4.0340266059150114
 31
0.0
  0
ARC
  5
62D0
  8
0
 10
325.3913578093519732
 20
4.0525768264427837
 30
0.0
 40
0.0066726449957093
 50
269.5886483020195783
 51
302.8589034399964817
  0
ARC
  5
62D1
  8
0
 10
325.3980986558134987
 20
4.0525005855334726
 30
0.0
 40
0.0096311776606889
 50
180.8796481618757923
 51
202.682370915378101
  0
ARC
  5
62D2
  8
0
 10
325.395393169911074
 20
4.0510802533472408
 30
0.0
 40
0.0065926475283548
 50
200.359678815167598
 51
231.7301013862004027
  0
LINE
  5
62D3
  8
0
 10
325.3884686131991089
 20
4.0559794404150109
 30
0.0
 11
325.3884686131991089
 21
4.0523527262150116
 31
0.0
  0
LINE
  5
62D4
  8
0
 10
325.3884686131991089
 20
4.0559794404150109
 30
0.0
 11
325.398423161701885
 21
4.0626886314169033
 31
0.0
  0
LINE
  5
62D5
  8
0
 10
325.3949782001990911
 20
4.0469717429150123
 30
0.0
 11
325.4098611902406901
 21
4.0570063667150107
 31
0.0
  0
LINE
  5
62D6
  8
0
 10
325.3572144155991168
 20
4.0459043534150121
 30
0.0
 11
325.3583186619990784
 21
4.0455158687150119
 31
0.0
  0
LINE
  5
62D7
  8
0
 10
325.3583186619990784
 20
4.0455158687150119
 30
0.0
 11
325.3902059394990829
 21
4.0455157410150111
 31
0.0
  0
LINE
  5
62D8
  8
0
 10
325.3902059394990829
 20
4.0455157410150111
 30
0.0
 11
325.3913099038987866
 21
4.0459043534152181
 31
0.0
  0
ARC
  5
62D9
  8
0
 10
325.3504838700324058
 20
4.052488821318005
 30
0.0
 40
0.0095728037373393
 50
340.5389881286855029
 51
359.1854071254455221
  0
ARC
  5
62DA
  8
0
 10
325.3529225441574795
 20
4.0512794306199282
 30
0.0
 40
0.0068783439452858
 50
308.6065339385484094
 51
343.270679160816087
  0
LINE
  5
62DB
  8
0
 10
325.350101157799088
 20
4.0626886314150124
 30
0.0
 11
325.3600557062990788
 21
4.0559794404150109
 31
0.0
  0
LINE
  5
62DC
  8
0
 10
325.3600557062990788
 20
4.0559794404150109
 30
0.0
 11
325.3600557062990788
 21
4.0523527262150267
 31
0.0
  0
LINE
  5
62DD
  8
0
 10
325.3600557062990788
 20
4.0559794404150109
 30
0.0
 11
325.3884686131991089
 21
4.0559794404150109
 31
0.0
  0
ARC
  5
62DE
  8
0
 10
325.3571684632626102
 20
4.0525642666107604
 30
0.0
 40
0.0066600717258032
 50
237.0616293835653039
 51
270.3953254462510927
  0
LINE
  5
62DF
  8
0
 10
325.353547138399108
 20
4.0469747620150223
 30
0.0
 11
325.3386630643141189
 21
4.0570063667150107
 31
0.0
  0
ARC
  5
62E0
  8
0
 10
325.3913578093519732
 20
4.075556587342783
 30
0.0
 40
0.0066726449957093
 50
269.5886483020195783
 51
302.8589034399964817
  0
ARC
  5
62E1
  8
0
 10
325.3980986558134987
 20
4.0754803464334719
 30
0.0
 40
0.0096311776606889
 50
180.8796481618757923
 51
202.682370915378101
  0
ARC
  5
62E2
  8
0
 10
325.395393169911074
 20
4.0740600142472401
 30
0.0
 40
0.0065926475283548
 50
200.359678815167598
 51
231.7301013862004027
  0
LINE
  5
62E3
  8
0
 10
325.3884686131991089
 20
4.0789592013150111
 30
0.0
 11
325.3884686131991089
 21
4.0753324871150109
 31
0.0
  0
LINE
  5
62E4
  8
0
 10
325.3884686131991089
 20
4.0789592013150111
 30
0.0
 11
325.398423161701885
 21
4.0856683923169017
 31
0.0
  0
LINE
  5
62E5
  8
0
 10
325.3949782001990911
 20
4.0699515038150107
 30
0.0
 11
325.4098611902406901
 21
4.0799861276150109
 31
0.0
  0
LINE
  5
62E6
  8
0
 10
325.3572144155991168
 20
4.0688841143150114
 30
0.0
 11
325.3583186619990784
 21
4.0684956296150112
 31
0.0
  0
LINE
  5
62E7
  8
0
 10
325.3583186619990784
 20
4.0684956296150112
 30
0.0
 11
325.3902059394990829
 21
4.0684955019150113
 31
0.0
  0
LINE
  5
62E8
  8
0
 10
325.3902059394990829
 20
4.0684955019150113
 30
0.0
 11
325.3913099038987866
 21
4.0688841143152166
 31
0.0
  0
ARC
  5
62E9
  8
0
 10
325.3504838700324058
 20
4.0754685822180061
 30
0.0
 40
0.0095728037373393
 50
340.5389881286855029
 51
359.1854071254455221
  0
ARC
  5
62EA
  8
0
 10
325.3529225441574795
 20
4.0742591915199267
 30
0.0
 40
0.0068783439452858
 50
308.6065339385484094
 51
343.270679160816087
  0
LINE
  5
62EB
  8
0
 10
325.350101157799088
 20
4.0856683923150108
 30
0.0
 11
325.3600557062990788
 21
4.0789592013150111
 31
0.0
  0
LINE
  5
62EC
  8
0
 10
325.3600557062990788
 20
4.0789592013150111
 30
0.0
 11
325.3600557062990788
 21
4.075332487115026
 31
0.0
  0
LINE
  5
62ED
  8
0
 10
325.3600557062990788
 20
4.0789592013150111
 30
0.0
 11
325.3884686131991089
 21
4.0789592013150111
 31
0.0
  0
ARC
  5
62EE
  8
0
 10
325.3571684632626102
 20
4.0755440275107579
 30
0.0
 40
0.0066600717258032
 50
237.0616293835653039
 51
270.3953254462510927
  0
LINE
  5
62EF
  8
0
 10
325.353547138399108
 20
4.0699545229150198
 30
0.0
 11
325.3386630643141189
 21
4.0799861276150109
 31
0.0
  0
ARC
  5
62F0
  8
0
 10
325.4425010418520969
 20
4.0410869460427827
 30
0.0
 40
0.0066726449957093
 50
269.5886483020195783
 51
302.8589034399964817
  0
ARC
  5
62F1
  8
0
 10
325.4492418883133951
 20
4.0410107051334734
 30
0.0
 40
0.0096311776606889
 50
180.8796481618757923
 51
202.682370915378101
  0
ARC
  5
62F2
  8
0
 10
325.4465364024110841
 20
4.0395903729472407
 30
0.0
 40
0.0065926475283548
 50
200.359678815167598
 51
231.7301013862004027
  0
LINE
  5
62F3
  8
0
 10
325.4396118456991189
 20
4.0444895600150099
 30
0.0
 11
325.4396118456991189
 21
4.0408628458150107
 31
0.0
  0
LINE
  5
62F4
  8
0
 10
325.4396118456991189
 20
4.0444895600150099
 30
0.0
 11
325.449566394201895
 21
4.0511987510169032
 31
0.0
  0
LINE
  5
62F5
  8
0
 10
325.4461214326991012
 20
4.0354818625150113
 30
0.0
 11
325.4610044227407002
 21
4.0455164863150106
 31
0.0
  0
LINE
  5
62F6
  8
0
 10
325.4083576480991269
 20
4.0344144730150111
 30
0.0
 11
325.4094618944990884
 21
4.0340259883150109
 31
0.0
  0
LINE
  5
62F7
  8
0
 10
325.4094618944990884
 20
4.0340259883150109
 30
0.0
 11
325.441349171999093
 21
4.034025860615011
 31
0.0
  0
LINE
  5
62F8
  8
0
 10
325.441349171999093
 20
4.034025860615011
 30
0.0
 11
325.4424531363989104
 21
4.0344144730152181
 31
0.0
  0
ARC
  5
62F9
  8
0
 10
325.4016271025324158
 20
4.0409989409180049
 30
0.0
 40
0.0095728037373393
 50
340.5389881286855029
 51
359.1854071254455221
  0
ARC
  5
62FA
  8
0
 10
325.4040657766576032
 20
4.0397895502199272
 30
0.0
 40
0.0068783439452858
 50
308.6065339385484094
 51
343.270679160816087
  0
LINE
  5
62FB
  8
0
 10
325.4012443902990981
 20
4.0511987510150114
 30
0.0
 11
325.4111989387990889
 21
4.0444895600150099
 31
0.0
  0
LINE
  5
62FC
  8
0
 10
325.4111989387990889
 20
4.0444895600150099
 30
0.0
 11
325.4111989387990889
 21
4.0408628458150266
 31
0.0
  0
LINE
  5
62FD
  8
0
 10
325.4111989387990889
 20
4.0444895600150099
 30
0.0
 11
325.4396118456991189
 21
4.0444895600150099
 31
0.0
  0
ARC
  5
62FE
  8
0
 10
325.4083116957626203
 20
4.0410743862107594
 30
0.0
 40
0.0066600717258032
 50
237.0616293835653039
 51
270.3953254462510927
  0
LINE
  5
62FF
  8
0
 10
325.4046903708990044
 20
4.0354848816150213
 30
0.0
 11
325.3898062968140721
 21
4.0455164863150106
 31
0.0
  0
ARC
  5
6300
  8
0
 10
325.4425010418520969
 20
4.0640667069427829
 30
0.0
 40
0.0066726449957093
 50
269.5886483020195783
 51
302.8589034399964817
  0
ARC
  5
6301
  8
0
 10
325.4492418883133951
 20
4.0639904660334727
 30
0.0
 40
0.0096311776606889
 50
180.8796481618757923
 51
202.682370915378101
  0
ARC
  5
6302
  8
0
 10
325.4465364024110841
 20
4.0625701338472409
 30
0.0
 40
0.0065926475283548
 50
200.359678815167598
 51
231.7301013862004027
  0
LINE
  5
6303
  8
0
 10
325.4396118456991189
 20
4.067469320915011
 30
0.0
 11
325.4396118456991189
 21
4.0638426067150117
 31
0.0
  0
LINE
  5
6304
  8
0
 10
325.4396118456991189
 20
4.067469320915011
 30
0.0
 11
325.449566394201895
 21
4.0741785119169034
 31
0.0
  0
LINE
  5
6305
  8
0
 10
325.4461214326991012
 20
4.0584616234150124
 30
0.0
 11
325.4610044227407002
 21
4.0684962472150117
 31
0.0
  0
LINE
  5
6306
  8
0
 10
325.4083576480991269
 20
4.0573942339150122
 30
0.0
 11
325.4094618944990884
 21
4.057005749215012
 31
0.0
  0
LINE
  5
6307
  8
0
 10
325.4094618944990884
 20
4.057005749215012
 30
0.0
 11
325.441349171999093
 21
4.0570056215150121
 31
0.0
  0
LINE
  5
6308
  8
0
 10
325.441349171999093
 20
4.0570056215150121
 30
0.0
 11
325.4424531363989104
 21
4.0573942339152183
 31
0.0
  0
ARC
  5
6309
  8
0
 10
325.4016271025324158
 20
4.063978701818006
 30
0.0
 40
0.0095728037373393
 50
340.5389881286855029
 51
359.1854071254455221
  0
ARC
  5
630A
  8
0
 10
325.4040657766576032
 20
4.0627693111199283
 30
0.0
 40
0.0068783439452858
 50
308.6065339385484094
 51
343.270679160816087
  0
LINE
  5
630B
  8
0
 10
325.4012443902990981
 20
4.0741785119150116
 30
0.0
 11
325.4111989387990889
 21
4.067469320915011
 31
0.0
  0
LINE
  5
630C
  8
0
 10
325.4111989387990889
 20
4.067469320915011
 30
0.0
 11
325.4111989387990889
 21
4.0638426067150268
 31
0.0
  0
LINE
  5
630D
  8
0
 10
325.4111989387990889
 20
4.067469320915011
 30
0.0
 11
325.4396118456991189
 21
4.067469320915011
 31
0.0
  0
ARC
  5
630E
  8
0
 10
325.4083116957626203
 20
4.0640541471107587
 30
0.0
 40
0.0066600717258032
 50
237.0616293835653039
 51
270.3953254462510927
  0
LINE
  5
630F
  8
0
 10
325.4046903708990044
 20
4.0584646425150206
 30
0.0
 11
325.3898062968140721
 21
4.0684962472150117
 31
0.0
  0
ARC
  5
6310
  8
0
 10
325.4425010418520969
 20
4.087046467742784
 30
0.0
 40
0.0066726449957093
 50
269.5886483020195783
 51
302.8589034399964817
  0
ARC
  5
6311
  8
0
 10
325.4492418883133951
 20
4.0869702268334729
 30
0.0
 40
0.0096311776606889
 50
180.8796481618757923
 51
202.682370915378101
  0
ARC
  5
6312
  8
0
 10
325.4465364024110841
 20
4.0855498946472411
 30
0.0
 40
0.0065926475283548
 50
200.359678815167598
 51
231.7301013862004027
  0
LINE
  5
6313
  8
0
 10
325.4396118456991189
 20
4.0904490817150112
 30
0.0
 11
325.4396118456991189
 21
4.086822367515011
 31
0.0
  0
LINE
  5
6314
  8
0
 10
325.4396118456991189
 20
4.0904490817150112
 30
0.0
 11
325.449566394201895
 21
4.0971582727169027
 31
0.0
  0
LINE
  5
6315
  8
0
 10
325.4461214326991012
 20
4.0814413842150108
 30
0.0
 11
325.4610044227407002
 21
4.091476008015011
 31
0.0
  0
LINE
  5
6316
  8
0
 10
325.4083576480991269
 20
4.0803739947150124
 30
0.0
 11
325.4094618944990884
 21
4.0799855100150122
 31
0.0
  0
LINE
  5
6317
  8
0
 10
325.4094618944990884
 20
4.0799855100150122
 30
0.0
 11
325.441349171999093
 21
4.0799853823150123
 31
0.0
  0
LINE
  5
6318
  8
0
 10
325.441349171999093
 20
4.0799853823150123
 30
0.0
 11
325.4424531363989104
 21
4.0803739947152176
 31
0.0
  0
ARC
  5
6319
  8
0
 10
325.4016271025324158
 20
4.0869584626180062
 30
0.0
 40
0.0095728037373393
 50
340.5389881286855029
 51
359.1854071254455221
  0
ARC
  5
631A
  8
0
 10
325.4040657766576032
 20
4.0857490719199268
 30
0.0
 40
0.0068783439452858
 50
308.6065339385484094
 51
343.270679160816087
  0
LINE
  5
631B
  8
0
 10
325.4012443902990981
 20
4.0971582727150109
 30
0.0
 11
325.4111989387990889
 21
4.0904490817150112
 31
0.0
  0
LINE
  5
631C
  8
0
 10
325.4111989387990889
 20
4.0904490817150112
 30
0.0
 11
325.4111989387990889
 21
4.086822367515027
 31
0.0
  0
LINE
  5
631D
  8
0
 10
325.4111989387990889
 20
4.0904490817150112
 30
0.0
 11
325.4396118456991189
 21
4.0904490817150112
 31
0.0
  0
ARC
  5
631E
  8
0
 10
325.4083116957626203
 20
4.0870339079107589
 30
0.0
 40
0.0066600717258032
 50
237.0616293835653039
 51
270.3953254462510927
  0
LINE
  5
631F
  8
0
 10
325.4046903708990044
 20
4.0814444033150208
 30
0.0
 11
325.3898062968140721
 21
4.091476008015011
 31
0.0
  0
ARC
  5
6320
  8
0
 10
325.493644274352107
 20
4.0525768264427837
 30
0.0
 40
0.0066726449957093
 50
269.5886483020195783
 51
302.8589034399964817
  0
ARC
  5
6321
  8
0
 10
325.5003851208134051
 20
4.0525005855334726
 30
0.0
 40
0.0096311776606889
 50
180.8796481618757923
 51
202.682370915378101
  0
ARC
  5
6322
  8
0
 10
325.4976796349110941
 20
4.0510802533472408
 30
0.0
 40
0.0065926475283548
 50
200.359678815167598
 51
231.7301013862004027
  0
LINE
  5
6323
  8
0
 10
325.4907550781990722
 20
4.0559794404150109
 30
0.0
 11
325.4907550781990722
 21
4.0523527262150116
 31
0.0
  0
LINE
  5
6324
  8
0
 10
325.4907550781990722
 20
4.0559794404150109
 30
0.0
 11
325.5007096267019051
 21
4.0626886314169033
 31
0.0
  0
LINE
  5
6325
  8
0
 10
325.4972646651991113
 20
4.0469717429150123
 30
0.0
 11
325.512147655240824
 21
4.0570063667150107
 31
0.0
  0
LINE
  5
6326
  8
0
 10
325.4595008805990801
 20
4.0459043534150121
 30
0.0
 11
325.4606051269990985
 21
4.0455158687150119
 31
0.0
  0
LINE
  5
6327
  8
0
 10
325.4606051269990985
 20
4.0455158687150119
 30
0.0
 11
325.492492404499103
 21
4.0455157410150111
 31
0.0
  0
LINE
  5
6328
  8
0
 10
325.492492404499103
 20
4.0455157410150111
 30
0.0
 11
325.4935963688989204
 21
4.0459043534152181
 31
0.0
  0
ARC
  5
6329
  8
0
 10
325.4527703350324259
 20
4.052488821318005
 30
0.0
 40
0.0095728037373393
 50
340.5389881286855029
 51
359.1854071254455221
  0
ARC
  5
632A
  8
0
 10
325.4552090091574996
 20
4.0512794306199282
 30
0.0
 40
0.0068783439452858
 50
308.6065339385484094
 51
343.270679160816087
  0
LINE
  5
632B
  8
0
 10
325.4523876227991082
 20
4.0626886314150124
 30
0.0
 11
325.4623421712990989
 21
4.0559794404150109
 31
0.0
  0
LINE
  5
632C
  8
0
 10
325.4623421712990989
 20
4.0559794404150109
 30
0.0
 11
325.4623421712990989
 21
4.0523527262150267
 31
0.0
  0
LINE
  5
632D
  8
0
 10
325.4623421712990989
 20
4.0559794404150109
 30
0.0
 11
325.4907550781990722
 21
4.0559794404150109
 31
0.0
  0
ARC
  5
632E
  8
0
 10
325.4594549282625735
 20
4.0525642666107604
 30
0.0
 40
0.0066600717258032
 50
237.0616293835653039
 51
270.3953254462510927
  0
LINE
  5
632F
  8
0
 10
325.4558336033991282
 20
4.0469747620150223
 30
0.0
 11
325.4409495293140822
 21
4.0570063667150107
 31
0.0
  0
ARC
  5
6330
  8
0
 10
325.493644274352107
 20
4.075556587342783
 30
0.0
 40
0.0066726449957093
 50
269.5886483020195783
 51
302.8589034399964817
  0
ARC
  5
6331
  8
0
 10
325.5003851208134051
 20
4.0754803464334719
 30
0.0
 40
0.0096311776606889
 50
180.8796481618757923
 51
202.682370915378101
  0
ARC
  5
6332
  8
0
 10
325.4976796349110941
 20
4.0740600142472401
 30
0.0
 40
0.0065926475283548
 50
200.359678815167598
 51
231.7301013862004027
  0
LINE
  5
6333
  8
0
 10
325.4907550781990722
 20
4.0789592013150111
 30
0.0
 11
325.4907550781990722
 21
4.0753324871150109
 31
0.0
  0
LINE
  5
6334
  8
0
 10
325.4907550781990722
 20
4.0789592013150111
 30
0.0
 11
325.5007096267019051
 21
4.0856683923169017
 31
0.0
  0
LINE
  5
6335
  8
0
 10
325.4972646651991113
 20
4.0699515038150107
 30
0.0
 11
325.512147655240824
 21
4.0799861276150109
 31
0.0
  0
LINE
  5
6336
  8
0
 10
325.4595008805990801
 20
4.0688841143150114
 30
0.0
 11
325.4606051269990985
 21
4.0684956296150112
 31
0.0
  0
LINE
  5
6337
  8
0
 10
325.4606051269990985
 20
4.0684956296150112
 30
0.0
 11
325.492492404499103
 21
4.0684955019150113
 31
0.0
  0
LINE
  5
6338
  8
0
 10
325.492492404499103
 20
4.0684955019150113
 30
0.0
 11
325.4935963688989204
 21
4.0688841143152166
 31
0.0
  0
ARC
  5
6339
  8
0
 10
325.4527703350324259
 20
4.0754685822180061
 30
0.0
 40
0.0095728037373393
 50
340.5389881286855029
 51
359.1854071254455221
  0
ARC
  5
633A
  8
0
 10
325.4552090091574996
 20
4.0742591915199267
 30
0.0
 40
0.0068783439452858
 50
308.6065339385484094
 51
343.270679160816087
  0
LINE
  5
633B
  8
0
 10
325.4523876227991082
 20
4.0856683923150108
 30
0.0
 11
325.4623421712990989
 21
4.0789592013150111
 31
0.0
  0
LINE
  5
633C
  8
0
 10
325.4623421712990989
 20
4.0789592013150111
 30
0.0
 11
325.4623421712990989
 21
4.075332487115026
 31
0.0
  0
LINE
  5
633D
  8
0
 10
325.4623421712990989
 20
4.0789592013150111
 30
0.0
 11
325.4907550781990722
 21
4.0789592013150111
 31
0.0
  0
ARC
  5
633E
  8
0
 10
325.4594549282625735
 20
4.0755440275107579
 30
0.0
 40
0.0066600717258032
 50
237.0616293835653039
 51
270.3953254462510927
  0
LINE
  5
633F
  8
0
 10
325.4558336033991282
 20
4.0699545229150198
 30
0.0
 11
325.4409495293140822
 21
4.0799861276150109
 31
0.0
  0
ARC
  5
6340
  8
0
 10
325.493644274352107
 20
4.0985363481427841
 30
0.0
 40
0.0066726449957093
 50
269.5886483020195783
 51
302.8589034399964817
  0
ARC
  5
6341
  8
0
 10
325.5003851208134051
 20
4.0984601072334721
 30
0.0
 40
0.0096311776606889
 50
180.8796481618757923
 51
202.682370915378101
  0
ARC
  5
6342
  8
0
 10
325.4976796349110941
 20
4.0970397750472412
 30
0.0
 40
0.0065926475283548
 50
200.359678815167598
 51
231.7301013862004027
  0
LINE
  5
6343
  8
0
 10
325.4907550781990722
 20
4.1019389621150122
 30
0.0
 11
325.4907550781990722
 21
4.098312247915012
 31
0.0
  0
LINE
  5
6344
  8
0
 10
325.4907550781990722
 20
4.1019389621150122
 30
0.0
 11
325.5007096267019051
 21
4.1086481531169019
 31
0.0
  0
LINE
  5
6345
  8
0
 10
325.4972646651991113
 20
4.0929312646150118
 30
0.0
 11
325.512147655240824
 21
4.1029658884150111
 31
0.0
  0
LINE
  5
6346
  8
0
 10
325.4595008805990801
 20
4.0918638751150107
 30
0.0
 11
325.4606051269990985
 21
4.0914753904150123
 31
0.0
  0
LINE
  5
6347
  8
0
 10
325.4606051269990985
 20
4.0914753904150123
 30
0.0
 11
325.492492404499103
 21
4.0914752627150106
 31
0.0
  0
LINE
  5
6348
  8
0
 10
325.492492404499103
 20
4.0914752627150106
 30
0.0
 11
325.4935963688989204
 21
4.0918638751152168
 31
0.0
  0
ARC
  5
6349
  8
0
 10
325.4527703350324259
 20
4.0984483430180063
 30
0.0
 40
0.0095728037373393
 50
340.5389881286855029
 51
359.1854071254455221
  0
ARC
  5
634A
  8
0
 10
325.4552090091574996
 20
4.0972389523199277
 30
0.0
 40
0.0068783439452858
 50
308.6065339385484094
 51
343.270679160816087
  0
LINE
  5
634B
  8
0
 10
325.4523876227991082
 20
4.1086481531150119
 30
0.0
 11
325.4623421712990989
 21
4.1019389621150122
 31
0.0
  0
LINE
  5
634C
  8
0
 10
325.4623421712990989
 20
4.1019389621150122
 30
0.0
 11
325.4623421712990989
 21
4.0983122479150271
 31
0.0
  0
LINE
  5
634D
  8
0
 10
325.4623421712990989
 20
4.1019389621150122
 30
0.0
 11
325.4907550781990722
 21
4.1019389621150122
 31
0.0
  0
ARC
  5
634E
  8
0
 10
325.4594549282625735
 20
4.098523788310759
 30
0.0
 40
0.0066600717258032
 50
237.0616293835653039
 51
270.3953254462510927
  0
LINE
  5
634F
  8
0
 10
325.4558336033991282
 20
4.0929342837150209
 30
0.0
 11
325.4409495293140822
 21
4.1029658884150111
 31
0.0
  0
ARC
  5
6350
  8
0
 10
325.5447875068520034
 20
4.087046467742784
 30
0.0
 40
0.0066726449957093
 50
269.5886483020195783
 51
302.8589034399964817
  0
ARC
  5
6351
  8
0
 10
325.5515283533134152
 20
4.0869702268334729
 30
0.0
 40
0.0096311776606889
 50
180.8796481618757923
 51
202.682370915378101
  0
ARC
  5
6352
  8
0
 10
325.5488228674111042
 20
4.0855498946472411
 30
0.0
 40
0.0065926475283548
 50
200.359678815167598
 51
231.7301013862004027
  0
LINE
  5
6353
  8
0
 10
325.5418983106990822
 20
4.0904490817150112
 30
0.0
 11
325.5418983106990822
 21
4.086822367515011
 31
0.0
  0
LINE
  5
6354
  8
0
 10
325.5418983106990822
 20
4.0904490817150112
 30
0.0
 11
325.5518528592019152
 21
4.0971582727169027
 31
0.0
  0
LINE
  5
6355
  8
0
 10
325.5484078976991213
 20
4.0814413842150108
 30
0.0
 11
325.5632908877407772
 21
4.091476008015011
 31
0.0
  0
LINE
  5
6356
  8
0
 10
325.5106441130990902
 20
4.0803739947150124
 30
0.0
 11
325.5117483594991086
 21
4.0799855100150122
 31
0.0
  0
LINE
  5
6357
  8
0
 10
325.5117483594991086
 20
4.0799855100150122
 30
0.0
 11
325.5436356369991131
 21
4.0799853823150123
 31
0.0
  0
LINE
  5
6358
  8
0
 10
325.5436356369991131
 20
4.0799853823150123
 30
0.0
 11
325.5447396013988168
 21
4.0803739947152176
 31
0.0
  0
ARC
  5
6359
  8
0
 10
325.5039135675323791
 20
4.0869584626180062
 30
0.0
 40
0.0095728037373393
 50
340.5389881286855029
 51
359.1854071254455221
  0
ARC
  5
635A
  8
0
 10
325.5063522416576234
 20
4.0857490719199268
 30
0.0
 40
0.0068783439452858
 50
308.6065339385484094
 51
343.270679160816087
  0
LINE
  5
635B
  8
0
 10
325.5035308552991182
 20
4.0971582727150109
 30
0.0
 11
325.513485403799109
 21
4.0904490817150112
 31
0.0
  0
LINE
  5
635C
  8
0
 10
325.513485403799109
 20
4.0904490817150112
 30
0.0
 11
325.513485403799109
 21
4.086822367515027
 31
0.0
  0
LINE
  5
635D
  8
0
 10
325.513485403799109
 20
4.0904490817150112
 30
0.0
 11
325.5418983106990822
 21
4.0904490817150112
 31
0.0
  0
ARC
  5
635E
  8
0
 10
325.5105981607625836
 20
4.0870339079107589
 30
0.0
 40
0.0066600717258032
 50
237.0616293835653039
 51
270.3953254462510927
  0
LINE
  5
635F
  8
0
 10
325.5069768358990814
 20
4.0814444033150208
 30
0.0
 11
325.4920927618140922
 21
4.091476008015011
 31
0.0
  0
ARC
  5
6360
  8
0
 10
325.5447875068520034
 20
4.1100262285427842
 30
0.0
 40
0.0066726449957093
 50
269.5886483020195783
 51
302.8589034399964817
  0
ARC
  5
6361
  8
0
 10
325.5515283533134152
 20
4.1099499876334731
 30
0.0
 40
0.0096311776606889
 50
180.8796481618757923
 51
202.682370915378101
  0
ARC
  5
6362
  8
0
 10
325.5488228674111042
 20
4.1085296554472412
 30
0.0
 40
0.0065926475283548
 50
200.359678815167598
 51
231.7301013862004027
  0
LINE
  5
6363
  8
0
 10
325.5418983106990822
 20
4.1134288425150114
 30
0.0
 11
325.5418983106990822
 21
4.1098021283150121
 31
0.0
  0
LINE
  5
6364
  8
0
 10
325.5418983106990822
 20
4.1134288425150114
 30
0.0
 11
325.5518528592019152
 21
4.120138033516902
 31
0.0
  0
LINE
  5
6365
  8
0
 10
325.5484078976991213
 20
4.104421145015011
 30
0.0
 11
325.5632908877407772
 21
4.1144557688150112
 31
0.0
  0
LINE
  5
6366
  8
0
 10
325.5106441130990902
 20
4.1033537555150108
 30
0.0
 11
325.5117483594991086
 21
4.1029652708150124
 31
0.0
  0
LINE
  5
6367
  8
0
 10
325.5117483594991086
 20
4.1029652708150124
 30
0.0
 11
325.5436356369991131
 21
4.1029651431150107
 31
0.0
  0
LINE
  5
6368
  8
0
 10
325.5436356369991131
 20
4.1029651431150107
 30
0.0
 11
325.5447396013988168
 21
4.1033537555152169
 31
0.0
  0
ARC
  5
6369
  8
0
 10
325.5039135675323791
 20
4.1099382234180046
 30
0.0
 40
0.0095728037373393
 50
340.5389881286855029
 51
359.1854071254455221
  0
ARC
  5
636A
  8
0
 10
325.5063522416576234
 20
4.1087288327199269
 30
0.0
 40
0.0068783439452858
 50
308.6065339385484094
 51
343.270679160816087
  0
LINE
  5
636B
  8
0
 10
325.5035308552991182
 20
4.1201380335150111
 30
0.0
 11
325.513485403799109
 21
4.1134288425150114
 31
0.0
  0
LINE
  5
636C
  8
0
 10
325.513485403799109
 20
4.1134288425150114
 30
0.0
 11
325.513485403799109
 21
4.1098021283150272
 31
0.0
  0
LINE
  5
636D
  8
0
 10
325.513485403799109
 20
4.1134288425150114
 30
0.0
 11
325.5418983106990822
 21
4.1134288425150114
 31
0.0
  0
ARC
  5
636E
  8
0
 10
325.5105981607625836
 20
4.11001366871076
 30
0.0
 40
0.0066600717258032
 50
237.0616293835653039
 51
270.3953254462510927
  0
LINE
  5
636F
  8
0
 10
325.5069768358990814
 20
4.104424164115021
 30
0.0
 11
325.4920927618140922
 21
4.1144557688150112
 31
0.0
  0
ARC
  5
6370
  8
0
 10
325.5447875068520034
 20
4.1330059894427844
 30
0.0
 40
0.0066726449957093
 50
269.5886483020195783
 51
302.8589034399964817
  0
ARC
  5
6371
  8
0
 10
325.5515283533134152
 20
4.1329297485334733
 30
0.0
 40
0.0096311776606889
 50
180.8796481618757923
 51
202.682370915378101
  0
ARC
  5
6372
  8
0
 10
325.5488228674111042
 20
4.1315094163472406
 30
0.0
 40
0.0065926475283548
 50
200.359678815167598
 51
231.7301013862004027
  0
LINE
  5
6373
  8
0
 10
325.5418983106990822
 20
4.1364086034150107
 30
0.0
 11
325.5418983106990822
 21
4.1327818892150123
 31
0.0
  0
LINE
  5
6374
  8
0
 10
325.5418983106990822
 20
4.1364086034150107
 30
0.0
 11
325.5518528592019152
 21
4.1431177944169031
 31
0.0
  0
LINE
  5
6375
  8
0
 10
325.5484078976991213
 20
4.1274009059150121
 30
0.0
 11
325.5632908877407772
 21
4.1374355297150114
 31
0.0
  0
LINE
  5
6376
  8
0
 10
325.5106441130990902
 20
4.126333516415011
 30
0.0
 11
325.5117483594991086
 21
4.1259450317150117
 31
0.0
  0
LINE
  5
6377
  8
0
 10
325.5117483594991086
 20
4.1259450317150117
 30
0.0
 11
325.5436356369991131
 21
4.1259449040150109
 31
0.0
  0
LINE
  5
6378
  8
0
 10
325.5436356369991131
 20
4.1259449040150109
 30
0.0
 11
325.5447396013988168
 21
4.1263335164152171
 31
0.0
  0
ARC
  5
6379
  8
0
 10
325.5039135675323791
 20
4.1329179843180048
 30
0.0
 40
0.0095728037373393
 50
340.5389881286855029
 51
359.1854071254455221
  0
ARC
  5
637A
  8
0
 10
325.5063522416576234
 20
4.131708593619928
 30
0.0
 40
0.0068783439452858
 50
308.6065339385484094
 51
343.270679160816087
  0
LINE
  5
637B
  8
0
 10
325.5035308552991182
 20
4.1431177944150122
 30
0.0
 11
325.513485403799109
 21
4.1364086034150107
 31
0.0
  0
LINE
  5
637C
  8
0
 10
325.513485403799109
 20
4.1364086034150107
 30
0.0
 11
325.513485403799109
 21
4.1327818892150274
 31
0.0
  0
LINE
  5
637D
  8
0
 10
325.513485403799109
 20
4.1364086034150107
 30
0.0
 11
325.5418983106990822
 21
4.1364086034150107
 31
0.0
  0
ARC
  5
637E
  8
0
 10
325.5105981607625836
 20
4.1329934296107602
 30
0.0
 40
0.0066600717258032
 50
237.0616293835653039
 51
270.3953254462510927
  0
LINE
  5
637F
  8
0
 10
325.5069768358990814
 20
4.1274039250150221
 30
0.0
 11
325.4920927618140922
 21
4.1374355297150114
 31
0.0
  0
ARC
  5
6380
  8
0
 10
325.2890713443019877
 20
4.1215161090427834
 30
0.0
 40
0.0066726449957093
 50
269.5886483020195783
 51
302.8589034399964817
  0
ARC
  5
6381
  8
0
 10
325.2958121907633995
 20
4.1214398681334732
 30
0.0
 40
0.0096311776606889
 50
180.8796481618757923
 51
202.682370915378101
  0
ARC
  5
6382
  8
0
 10
325.2931067048610885
 20
4.1200195359472414
 30
0.0
 40
0.0065926475283548
 50
200.359678815167598
 51
231.7301013862004027
  0
LINE
  5
6383
  8
0
 10
325.2861821481491233
 20
4.1249187230150106
 30
0.0
 11
325.2861821481491233
 21
4.1212920088150122
 31
0.0
  0
LINE
  5
6384
  8
0
 10
325.2861821481491233
 20
4.1249187230150106
 30
0.0
 11
325.2961366966518995
 21
4.1316279140169021
 31
0.0
  0
LINE
  5
6385
  8
0
 10
325.2926917351491056
 20
4.1159110255150111
 30
0.0
 11
325.3075747251908183
 21
4.1259456493150122
 31
0.0
  0
LINE
  5
6386
  8
0
 10
325.2549279505490745
 20
4.1148436360150109
 30
0.0
 11
325.2560321969490928
 21
4.1144551513150107
 31
0.0
  0
LINE
  5
6387
  8
0
 10
325.2560321969490928
 20
4.1144551513150107
 30
0.0
 11
325.2879194744490974
 21
4.1144550236150108
 31
0.0
  0
LINE
  5
6388
  8
0
 10
325.2879194744490974
 20
4.1144550236150108
 30
0.0
 11
325.2890234388488011
 21
4.114843636015217
 31
0.0
  0
ARC
  5
6389
  8
0
 10
325.2481974049824203
 20
4.1214281039180056
 30
0.0
 40
0.0095728037373393
 50
340.5389881286855029
 51
359.1854071254455221
  0
ARC
  5
638A
  8
0
 10
325.2506360791076077
 20
4.1202187132199271
 30
0.0
 40
0.0068783439452858
 50
308.6065339385484094
 51
343.270679160816087
  0
LINE
  5
638B
  8
0
 10
325.2478146927491025
 20
4.1316279140150121
 30
0.0
 11
325.2577692412490933
 21
4.1249187230150106
 31
0.0
  0
LINE
  5
638C
  8
0
 10
325.2577692412490933
 20
4.1249187230150106
 30
0.0
 11
325.2577692412490933
 21
4.1212920088150273
 31
0.0
  0
LINE
  5
638D
  8
0
 10
325.2577692412490933
 20
4.1249187230150106
 30
0.0
 11
325.2861821481491233
 21
4.1249187230150106
 31
0.0
  0
ARC
  5
638E
  8
0
 10
325.2548819982126247
 20
4.1215035492107592
 30
0.0
 40
0.0066600717258032
 50
237.0616293835653039
 51
270.3953254462510927
  0
LINE
  5
638F
  8
0
 10
325.2512606733491225
 20
4.1159140446150211
 30
0.0
 11
325.2363765992640765
 21
4.1259456493150122
 31
0.0
  0
ARC
  5
6390
  8
0
 10
325.1867848793020244
 20
4.190455391542784
 30
0.0
 40
0.0066726449957093
 50
269.5886483020195783
 51
302.8589034399964817
  0
ARC
  5
6391
  8
0
 10
325.1935257257633793
 20
4.1903791506334729
 30
0.0
 40
0.0096311776606889
 50
180.8796481618757923
 51
202.682370915378101
  0
ARC
  5
6392
  8
0
 10
325.1908202398611252
 20
4.1889588184472411
 30
0.0
 40
0.0065926475283548
 50
200.359678815167598
 51
231.7301013862004027
  0
LINE
  5
6393
  8
0
 10
325.1838956831491032
 20
4.1938580055150112
 30
0.0
 11
325.1838956831491032
 21
4.190231291315011
 31
0.0
  0
LINE
  5
6394
  8
0
 10
325.1838956831491032
 20
4.1938580055150112
 30
0.0
 11
325.1948897779166145
 21
4.2012678324566339
 31
0.0
  0
LINE
  5
6395
  8
0
 10
325.1904052701490855
 20
4.1848503080150108
 30
0.0
 11
325.2052882601906845
 21
4.194884931815011
 31
0.0
  0
LINE
  5
6396
  8
0
 10
325.1526414855491112
 20
4.1837829185150124
 30
0.0
 11
325.1537457319490727
 21
4.1833944338150122
 31
0.0
  0
LINE
  5
6397
  8
0
 10
325.1537457319490727
 20
4.1833944338150122
 30
0.0
 11
325.1856330094490772
 21
4.1833943061150123
 31
0.0
  0
LINE
  5
6398
  8
0
 10
325.1856330094490772
 20
4.1833943061150123
 30
0.0
 11
325.186736973848781
 21
4.1837829185152184
 31
0.0
  0
ARC
  5
6399
  8
0
 10
325.1459109399824001
 20
4.1903673864180062
 30
0.0
 40
0.0095728037373393
 50
340.5389881286855029
 51
359.1854071254455221
  0
ARC
  5
639A
  8
0
 10
325.1483496141074738
 20
4.1891579957199268
 30
0.0
 40
0.0068783439452858
 50
308.6065339385484094
 51
343.270679160816087
  0
LINE
  5
639B
  8
0
 10
325.1455282277490824
 20
4.2005671965150109
 30
0.0
 11
325.1554827762490731
 21
4.1938580055150112
 31
0.0
  0
LINE
  5
639C
  8
0
 10
325.1554827762490731
 20
4.1938580055150112
 30
0.0
 11
325.1554827762490731
 21
4.190231291315027
 31
0.0
  0
LINE
  5
639D
  8
0
 10
325.1554827762490731
 20
4.1938580055150112
 30
0.0
 11
325.1838956831491032
 21
4.1938580055150112
 31
0.0
  0
ARC
  5
639E
  8
0
 10
325.1525955332126046
 20
4.1904428317107589
 30
0.0
 40
0.0066600717258032
 50
237.0616293835653039
 51
270.3953254462510927
  0
LINE
  5
639F
  8
0
 10
325.1489742083491024
 20
4.1848533271150208
 30
0.0
 11
325.1340901342639995
 21
4.194884931815011
 31
0.0
  0
ARC
  5
63A0
  8
0
 10
325.1867848793020244
 20
4.0525768264427837
 30
0.0
 40
0.0066726449957093
 50
269.5886483020195783
 51
302.8589034399964817
  0
ARC
  5
63A1
  8
0
 10
325.1935257257633793
 20
4.0525005855334726
 30
0.0
 40
0.0096311776606889
 50
180.8796481618757923
 51
202.682370915378101
  0
ARC
  5
63A2
  8
0
 10
325.1908202398611252
 20
4.0510802533472408
 30
0.0
 40
0.0065926475283548
 50
200.359678815167598
 51
231.7301013862004027
  0
LINE
  5
63A3
  8
0
 10
325.1838956831491032
 20
4.0559794404150109
 30
0.0
 11
325.1838956831491032
 21
4.0523527262150116
 31
0.0
  0
LINE
  5
63A4
  8
0
 10
325.1838956831491032
 20
4.0559794404150109
 30
0.0
 11
325.1938502316518793
 21
4.0626886314169033
 31
0.0
  0
LINE
  5
63A5
  8
0
 10
325.1904052701490855
 20
4.0469717429150123
 30
0.0
 11
325.2052882601906845
 21
4.0570063667150107
 31
0.0
  0
LINE
  5
63A6
  8
0
 10
325.1526414855491112
 20
4.0459043534150121
 30
0.0
 11
325.1537457319490727
 21
4.0455158687150119
 31
0.0
  0
LINE
  5
63A7
  8
0
 10
325.1537457319490727
 20
4.0455158687150119
 30
0.0
 11
325.1856330094490772
 21
4.0455157410150111
 31
0.0
  0
LINE
  5
63A8
  8
0
 10
325.1856330094490772
 20
4.0455157410150111
 30
0.0
 11
325.186736973848781
 21
4.0459043534152181
 31
0.0
  0
ARC
  5
63A9
  8
0
 10
325.1459109399824001
 20
4.052488821318005
 30
0.0
 40
0.0095728037373393
 50
340.5389881286855029
 51
359.1854071254455221
  0
ARC
  5
63AA
  8
0
 10
325.1483496141074738
 20
4.0512794306199282
 30
0.0
 40
0.0068783439452858
 50
308.6065339385484094
 51
343.270679160816087
  0
LINE
  5
63AB
  8
0
 10
325.1455282277490824
 20
4.0626886314150124
 30
0.0
 11
325.1554827762490731
 21
4.0559794404150109
 31
0.0
  0
LINE
  5
63AC
  8
0
 10
325.1554827762490731
 20
4.0559794404150109
 30
0.0
 11
325.1554827762490731
 21
4.0523527262150267
 31
0.0
  0
LINE
  5
63AD
  8
0
 10
325.1554827762490731
 20
4.0559794404150109
 30
0.0
 11
325.1838956831491032
 21
4.0559794404150109
 31
0.0
  0
ARC
  5
63AE
  8
0
 10
325.1525955332126046
 20
4.0525642666107604
 30
0.0
 40
0.0066600717258032
 50
237.0616293835653039
 51
270.3953254462510927
  0
LINE
  5
63AF
  8
0
 10
325.1489742083491024
 20
4.0469747620150223
 30
0.0
 11
325.1340901342639995
 21
4.0570063667150107
 31
0.0
  0
ARC
  5
63B0
  8
0
 10
325.493644274352107
 20
4.1215161090427834
 30
0.0
 40
0.0066726449957093
 50
269.5886483020195783
 51
302.8589034399964817
  0
ARC
  5
63B1
  8
0
 10
325.5003851208134051
 20
4.1214398681334732
 30
0.0
 40
0.0096311776606889
 50
180.8796481618757923
 51
202.682370915378101
  0
ARC
  5
63B2
  8
0
 10
325.4976796349110941
 20
4.1200195359472414
 30
0.0
 40
0.0065926475283548
 50
200.359678815167598
 51
231.7301013862004027
  0
LINE
  5
63B3
  8
0
 10
325.4907550781990722
 20
4.1249187230150106
 30
0.0
 11
325.4907550781990722
 21
4.1212920088150122
 31
0.0
  0
LINE
  5
63B4
  8
0
 10
325.4907550781990722
 20
4.1249187230150106
 30
0.0
 11
325.5007096267019051
 21
4.1316279140169021
 31
0.0
  0
LINE
  5
63B5
  8
0
 10
325.4972646651991113
 20
4.1159110255150111
 30
0.0
 11
325.512147655240824
 21
4.1259456493150122
 31
0.0
  0
LINE
  5
63B6
  8
0
 10
325.4595008805990801
 20
4.1148436360150109
 30
0.0
 11
325.4606051269990985
 21
4.1144551513150107
 31
0.0
  0
LINE
  5
63B7
  8
0
 10
325.4606051269990985
 20
4.1144551513150107
 30
0.0
 11
325.492492404499103
 21
4.1144550236150108
 31
0.0
  0
LINE
  5
63B8
  8
0
 10
325.492492404499103
 20
4.1144550236150108
 30
0.0
 11
325.4935963688989204
 21
4.114843636015217
 31
0.0
  0
ARC
  5
63B9
  8
0
 10
325.4527703350324259
 20
4.1214281039180056
 30
0.0
 40
0.0095728037373393
 50
340.5389881286855029
 51
359.1854071254455221
  0
ARC
  5
63BA
  8
0
 10
325.4552090091574996
 20
4.1202187132199271
 30
0.0
 40
0.0068783439452858
 50
308.6065339385484094
 51
343.270679160816087
  0
LINE
  5
63BB
  8
0
 10
325.4523876227991082
 20
4.1316279140150121
 30
0.0
 11
325.4623421712990989
 21
4.1249187230150106
 31
0.0
  0
LINE
  5
63BC
  8
0
 10
325.4623421712990989
 20
4.1249187230150106
 30
0.0
 11
325.4623421712990989
 21
4.1212920088150273
 31
0.0
  0
LINE
  5
63BD
  8
0
 10
325.4623421712990989
 20
4.1249187230150106
 30
0.0
 11
325.4907550781990722
 21
4.1249187230150106
 31
0.0
  0
ARC
  5
63BE
  8
0
 10
325.4594549282625735
 20
4.1215035492107592
 30
0.0
 40
0.0066600717258032
 50
237.0616293835653039
 51
270.3953254462510927
  0
LINE
  5
63BF
  8
0
 10
325.4558336033991282
 20
4.1159140446150211
 30
0.0
 11
325.4409495293140822
 21
4.1259456493150122
 31
0.0
  0
LINE
  5
63C0
  8
0
 10
325.5321311969499902
 20
4.067469320915003
 30
0.0
 11
325.5472076939867065
 21
4.0773092717101651
 31
0.0
  0
LINE
  5
63C1
  8
0
 10
325.5106441130491248
 20
4.0573942339150033
 30
0.0
 11
325.5117483594490864
 21
4.057005749215004
 31
0.0
  0
LINE
  5
63C2
  8
0
 10
325.5117483594490864
 20
4.057005749215004
 30
0.0
 11
325.5274735367490848
 21
4.0570063668150107
 31
0.0
  0
ARC
  5
63C3
  8
0
 10
325.5039135674824138
 20
4.063978701817998
 30
0.0
 40
0.0095728037373393
 50
340.5389881286855029
 51
359.1854071254455221
  0
ARC
  5
63C4
  8
0
 10
325.5063522416074875
 20
4.0627693111199203
 30
0.0
 40
0.0068783439452858
 50
308.6065339385484094
 51
343.270679160816087
  0
LINE
  5
63C5
  8
0
 10
325.503530855249096
 20
4.0741785119150036
 30
0.0
 11
325.5134854037490868
 21
4.067469320915003
 31
0.0
  0
LINE
  5
63C6
  8
0
 10
325.5134854037490868
 20
4.067469320915003
 30
0.0
 11
325.5134854037490868
 21
4.063842606715018
 31
0.0
  0
LINE
  5
63C7
  8
0
 10
325.5134854037490868
 20
4.067469320915003
 30
0.0
 11
325.5321311969499902
 21
4.067469320915003
 31
0.0
  0
ARC
  5
63C8
  8
0
 10
325.5105981607126182
 20
4.0640541471107507
 30
0.0
 40
0.0066600717258032
 50
237.0616293835653039
 51
270.3953254462510927
  0
LINE
  5
63C9
  8
0
 10
325.506976835849116
 20
4.0584646425150126
 30
0.0
 11
325.4920927617641269
 21
4.0684962472150028
 31
0.0
  0
ARC
  5
63CA
  8
0
 10
325.5467775530823928
 20
4.0810486493179967
 30
0.0
 40
0.0095728037373393
 50
340.5389881286855029
 51
359.1854071254455221
  0
ARC
  5
63CB
  8
0
 10
325.5492162272075234
 20
4.079839258619919
 30
0.0
 40
0.0068783439452858
 50
308.6065339385484094
 51
343.270679160816087
  0
LINE
  5
63CC
  8
0
 10
325.5546756655487002
 20
4.0856673288848091
 30
0.0
 11
325.5563493893491227
 21
4.0845392684150026
 31
0.0
  0
LINE
  5
63CD
  8
0
 10
325.5563493893491227
 20
4.0845392684150026
 30
0.0
 11
325.5563493893491227
 21
4.0809125542150184
 31
0.0
  0
ARC
  5
63CE
  8
0
 10
325.5534621463125973
 20
4.0811240946107512
 30
0.0
 40
0.0066600717258032
 50
237.0616293835653039
 51
270.3953254462510927
  0
LINE
  5
63CF
  8
0
 10
325.5498408214490951
 20
4.0755345900150131
 30
0.0
 11
325.5432370977111987
 21
4.0799853839110538
 31
0.0
  0
LINE
  5
63D0
  8
0
 10
325.5617873455490781
 20
4.0918638751150036
 30
0.0
 11
325.5628915919490964
 21
4.0914753904150043
 31
0.0
  0
LINE
  5
63D1
  8
0
 10
325.5628915919490964
 20
4.0914753904150043
 30
0.0
 11
325.5803435076491041
 21
4.0914753205247578
 31
0.0
  0
ARC
  5
63D2
  8
0
 10
325.5550567999824239
 20
4.0984483430179983
 30
0.0
 40
0.0095728037373393
 50
340.5389881286855029
 51
359.1854071254455221
  0
ARC
  5
63D3
  8
0
 10
325.5574954741076112
 20
4.0972389523199189
 30
0.0
 40
0.0068783439452858
 50
308.6065339385484094
 51
343.270679160816087
  0
LINE
  5
63D4
  8
0
 10
325.5546740877491061
 20
4.108648153115003
 30
0.0
 11
325.5646286362490969
 21
4.1019389621150033
 31
0.0
  0
LINE
  5
63D5
  8
0
 10
325.5646286362490969
 20
4.1019389621150033
 30
0.0
 11
325.5646286362490969
 21
4.09831224791502
 31
0.0
  0
LINE
  5
63D6
  8
0
 10
325.5646286362490969
 20
4.1019389621150033
 30
0.0
 11
325.5831854705824071
 21
4.1019389621150033
 31
0.0
  0
ARC
  5
63D7
  8
0
 10
325.5617413932126283
 20
4.098523788310751
 30
0.0
 40
0.0066600717258032
 50
237.0616293835653039
 51
270.3953254462510927
  0
LINE
  5
63D8
  8
0
 10
325.5581200683490124
 20
4.0929342837150129
 30
0.0
 11
325.5432359942640801
 21
4.1029658884150031
 31
0.0
  0
LINE
  5
63D9
  8
0
 10
325.5617873455490781
 20
4.1148436360150029
 30
0.0
 11
325.5628915919490964
 21
4.1144551513150036
 31
0.0
  0
LINE
  5
63DA
  8
0
 10
325.5628915919490964
 20
4.1144551513150036
 30
0.0
 11
325.583515426543272
 21
4.1144550687220729
 31
0.0
  0
ARC
  5
63DB
  8
0
 10
325.5550567999824239
 20
4.1214281039179967
 30
0.0
 40
0.0095728037373393
 50
340.5389881286855029
 51
359.1854071254455221
  0
ARC
  5
63DC
  8
0
 10
325.5574954741076112
 20
4.1202187132199191
 30
0.0
 40
0.0068783439452858
 50
308.6065339385484094
 51
343.270679160816087
  0
LINE
  5
63DD
  8
0
 10
325.5546740877491061
 20
4.1316279140150041
 30
0.0
 11
325.5646286362490969
 21
4.1249187230150026
 31
0.0
  0
LINE
  5
63DE
  8
0
 10
325.5646286362490969
 20
4.1249187230150026
 30
0.0
 11
325.5646286362490969
 21
4.1212920088150193
 31
0.0
  0
LINE
  5
63DF
  8
0
 10
325.5646286362490969
 20
4.1249187230150026
 30
0.0
 11
325.5811930244537962
 21
4.1249187230150026
 31
0.0
  0
ARC
  5
63E0
  8
0
 10
325.5617413932126283
 20
4.1215035492107521
 30
0.0
 40
0.0066600717258032
 50
237.0616293835653039
 51
270.3953254462510927
  0
LINE
  5
63E1
  8
0
 10
325.5581200683490124
 20
4.1159140446150131
 30
0.0
 11
325.5432359942640801
 21
4.1259456493150033
 31
0.0
  0
LINE
  5
63E2
  8
0
 10
325.5617873455490781
 20
4.1378233968150031
 30
0.0
 11
325.5628915919490964
 21
4.1374349121150029
 31
0.0
  0
LINE
  5
63E3
  8
0
 10
325.5628915919490964
 20
4.1374349121150029
 30
0.0
 11
325.57589713023782
 21
4.1374348600313091
 31
0.0
  0
ARC
  5
63E4
  8
0
 10
325.5550567999824239
 20
4.1444078647179969
 30
0.0
 40
0.0095728037373393
 50
340.5389881286855029
 51
359.1854071254455221
  0
ARC
  5
63E5
  8
0
 10
325.5574954741076112
 20
4.1431984740199201
 30
0.0
 40
0.0068783439452858
 50
308.6065339385484094
 51
343.270679160816087
  0
LINE
  5
63E6
  8
0
 10
325.5546740877491061
 20
4.1546076748150043
 30
0.0
 11
325.5646286362490969
 21
4.1478984838150028
 31
0.0
  0
LINE
  5
63E7
  8
0
 10
325.5646286362490969
 20
4.1478984838150028
 30
0.0
 11
325.5646286362490969
 21
4.1442717696150178
 31
0.0
  0
LINE
  5
63E8
  8
0
 10
325.5646286362490969
 20
4.1478984838150028
 30
0.0
 11
325.5687901665290838
 21
4.1478984838150019
 31
0.0
  0
ARC
  5
63E9
  8
0
 10
325.5617413932126283
 20
4.1444833100107514
 30
0.0
 40
0.0066600717258032
 50
237.0616293835653039
 51
270.3953254462510927
  0
LINE
  5
63EA
  8
0
 10
325.5581200683490124
 20
4.1388938054150133
 30
0.0
 11
325.5432359942640801
 21
4.1489254101150026
 31
0.0
  0
LINE
  5
63EB
  8
0
 10
325.5106441130491248
 20
4.1722930380650034
 30
0.0
 11
325.5117483594490864
 21
4.1719045533650041
 31
0.0
  0
LINE
  5
63EC
  8
0
 10
325.5117483594490864
 20
4.1719045533650041
 30
0.0
 11
325.5399954093854831
 21
4.1719044402431393
 31
0.0
  0
ARC
  5
63ED
  8
0
 10
325.5039135674824138
 20
4.1788775059679981
 30
0.0
 40
0.0095728037373393
 50
340.5389881286855029
 51
359.1854071254455221
  0
ARC
  5
63EE
  8
0
 10
325.5063522416074875
 20
4.1776681152699204
 30
0.0
 40
0.0068783439452858
 50
308.6065339385484094
 51
343.270679160816087
  0
LINE
  5
63EF
  8
0
 10
325.503530855249096
 20
4.1890773160650037
 30
0.0
 11
325.5134854037490868
 21
4.1823681250650031
 31
0.0
  0
LINE
  5
63F0
  8
0
 10
325.5134854037490868
 20
4.1823681250650031
 30
0.0
 11
325.5134854037490868
 21
4.178741410865018
 31
0.0
  0
LINE
  5
63F1
  8
0
 10
325.5134854037490868
 20
4.1823681250650031
 30
0.0
 11
325.5225678153394142
 21
4.1823681250650031
 31
0.0
  0
ARC
  5
63F2
  8
0
 10
325.5105981607126182
 20
4.1789529512607508
 30
0.0
 40
0.0066600717258032
 50
237.0616293835653039
 51
270.3953254462510927
  0
LINE
  5
63F3
  8
0
 10
325.506976835849116
 20
4.1733634466650127
 30
0.0
 11
325.4920927617641269
 21
4.1833950513650029
 31
0.0
  0
ARC
  5
63F4
  8
0
 10
325.0333551817519719
 20
4.0640667068427829
 30
0.0
 40
0.0066726449957093
 50
269.5886483020195783
 51
302.8589034399964817
  0
ARC
  5
63F5
  8
0
 10
325.0400960282134974
 20
4.0639904659334727
 30
0.0
 40
0.0096311776606889
 50
180.8796481618757923
 51
202.682370915378101
  0
ARC
  5
63F6
  8
0
 10
325.0373905423110727
 20
4.0625701337472409
 30
0.0
 40
0.0065926475283548
 50
200.359678815167598
 51
231.7301013862004027
  0
LINE
  5
63F7
  8
0
 10
325.0304659855991076
 20
4.067469320815011
 30
0.0
 11
325.0304659855991076
 21
4.0638426066150117
 31
0.0
  0
LINE
  5
63F8
  8
0
 10
325.0304659855991076
 20
4.067469320815011
 30
0.0
 11
325.0404205341018837
 21
4.0741785118169034
 31
0.0
  0
LINE
  5
63F9
  8
0
 10
325.0369755725990899
 20
4.0584616233150124
 30
0.0
 11
325.0518585626406889
 21
4.0684962471150117
 31
0.0
  0
LINE
  5
63FA
  8
0
 10
325.0322034956279253
 20
4.0570056636195408
 30
0.0
 11
325.0333072762987854
 21
4.0573942338152182
 31
0.0
  0
LINE
  5
63FB
  8
0
 10
324.9967458642058205
 20
4.0773076911161299
 30
0.0
 11
325.0118201924490791
 21
4.067469320915011
 31
0.0
  0
LINE
  5
63FC
  8
0
 10
325.0118201924490791
 20
4.067469320915011
 30
0.0
 11
325.0304659855991076
 21
4.067469320815011
 31
0.0
  0
ARC
  5
63FD
  8
0
 10
324.9904911961519929
 20
4.0811366543427834
 30
0.0
 40
0.0066726449957093
 50
269.5886483020195783
 51
302.8589034399964817
  0
ARC
  5
63FE
  8
0
 10
324.9972320426134047
 20
4.0810604134334731
 30
0.0
 40
0.0096311776606889
 50
180.8796481618757923
 51
202.6823709153781863
  0
ARC
  5
63FF
  8
0
 10
324.9945265567110937
 20
4.0796400812472413
 30
0.0
 40
0.0065926475283548
 50
200.359678815167598
 51
231.7301013862004027
  0
LINE
  5
6400
  8
0
 10
324.9876019999990717
 20
4.0845392683150106
 30
0.0
 11
324.9876019999990717
 21
4.0809125541150122
 31
0.0
  0
LINE
  5
6401
  8
0
 10
324.9876019999990717
 20
4.0845392683150106
 30
0.0
 11
324.9892773016915726
 21
4.0856683922564514
 31
0.0
  0
LINE
  5
6402
  8
0
 10
324.9941115869991108
 20
4.0755315708150111
 30
0.0
 11
325.0007175056815072
 21
4.0799855084072281
 31
0.0
  0
ARC
  5
6403
  8
0
 10
324.9822119492520187
 20
4.0985363480427841
 30
0.0
 40
0.0066726449957093
 50
269.5886483020195783
 51
302.8589034399964817
  0
ARC
  5
6404
  8
0
 10
324.9889527957133737
 20
4.098460107133473
 30
0.0
 40
0.0096311776606889
 50
180.8796481618757923
 51
202.6823709153781863
  0
ARC
  5
6405
  8
0
 10
324.9862473098111195
 20
4.097039774947242
 30
0.0
 40
0.0065926475283548
 50
200.359678815167598
 51
231.7301013862004027
  0
LINE
  5
6406
  8
0
 10
324.9793227530990976
 20
4.1019389620150122
 30
0.0
 11
324.9793227530990976
 21
4.098312247815012
 31
0.0
  0
LINE
  5
6407
  8
0
 10
324.9793227530990976
 20
4.1019389620150122
 30
0.0
 11
324.9892773016018737
 21
4.1086481530169028
 31
0.0
  0
LINE
  5
6408
  8
0
 10
324.9858323400990798
 20
4.0929312645150118
 30
0.0
 11
325.0007153301407925
 21
4.1029658883150111
 31
0.0
  0
LINE
  5
6409
  8
0
 10
324.9636078773307872
 20
4.0914753325064028
 30
0.0
 11
324.9810600793990716
 21
4.0914752626150124
 31
0.0
  0
LINE
  5
640A
  8
0
 10
324.9810600793990716
 20
4.0914752626150124
 30
0.0
 11
324.9821640437987753
 21
4.0918638750152176
 31
0.0
  0
LINE
  5
640B
  8
0
 10
324.9607659189330207
 20
4.1019389620150122
 30
0.0
 11
324.9793227530990976
 21
4.1019389620150122
 31
0.0
  0
ARC
  5
640C
  8
0
 10
324.9822119492520187
 20
4.1215161089427843
 30
0.0
 40
0.0066726449957093
 50
269.5886483020195783
 51
302.8589034399964817
  0
ARC
  5
640D
  8
0
 10
324.9889527957133737
 20
4.1214398680334732
 30
0.0
 40
0.0096311776606889
 50
180.8796481618757923
 51
202.6823709153781863
  0
ARC
  5
640E
  8
0
 10
324.9862473098111195
 20
4.1200195358472413
 30
0.0
 40
0.0065926475283548
 50
200.359678815167598
 51
231.7301013862004027
  0
LINE
  5
640F
  8
0
 10
324.9793227530990976
 20
4.1249187229150124
 30
0.0
 11
324.9793227530990976
 21
4.1212920087150131
 31
0.0
  0
LINE
  5
6410
  8
0
 10
324.9793227530990976
 20
4.1249187229150124
 30
0.0
 11
324.9892773016018737
 21
4.1316279139169021
 31
0.0
  0
LINE
  5
6411
  8
0
 10
324.9858323400990798
 20
4.115911025415012
 30
0.0
 11
325.0007153301407925
 21
4.1259456492150122
 31
0.0
  0
LINE
  5
6412
  8
0
 10
324.9604359681566734
 20
4.1144551061090491
 30
0.0
 11
324.9810600793990716
 21
4.1144550235150108
 31
0.0
  0
LINE
  5
6413
  8
0
 10
324.9810600793990716
 20
4.1144550235150108
 30
0.0
 11
324.9821640437987753
 21
4.114843635915217
 31
0.0
  0
LINE
  5
6414
  8
0
 10
324.9627583650135989
 20
4.1249187229150106
 30
0.0
 11
324.9793227530990976
 21
4.1249187229150124
 31
0.0
  0
ARC
  5
6415
  8
0
 10
324.9822119492520187
 20
4.1444958697427827
 30
0.0
 40
0.0066726449957093
 50
269.5886483020195783
 51
302.8589034399964817
  0
ARC
  5
6416
  8
0
 10
324.9889527957133737
 20
4.1444196288334734
 30
0.0
 40
0.0096311776606889
 50
180.8796481618757923
 51
202.6823709153781863
  0
ARC
  5
6417
  8
0
 10
324.9862473098111195
 20
4.1429992966472406
 30
0.0
 40
0.0065926475283548
 50
200.359678815167598
 51
231.7301013862004027
  0
LINE
  5
6418
  8
0
 10
324.9793227530990976
 20
4.1478984837150108
 30
0.0
 11
324.9793227530990976
 21
4.1442717695150124
 31
0.0
  0
LINE
  5
6419
  8
0
 10
324.9793227530990976
 20
4.1478984837150108
 30
0.0
 11
324.9892773016018737
 21
4.1546076747169032
 31
0.0
  0
LINE
  5
641A
  8
0
 10
324.9858323400990798
 20
4.1388907862150122
 30
0.0
 11
325.0007153301407925
 21
4.1489254100150124
 31
0.0
  0
LINE
  5
641B
  8
0
 10
324.9680542462892845
 20
4.137434836399887
 30
0.0
 11
324.9810600793990716
 21
4.137434784315011
 31
0.0
  0
LINE
  5
641C
  8
0
 10
324.9810600793990716
 20
4.137434784315011
 30
0.0
 11
324.9821640437987753
 21
4.137823396715218
 31
0.0
  0
LINE
  5
641D
  8
0
 10
324.9751612228862996
 20
4.1478984837150108
 30
0.0
 11
324.9793227530990976
 21
4.1478984837150108
 31
0.0
  0
ARC
  5
641E
  8
0
 10
325.0333551817519719
 20
4.178965510992783
 30
0.0
 40
0.0066726449957093
 50
269.5886483020195783
 51
302.8589034399964817
  0
ARC
  5
641F
  8
0
 10
325.0400960282134974
 20
4.1788892700834728
 30
0.0
 40
0.0096311776606889
 50
180.8796481618757923
 51
202.682370915378101
  0
ARC
  5
6420
  8
0
 10
325.0373905423110727
 20
4.1774689378972409
 30
0.0
 40
0.0065926475283548
 50
200.359678815167598
 51
231.7301013862004027
  0
LINE
  5
6421
  8
0
 10
325.0304659855991076
 20
4.1823681249650111
 30
0.0
 11
325.0304659855991076
 21
4.1787414107650118
 31
0.0
  0
LINE
  5
6422
  8
0
 10
325.0304659855991076
 20
4.1823681249650111
 30
0.0
 11
325.0404205341018837
 21
4.1890773159669026
 31
0.0
  0
LINE
  5
6423
  8
0
 10
325.0369755725990899
 20
4.1733604274650116
 30
0.0
 11
325.0518585626406889
 21
4.1833950512650118
 31
0.0
  0
LINE
  5
6424
  8
0
 10
325.003956127132426
 20
4.1719045386874161
 30
0.0
 11
325.0322033118990817
 21
4.1719044255650122
 31
0.0
  0
LINE
  5
6425
  8
0
 10
325.0322033118990817
 20
4.1719044255650122
 30
0.0
 11
325.0333072762987854
 21
4.1722930379652183
 31
0.0
  0
LINE
  5
6426
  8
0
 10
325.0213835739720025
 20
4.1823681249650111
 30
0.0
 11
325.0304659855991076
 21
4.1823681249650111
 31
0.0
  0
ARC
  5
6427
  8
0
 10
325.2379281118019776
 20
4.2249250327427834
 30
0.0
 40
0.0066726449957093
 50
269.5886483020195783
 51
302.8589034399964817
  0
ARC
  5
6428
  8
0
 10
325.2446689582633894
 20
4.2248487918334723
 30
0.0
 40
0.0096311776606889
 50
180.8796481618757923
 51
202.6823709153781863
  0
ARC
  5
6429
  8
0
 10
325.2419634723610784
 20
4.2234284596472396
 30
0.0
 40
0.0065926475283548
 50
200.359678815167598
 51
231.7301013862004027
  0
LINE
  5
642A
  8
0
 10
325.2350389156491133
 20
4.2283276467150097
 30
0.0
 11
325.2350389156491133
 21
4.2247009325150113
 31
0.0
  0
LINE
  5
642B
  8
0
 10
325.2350389156491133
 20
4.2283276467150097
 30
0.0
 11
325.2385410908003109
 21
4.2306880513084124
 31
0.0
  0
LINE
  5
642C
  8
0
 10
325.2415485026490956
 20
4.2193199492150111
 30
0.0
 11
325.2564314926908082
 21
4.2293545730150113
 31
0.0
  0
LINE
  5
642D
  8
0
 10
325.2037847180491212
 20
4.21825255971501
 30
0.0
 11
325.2048889644490828
 21
4.2178640750150107
 31
0.0
  0
LINE
  5
642E
  8
0
 10
325.2048889644490828
 20
4.2178640750150107
 30
0.0
 11
325.2367762419490873
 21
4.2178639473150099
 31
0.0
  0
LINE
  5
642F
  8
0
 10
325.2367762419490873
 20
4.2178639473150099
 30
0.0
 11
325.2378802063489047
 21
4.2182525597152161
 31
0.0
  0
ARC
  5
6430
  8
0
 10
325.1970541724824102
 20
4.2248370276180038
 30
0.0
 40
0.0095728037373393
 50
340.5389881286855029
 51
359.1854071254455221
  0
ARC
  5
6431
  8
0
 10
325.1994928466074839
 20
4.223627636919927
 30
0.0
 40
0.0068783439452858
 50
308.6065339385484094
 51
343.270679160816087
  0
LINE
  5
6432
  8
0
 10
325.2061405439720261
 20
4.2286548414555449
 30
0.0
 11
325.2066260087490832
 21
4.2283276467150097
 31
0.0
  0
LINE
  5
6433
  8
0
 10
325.2066260087490832
 20
4.2283276467150097
 30
0.0
 11
325.2066260087490832
 21
4.2247009325150264
 31
0.0
  0
LINE
  5
6434
  8
0
 10
325.1887488369491166
 20
4.2269852078150096
 30
0.0
 11
325.2001169331491042
 21
4.21932140711501
 31
0.0
  0
LINE
  5
6435
  8
0
 10
325.2066260087490832
 20
4.2283276467150097
 30
0.0
 11
325.2350389156491133
 21
4.2283276467150097
 31
0.0
  0
ARC
  5
6436
  8
0
 10
325.2037215531083234
 20
4.2248632929241321
 30
0.0
 40
0.0066110349698013
 50
236.9587350402665038
 51
270.547439183178426
  0
ARC
  5
6437
  8
0
 10
325.2890712033021146
 20
4.2364155945927831
 30
0.0
 40
0.0066726449957093
 50
269.5886483020195783
 51
307.4539463417137881
  0
ARC
  5
6438
  8
0
 10
325.2931065638611017
 20
4.2349190214972401
 30
0.0
 40
0.0065926475283548
 50
213.806770347351403
 51
231.7301013862004027
  0
LINE
  5
6439
  8
0
 10
325.2549278095490877
 20
4.2297431215650114
 30
0.0
 11
325.2560320559491061
 21
4.2293546368650112
 31
0.0
  0
LINE
  5
643A
  8
0
 10
325.2560320559491061
 20
4.2293546368650112
 30
0.0
 11
325.2879193334491106
 21
4.2293545091650113
 31
0.0
  0
LINE
  5
643B
  8
0
 10
325.2879193334491106
 20
4.2293545091650113
 30
0.0
 11
325.2890232978488143
 21
4.2297431215652166
 31
0.0
  0
ARC
  5
643C
  8
0
 10
325.2506359381076209
 20
4.2351181987699267
 30
0.0
 40
0.0068783439452858
 50
308.6065339385484094
 51
325.7893833335378986
  0
ARC
  5
643D
  8
0
 10
325.2548646446082898
 20
4.2363538547741326
 30
0.0
 40
0.0066110349698013
 50
232.3616009146940939
 51
270.547439183178426
  0
LINE
  5
643E
  8
0
 10
325.0531963111990876
 20
4.1938580055150112
 30
0.0
 11
325.0506568786489083
 21
4.1955910998641777
 31
0.0
  0
LINE
  5
643F
  8
0
 10
325.4396118456991189
 20
4.2053478859150122
 30
0.0
 11
325.4472011474766191
 21
4.2104683434963333
 31
0.0
  0
ARC
  5
6440
  8
0
 10
325.5240754061185839
 20
4.0639158124765631
 30
0.0
 40
0.0080561234466876
 50
305.9511149468204962
 51
359.4793477375636144
  0
LINE
  5
6441
  8
0
 10
325.5274735367490848
 20
4.0570063668150107
 30
0.0
 11
325.5288051141491223
 21
4.0573942339150113
 31
0.0
  0
LINE
  5
6442
  8
0
 10
325.5321311969490807
 20
4.0638426067150109
 30
0.0
 11
325.5321311969499902
 21
4.067469320915011
 31
0.0
  0
LINE
  5
6443
  8
0
 10
325.5563493893491227
 20
4.0845392684150097
 30
0.0
 11
325.5637415140986946
 21
4.0914753870112932
 31
0.0
  0
ARC
  5
6444
  8
0
 10
325.2802161245273282
 20
4.7149989967212758
 30
0.0
 40
0.7015367752149194
 50
275.7494137375372247
 51
279.0255311140724075
  0
ARC
  5
6445
  8
0
 10
325.3404318736493224
 20
4.4452527860144828
 30
0.0
 40
0.4248233187994458
 50
285.9060660628354071
 51
289.7884817287181249
  0
ARC
  5
6446
  8
0
 10
325.3025501122356218
 20
4.5865297194141696
 30
0.0
 40
0.5711212280603295
 50
280.4546372304292845
 51
284.2023886511963155
  0
ARC
  5
6447
  8
0
 10
325.4505029136872167
 20
4.0332062308702321
 30
0.0
 40
0.0063579774703218
 50
311.3372372099767063
 51
358.7565691964950929
  0
ARC
  5
6448
  8
0
 10
325.4520347639958118
 20
4.0310149592075808
 30
0.0
 40
0.0037128321561584
 50
241.1486766324721884
 51
315.9276467785093132
  0
LINE
  5
6449
  8
0
 10
325.4409506388453792
 20
4.0340258622110294
 30
0.0
 11
325.4502431797491226
 21
4.0277629831150099
 31
0.0
  0
LINE
  5
644A
  8
0
 10
325.4496991925145721
 20
4.0378941112428999
 30
0.0
 11
325.4568593939915786
 21
4.0330682611183546
 31
0.0
  0
LINE
  5
644B
  8
0
 10
325.4568593939915786
 20
4.0330682611183546
 30
0.0
 11
325.4568593939065977
 21
4.0366949753116659
 31
0.0
  0
LINE
  5
644C
  8
0
 10
325.4568593939065977
 20
4.0366949753116659
 30
0.0
 11
325.4523892005573202
 21
4.039707807190525
 31
0.0
  0
ARC
  5
644D
  8
0
 10
325.4962453169870855
 20
4.0483360408702316
 30
0.0
 40
0.0063579774703218
 50
311.3372372099767063
 51
358.7565691964950929
  0
ARC
  5
644E
  8
0
 10
325.4977771672959079
 20
4.046144769207582
 30
0.0
 40
0.0037128321561584
 50
241.1486766324721884
 51
315.9276467785093132
  0
LINE
  5
644F
  8
0
 10
325.4920937842279045
 20
4.0455157426113777
 30
0.0
 11
325.4959855830491051
 21
4.0428927931150112
 31
0.0
  0
LINE
  5
6450
  8
0
 10
325.500842325261317
 20
4.0493839243857641
 30
0.0
 11
325.5026017972916179
 21
4.0481980711183549
 31
0.0
  0
LINE
  5
6451
  8
0
 10
325.5026017972916179
 20
4.0481980711183549
 30
0.0
 11
325.502601797236025
 21
4.0505702209097763
 31
0.0
  0
ARC
  5
6452
  8
0
 10
325.4005384425915963
 20
4.0214246084382159
 30
0.0
 40
0.0056479240200881
 50
302.4650901614137979
 51
358.3606199811532065
  0
ARC
  5
6453
  8
0
 10
325.401044404374602
 20
4.0202146135866261
 30
0.0
 40
0.0043611213793604
 50
239.0039624866793986
 51
305.3910908157977246
  0
LINE
  5
6454
  8
0
 10
325.3898062910275257
 20
4.0225367255150113
 30
0.0
 11
325.3987985193490999
 21
4.0164762476150111
 31
0.0
  0
LINE
  5
6455
  8
0
 10
325.4012459680643019
 20
4.028217926795274
 30
0.0
 11
325.4061840547640827
 21
4.0248897430083348
 31
0.0
  0
LINE
  5
6456
  8
0
 10
325.4061840548491205
 20
4.0212630288150111
 30
0.0
 11
325.4061840547640827
 21
4.024889743008341
 31
0.0
  0
ARC
  5
6457
  8
0
 10
325.3446298824883911
 20
4.0135358198947433
 30
0.0
 40
0.0051895634409849
 50
291.1728359675331035
 51
357.3509198720627751
  0
ARC
  5
6458
  8
0
 10
325.3443992204934716
 20
4.0134791958725708
 30
0.0
 40
0.0052253843332895
 50
237.8161182113879022
 51
293.7564129366314205
  0
LINE
  5
6459
  8
0
 10
325.3386631470909833
 20
4.0110468451150112
 30
0.0
 11
325.3416159811491184
 21
4.0090567282150111
 31
0.0
  0
LINE
  5
645A
  8
0
 10
325.3474126998793849
 20
4.0149143318103304
 30
0.0
 11
325.3498139000760148
 21
4.0132959650221132
 31
0.0
  0
LINE
  5
645B
  8
0
 10
325.3498139000760148
 20
4.0132959650221132
 30
0.0
 11
325.3498139000491278
 21
4.0165355031707088
 31
0.0
  0
ARC
  5
645C
  8
0
 10
325.2957737462509158
 20
4.0101127095389373
 30
0.0
 40
0.0047274621868648
 50
185.1952687180668988
 51
268.6697093439900073
  0
ARC
  5
645D
  8
0
 10
325.2967490717397823
 20
4.0128834228723491
 30
0.0
 40
0.0075750196921046
 50
261.7643822474468038
 51
302.7878407946138282
  0
LINE
  5
645E
  8
0
 10
325.2910657050767895
 20
4.0133113504988254
 30
0.0
 11
325.2961366966491141
 21
4.0167291098150111
 31
0.0
  0
LINE
  5
645F
  8
0
 10
325.2910657050491068
 20
4.0133113504150106
 30
0.0
 11
325.2910657050491068
 21
4.0096846362150114
 31
0.0
  0
LINE
  5
6460
  8
0
 10
325.3008511707491266
 20
4.0065152436150111
 30
0.0
 11
325.307574790132378
 21
4.0110468451150112
 31
0.0
  0
ARC
  5
6461
  8
0
 10
324.997174854415789
 20
4.0810486493179967
 30
0.0
 40
0.0095728037373393
 50
180.8145928745543927
 51
199.4610118713144118
  0
ARC
  5
6462
  8
0
 10
324.9947361802906016
 20
4.079839258619919
 30
0.0
 40
0.0068783439452858
 50
196.7293208391837993
 51
231.3934660614515906
  0
LINE
  5
6463
  8
0
 10
324.9892767419494248
 20
4.0856673288848091
 30
0.0
 11
324.987603018149116
 21
4.0845392684150026
 31
0.0
  0
LINE
  5
6464
  8
0
 10
324.987603018149116
 20
4.0845392684150026
 30
0.0
 11
324.987603018149116
 21
4.0809125542150184
 31
0.0
  0
ARC
  5
6465
  8
0
 10
324.9904902611855846
 20
4.0811240946107512
 30
0.0
 40
0.0066600717258032
 50
269.6046745537489073
 51
302.9383706164347245
  0
LINE
  5
6466
  8
0
 10
324.9941115860492005
 20
4.0755345900150131
 30
0.0
 11
325.0007153097869264
 21
4.0799853839110538
 31
0.0
  0
LINE
  5
6467
  8
0
 10
324.987603018149116
 20
4.0845392684150097
 30
0.0
 11
324.9802108933994873
 21
4.0914753870112932
 31
0.0
  0
ARC
  5
6468
  8
0
 10
325.2637362829709105
 20
4.7149989967212758
 30
0.0
 40
0.7015367752149194
 50
260.9744688859275925
 51
264.2505862624627753
  0
ARC
  5
6469
  8
0
 10
325.2035205338489163
 20
4.4452527860144828
 30
0.0
 40
0.4248233187994458
 50
250.2112345050898057
 51
254.0939339371645929
  0
ARC
  5
646A
  8
0
 10
325.2414022952626169
 20
4.5865297194141696
 30
0.0
 40
0.5711212280603295
 50
255.7976113488037129
 51
259.5453627695707155
  0
ARC
  5
646B
  8
0
 10
325.093449493811022
 20
4.0332062308702321
 30
0.0
 40
0.0063579774703218
 50
181.2434308035047934
 51
228.6627627900232937
  0
ARC
  5
646C
  8
0
 10
325.0919176435024269
 20
4.0310149592075808
 30
0.0
 40
0.0037128321561584
 50
224.0723532214906868
 51
298.8513233675276979
  0
LINE
  5
646D
  8
0
 10
325.103001953385899
 20
4.0340259867153048
 30
0.0
 11
325.0937092277491161
 21
4.0277629831150099
 31
0.0
  0
LINE
  5
646E
  8
0
 10
325.0942547865569736
 20
4.0378951704557906
 30
0.0
 11
325.0870930135066033
 21
4.0330682611183546
 31
0.0
  0
LINE
  5
646F
  8
0
 10
325.0870930135066033
 20
4.0330682611183546
 30
0.0
 11
325.0870930135915842
 21
4.0366949753116659
 31
0.0
  0
LINE
  5
6470
  8
0
 10
325.0870930135915842
 20
4.0366949753116659
 30
0.0
 11
325.0915642757404953
 21
4.0397085275426994
 31
0.0
  0
ARC
  5
6471
  8
0
 10
325.0496098478291742
 20
4.0488857595911636
 30
0.0
 40
0.0074459531611311
 50
181.0609401042150921
 51
221.036620459257108
  0
ARC
  5
6472
  8
0
 10
325.0466368354557858
 20
4.04580768178102
 30
0.0
 40
0.0032039735731737
 50
214.4077669925520127
 51
294.5259986529543994
  0
LINE
  5
6473
  8
0
 10
325.0518586232702773
 20
4.0455157426113777
 30
0.0
 11
325.0479668244490767
 21
4.0428927931150112
 31
0.0
  0
LINE
  5
6474
  8
0
 10
325.0431100822369785
 20
4.0493839243857641
 30
0.0
 11
325.0421651711491222
 21
4.0487478915150108
 31
0.0
  0
LINE
  5
6475
  8
0
 10
325.0421651711491222
 20
4.0487478915150108
 30
0.0
 11
325.0421651711491222
 21
4.0500228963320044
 31
0.0
  0
ARC
  5
6476
  8
0
 10
325.1434139649065855
 20
4.0214246084382159
 30
0.0
 40
0.0056479240200881
 50
181.6393800188467083
 51
237.5349098385862021
  0
ARC
  5
6477
  8
0
 10
325.1429080031235799
 20
4.0202146135866261
 30
0.0
 40
0.0043611213793604
 50
234.608909184199689
 51
300.9960375133206867
  0
LINE
  5
6478
  8
0
 10
325.1541461164705993
 20
4.0225367255150113
 30
0.0
 11
325.1451538881490819
 21
4.0164762476150111
 31
0.0
  0
LINE
  5
6479
  8
0
 10
325.1427075082019087
 20
4.0282186471261454
 30
0.0
 11
325.1377683527340992
 21
4.0248897430083348
 31
0.0
  0
LINE
  5
647A
  8
0
 10
325.1377683526491182
 20
4.0212630288150111
 30
0.0
 11
325.1377683527340992
 21
4.024889743008341
 31
0.0
  0
ARC
  5
647B
  8
0
 10
325.1993225250099044
 20
4.0135358198947433
 30
0.0
 40
0.0051895634409849
 50
182.6490801279371965
 51
248.8271640324668112
  0
ARC
  5
647C
  8
0
 10
325.1995531870047103
 20
4.0134791958725708
 30
0.0
 40
0.0052253843332895
 50
246.2435870633686079
 51
302.1838817886119841
  0
LINE
  5
647D
  8
0
 10
325.2052883416707232
 20
4.0110462259156128
 30
0.0
 11
325.2023364263491203
 21
4.0090567282150111
 31
0.0
  0
LINE
  5
647E
  8
0
 10
325.1965397076186832
 20
4.0149143318103304
 30
0.0
 11
325.1941385074222808
 21
4.0132959650221132
 31
0.0
  0
LINE
  5
647F
  8
0
 10
325.1941385074222808
 20
4.0132959650221132
 30
0.0
 11
325.1941385074491109
 21
4.0165348169891821
 31
0.0
  0
ARC
  5
6480
  8
0
 10
325.2481786612473229
 20
4.0101127095389373
 30
0.0
 40
0.0047274621868648
 50
271.3302906560099927
 51
354.8047312819330159
  0
ARC
  5
6481
  8
0
 10
325.2472033357583996
 20
4.0128834228723491
 30
0.0
 40
0.0075750196921046
 50
237.2121592053862003
 51
278.2356177525531962
  0
LINE
  5
6482
  8
0
 10
325.2528856843491099
 20
4.0133113504150106
 30
0.0
 11
325.2478167794940873
 21
4.0167283895670014
 31
0.0
  0
LINE
  5
6483
  8
0
 10
325.2528856843767926
 20
4.0133113503311968
 30
0.0
 11
325.2528867024490751
 21
4.0096846362150114
 31
0.0
  0
LINE
  5
6484
  8
0
 10
325.2431012367491121
 20
4.0065152436150111
 30
0.0
 11
325.2363787208187773
 21
4.0110461014069774
 31
0.0
  0
LINE
  5
6485
  8
0
 10
325.0118201924490791
 20
4.067469320915011
 30
0.0
 11
325.0118201924490791
 21
4.0638426067150109
 31
0.0
  0
ARC
  5
6486
  8
0
 10
325.0205375353035038
 20
4.0640786206967423
 30
0.0
 40
0.0087205371991504
 50
181.5508512960421967
 51
206.3259596670808094
  0
ARC
  5
6487
  8
0
 10
325.0176261629825945
 20
4.062157478295175
 30
0.0
 40
0.0052767450685393
 50
201.6434345273113991
 51
257.4758493541659732
  0
LINE
  5
6488
  8
0
 10
325.016481894949095
 20
4.0570062950150101
 30
0.0
 11
325.0322034956279253
 21
4.0570056636195408
 31
0.0
  0
LINE
  5
6489
  8
0
 10
325.2528856843491099
 20
4.0133113504150106
 30
0.0
 11
325.2910657050491068
 21
4.0133113504150009
 31
0.0
  0
LINE
  5
648A
  8
0
 10
327.6845872310917116
 20
3.1103455768150119
 30
0.0
 11
328.7593859427917096
 21
3.1103455768150119
 31
0.0
  0
LINE
  5
648B
  8
0
 10
328.7593859427917096
 20
3.1103455768150119
 30
0.0
 11
328.7593859427917096
 21
3.0922353406150118
 31
0.0
  0
LINE
  5
648C
  8
0
 10
328.7593859427917096
 20
3.0922353406150118
 30
0.0
 11
327.6845872310917116
 21
3.0922353406150118
 31
0.0
  0
LINE
  5
648D
  8
0
 10
327.6845872310917116
 20
3.0922353406150118
 30
0.0
 11
327.6845872310917116
 21
3.1103455768150119
 31
0.0
  0
ARC
  5
648E
  8
0
 10
328.7475447852917227
 20
3.0772353406150108
 30
0.0
 40
0.0149999999999997
 50
27.3133605721012884
 51
90.0000005267006458
  0
ARC
  5
648F
  8
0
 10
328.8941743590542046
 20
3.1529658167457768
 30
0.0
 40
0.1500313210261071
 50
207.3153977595378024
 51
245.9709207455082947
  0
ARC
  5
6490
  8
0
 10
328.826989365623092
 20
3.002234281940328
 30
0.0
 40
0.0149954078803552
 50
322.0506337709200011
 51
66.0291843478498492
  0
ARC
  5
6491
  8
0
 10
329.0322116391075156
 20
2.8422353412047641
 30
0.0
 40
0.245227271093831
 50
142.0591842602165116
 51
176.6955297681649881
  0
ARC
  5
6492
  8
0
 10
328.7724155953471268
 20
2.857235423672706
 30
0.0
 40
0.0150014491266749
 50
269.2267665489885076
 51
356.6955297681716957
  0
ARC
  5
6493
  8
0
 10
328.7722131499259035
 20
2.8272353406695041
 30
0.0
 40
0.0149999999455082
 50
1.044391513163287
 51
90.0000001307445103
  0
ARC
  5
6494
  8
0
 10
331.3588478821696981
 20
2.8744005693661761
 30
0.0
 40
2.5720647067923559
 50
181.0446285346392017
 51
218.3583115613307939
  0
LINE
  5
6495
  8
0
 10
329.3419756952296211
 20
1.2782353406150111
 30
0.0
 11
329.341975695149074
 21
1.2682353406150111
 31
0.0
  0
LINE
  5
6496
  8
0
 10
329.341975695149074
 20
1.2682353406150111
 30
0.0
 11
327.1019756823379225
 21
1.268235340615012
 31
0.0
  0
ARC
  5
6497
  8
0
 10
329.3269843679674977
 20
1.2532353405800309
 30
0.0
 40
0.0150000000349802
 50
311.682231291238395
 51
89.9999999078919473
  0
ARC
  5
6498
  8
0
 10
329.6694587381149972
 20
0.8686104471316902
 30
0.0
 40
0.5000000027495866
 50
131.682231291238395
 51
167.1398202596977001
  0
ARC
  5
6499
  8
0
 10
329.1673769329889865
 20
0.9832353416108183
 30
0.0
 40
0.0150000025639536
 50
269.9738009452793221
 51
347.1398202596924989
  0
LINE
  5
649A
  8
0
 10
329.167370074091707
 20
0.9682353406150117
 30
0.0
 11
327.2765917986064892
 21
0.9682353406150117
 31
0.0
  0
ARC
  5
649B
  8
0
 10
327.6964170874064735
 20
3.0772353406150108
 30
0.0
 40
0.0149999999999997
 50
89.9999994732993258
 51
152.6866394278987116
  0
ARC
  5
649C
  8
0
 10
327.5498128920095269
 20
3.1529467066767718
 30
0.0
 40
0.150000003208906
 50
294.0201721793645788
 51
332.6866394278986832
  0
ARC
  5
649D
  8
0
 10
327.616977504666977
 20
3.0022353406248898
 30
0.0
 40
0.0149999999748707
 50
114.0201721793614951
 51
217.9408157397832895
  0
ARC
  5
649E
  8
0
 10
327.4117502335906806
 20
2.8422353412047641
 30
0.0
 40
0.245227271093831
 50
3.3044702318350092
 51
37.9408157397835382
  0
ARC
  5
649F
  8
0
 10
327.6715462773511263
 20
2.857235423672706
 30
0.0
 40
0.0150014491266749
 50
183.3044702318281907
 51
270.7732334510114924
  0
ARC
  5
64A0
  8
0
 10
327.6717487227722927
 20
2.8272353406695041
 30
0.0
 40
0.0149999999455082
 50
89.9999998692555039
 51
178.9556084868366952
  0
ARC
  5
64A1
  8
0
 10
325.0851920458093218
 20
2.8743862814569301
 30
0.0
 40
2.5719864040309348
 50
321.6407138575079898
 51
358.9556580013165217
  0
LINE
  5
64A2
  8
0
 10
327.1019756823379225
 20
1.27823534061501
 30
0.0
 11
327.1019756823379225
 21
1.268235340615012
 31
0.0
  0
ARC
  5
64A3
  8
0
 10
327.1169775047305848
 20
1.2532353405800309
 30
0.0
 40
0.0150000000349802
 50
90.0000000921080385
 51
228.3177687087616903
  0
ARC
  5
64A4
  8
0
 10
326.7745031345830853
 20
0.8686104471316902
 30
0.0
 40
0.5000000027495866
 50
12.8601797403022804
 51
48.3177687087615908
  0
ARC
  5
64A5
  8
0
 10
327.276584939709096
 20
0.9832353416108183
 30
0.0
 40
0.0150000025639536
 50
192.8601797403073874
 51
270.026199054720621
  0
LINE
  5
64A6
  8
0
 10
328.7722131498916269
 20
2.8422353406150118
 30
0.0
 11
327.6717487228065124
 21
2.84223534061501
 31
0.0
  0
ARC
  5
64A7
  8
0
 10
329.0224888199169868
 20
3.6896758752518539
 30
0.0
 40
0.4108193088801491
 50
163.2481271847084088
 51
195.5818017684559891
  0
ARC
  5
64A8
  8
0
 10
331.0920422013685993
 20
4.216756712273761
 30
0.0
 40
2.5463498122443289
 50
194.4971537009085125
 51
199.5254177578171095
  0
ARC
  5
64A9
  8
0
 10
326.8758604892108792
 20
2.7402084465775558
 30
0.0
 40
1.9209524765074071
 50
11.6530200800782602
 51
19.0029506575484284
  0
ARC
  5
64AA
  8
0
 10
328.7425392290907098
 20
3.125309663203466
 30
0.0
 40
0.014964414743336
 50
270.3795598745654729
 51
11.1782963396103998
  0
ARC
  5
64AB
  8
0
 10
330.6039398884155958
 20
2.2830387088160071
 30
0.0
 40
3.0435320092702778
 50
152.3844480515651867
 51
162.1377060293320085
  0
ARC
  5
64AC
  8
0
 10
328.8143714591885214
 20
2.909431605999484
 30
0.0
 40
1.1490666757334971
 50
164.4960717894487061
 51
169.0334647670431139
  0
ARC
  5
64AD
  8
0
 10
327.70105219065141
 20
3.1253489800347132
 30
0.0
 40
0.0150042498354987
 50
169.7262032018977038
 51
269.3913386668883732
  0
LINE
  5
64AE
  8
0
 10
327.605147810364997
 20
2.9930126332150109
 30
0.0
 11
328.8388140623331992
 21
2.9930126332150109
 31
0.0
  0
LINE
  5
64AF
  8
0
 10
329.3419756952296211
 20
1.2782353406150111
 30
0.0
 11
327.1019756823379225
 21
1.27823534061501
 31
0.0
  0
LINE
  5
64B0
  8
0
 10
328.83308156893861
 20
3.0159363736150122
 30
0.0
 11
327.6108716311414923
 21
3.0159363737150109
 31
0.0
  0
ARC
  5
64B1
  8
0
 10
329.0246292596289095
 20
3.6612400981390421
 30
0.0
 40
0.4219050158426481
 50
124.0610165500850997
 51
159.6317374095793014
  0
ARC
  5
64B2
  8
0
 10
329.5379476852609741
 20
2.899140634647718
 30
0.0
 40
1.3407578952024981
 50
98.4173953914296078
 51
123.993545182269699
  0
ARC
  5
64B3
  8
0
 10
329.777170117021285
 20
1.3964220908047169
 30
0.0
 40
2.8623558011951049
 50
86.3643518692370975
 51
98.7511308345382872
  0
ARC
  5
64B4
  8
0
 10
329.6766865331459826
 20
-1.1171657348738151
 30
0.0
 40
5.37758162676037
 50
84.0455996950302762
 51
86.9941441109416047
  0
ARC
  5
64B5
  8
0
 10
329.4445232385393751
 20
-3.384737595073477
 30
0.0
 40
7.657004542429152
 50
81.7211737834940237
 51
84.0779269496244979
  0
ARC
  5
64B6
  8
0
 10
330.5867880791652169
 20
4.2533985589557437
 30
0.0
 40
0.0626902310964303
 50
290.0213609677916793
 51
329.8111369828453121
  0
ARC
  5
64B7
  8
0
 10
330.5787955665859954
 20
4.287061728917684
 30
0.0
 40
0.0971384126949789
 50
268.1042458494252969
 51
287.6520266680369105
  0
ARC
  5
64B8
  8
0
 10
330.5811880975427925
 20
4.4181366559513533
 30
0.0
 40
0.228229033035544
 50
261.399856431058879
 51
268.5925051687171958
  0
ARC
  5
64B9
  8
0
 10
329.0346846413535218
 20
5.2079863844661709
 30
0.0
 40
1.884830957225867
 50
328.4540417614779813
 51
335.6405703536242981
  0
ARC
  5
64BA
  8
0
 10
330.7578613653424782
 20
4.5527505175110292
 30
0.0
 40
0.0379416608803904
 50
0.0000000000107376
 51
29.1972792911772316
  0
ARC
  5
64BB
  8
0
 10
330.7359054528507158
 20
4.5447051862850874
 30
0.0
 40
0.0611439160015374
 50
25.7398878816552994
 51
61.4793062479126817
  0
ARC
  5
64BC
  8
0
 10
330.5995349526180007
 20
4.119703143453914
 30
0.0
 40
0.5065473995119153
 50
70.9222764541875534
 51
77.621497142498157
  0
ARC
  5
64BD
  8
0
 10
330.0089114323639023
 20
2.062550247903149
 30
0.0
 40
2.6459809647510539
 50
74.6773596098285424
 51
80.5303727887422838
  0
ARC
  5
64BE
  8
0
 10
330.0506553028649819
 20
1.8114159522994111
 30
0.0
 40
2.888003543966478
 50
82.1671900482824498
 51
87.6727991862082519
  0
ARC
  5
64BF
  8
0
 10
329.9951690004577927
 20
1.189388708341127
 30
0.0
 40
3.5119005447937521
 50
87.1803746848755736
 51
88.3535712332644465
  0
ARC
  5
64C0
  8
0
 10
329.9468820261723181
 20
1.0073586807566659
 30
0.0
 40
3.6954933966193511
 50
87.6863003435803563
 51
92.0185854255463909
  0
ARC
  5
64C1
  8
0
 10
329.9052936615133262
 20
1.8731045245543669
 30
0.0
 40
2.8288415444795958
 50
91.7944158223978377
 51
98.1363915873874362
  0
ARC
  5
64C2
  8
0
 10
330.1778380378794964
 20
0.3419315994947754
 30
0.0
 40
4.383496394739625
 50
98.8303893103852005
 51
99.687679274656702
  0
ARC
  5
64C3
  8
0
 10
329.9712673093114859
 20
1.791851195655346
 30
0.0
 40
2.9197709448739362
 50
100.4797778719927948
 51
110.1271312084379019
  0
ARC
  5
64C4
  8
0
 10
329.7368572170482821
 20
2.3762084880139929
 30
0.0
 40
2.2905169249448538
 50
109.651475070665299
 51
118.6795847395077033
  0
ARC
  5
64C5
  8
0
 10
330.1359520851112848
 20
1.6980371444886719
 30
0.0
 40
3.0771172119344579
 50
119.1389618022395069
 51
132.488217382979002
  0
ARC
  5
64C6
  8
0
 10
328.1583885106600178
 20
3.8566699708282162
 30
0.0
 40
0.1495837893889218
 50
132.387233973773391
 51
154.009081572613411
  0
ARC
  5
64C7
  8
0
 10
333.4779170056269209
 20
0.9890341294278526
 30
0.0
 40
6.1926998000227584
 50
151.7283492939723999
 51
154.1019480258557905
  0
ARC
  5
64C8
  8
0
 10
329.9335787052802971
 20
4.7947981436396327
 30
0.0
 40
0.8955544835125143
 50
336.0018671678651003
 51
344.3192595430548977
  0
ARC
  5
64C9
  8
0
 10
328.9000645237090907
 20
-4.1140096730756337
 30
0.0
 40
8.8716715826867159
 50
77.661640092422445
 51
80.0474128265025655
  0
ARC
  5
64CA
  8
0
 10
329.5634657510238981
 20
-4.4434606346587202
 30
0.0
 40
9.1092467506837611
 50
84.5199967347257228
 51
85.6956312103685178
  0
ARC
  5
64CB
  8
0
 10
329.9861469819211948
 20
2.0909937447347011
 30
0.0
 40
2.562427027984052
 50
84.1536607475527347
 51
95.2313312262637339
  0
ARC
  5
64CC
  8
0
 10
330.009005830514127
 20
1.4993284373215421
 30
0.0
 40
3.1538662276878071
 50
94.6648305181460046
 51
108.9953420315031991
  0
ARC
  5
64CD
  8
0
 10
330.5707842053358831
 20
0.6579897880320547
 30
0.0
 40
4.1402489886794802
 50
112.5588745604575962
 51
127.962415608840999
  0
ENDSEC
  0
EOF
