  0
SECTION
  2
HEADER
  9
$ACADVER
  1
AC1009
  9
$INSBASE
 10
3673.867152677570175
 20
135.0023064231868943
 30
0.0
  9
$EXTMIN
 10
3661.0002806756810969
 20
134.9838819997310964
 30
-0.0015258207003583
  9
$EXTMAX
 10
3676.3257308078891583
 20
171.6249311409825111
 30
0.0000000349246037
  9
$LIMMIN
 10
0.0
 20
0.0
  9
$LIMMAX
 10
11.6929133858000007
 20
8.2677165353999982
  9
$ORTHOMODE
 70
     0
  9
$REGENMODE
 70
     1
  9
$FILLMODE
 70
     1
  9
$QTEXTMODE
 70
     0
  9
$MIRRTEXT
 70
     0
  9
$DRAGMODE
 70
     2
  9
$LTSCALE
 40
0.6431102362
  9
$OSMODE
 70
  4095
  9
$ATTMODE
 70
     1
  9
$TEXTSIZE
 40
0.2
  9
$TRACEWID
 40
0.05
  9
$TEXTSTYLE
  7
STANDARD
  9
$CLAYER
  8
0
  9
$CELTYPE
  6
BYLAYER
  9
$CECOLOR
 62
   256
  9
$DIMSCALE
 40
1.0
  9
$DIMASZ
 40
0.1875
  9
$DIMEXO
 40
0.0625
  9
$DIMDLI
 40
0.4443307087
  9
$DIMRND
 40
0.0
  9
$DIMDLE
 40
0.0
  9
$DIMEXE
 40
0.125
  9
$DIMTP
 40
0.01
  9
$DIMTM
 40
0.01
  9
$DIMTXT
 40
2.0
  9
$DIMCEN
 40
0.1052362205
  9
$DIMTSZ
 40
0.0
  9
$DIMTOL
 70
     1
  9
$DIMLIM
 70
     0
  9
$DIMTIH
 70
     1
  9
$DIMTOH
 70
     1
  9
$DIMSE1
 70
     0
  9
$DIMSE2
 70
     0
  9
$DIMTAD
 70
     0
  9
$DIMZIN
 70
     0
  9
$DIMBLK
  1

  9
$DIMASO
 70
     1
  9
$DIMSHO
 70
     1
  9
$DIMPOST
  1
\X
  9
$DIMAPOST
  1

  9
$DIMALT
 70
     1
  9
$DIMALTD
 70
     2
  9
$DIMALTF
 40
25.3999999999999986
  9
$DIMLFAC
 40
1.0
  9
$DIMTOFL
 70
     0
  9
$DIMTVP
 40
0.0
  9
$DIMTIX
 70
     0
  9
$DIMSOXD
 70
     0
  9
$DIMSAH
 70
     0
  9
$DIMBLK1
  1

  9
$DIMBLK2
  1

  9
$DIMSTYLE
  2
STANDARD
  9
$DIMCLRD
 70
     0
  9
$DIMCLRE
 70
     0
  9
$DIMCLRT
 70
     0
  9
$DIMTFAC
 40
1.0
  9
$DIMGAP
 40
0.09
  9
$LUNITS
 70
     2
  9
$LUPREC
 70
     4
  9
$SKETCHINC
 40
0.1
  9
$FILLETRAD
 40
0.0
  9
$AUNITS
 70
     0
  9
$AUPREC
 70
     0
  9
$MENU
  1
.
  9
$ELEVATION
 40
0.0
  9
$PELEVATION
 40
0.0
  9
$THICKNESS
 40
0.0
  9
$LIMCHECK
 70
     0
  9
$BLIPMODE
 70
     0
  9
$CHAMFERA
 40
0.0
  9
$CHAMFERB
 40
0.0
  9
$SKPOLY
 70
     0
  9
$TDCREATE
 40
2458059.843368056230247
  9
$TDUPDATE
 40
2459055.0182060189545155
  9
$TDINDWG
 40
0.7112686343
  9
$TDUSRTIMER
 40
0.7112686343
  9
$USRTIMER
 70
     1
  9
$ANGBASE
 50
0.0
  9
$ANGDIR
 70
     0
  9
$PDMODE
 70
     0
  9
$PDSIZE
 40
0.3125
  9
$PLINEWID
 40
0.0
  9
$COORDS
 70
     1
  9
$SPLFRAME
 70
     0
  9
$SPLINETYPE
 70
     6
  9
$SPLINESEGS
 70
     8
  9
$ATTDIA
 70
     1
  9
$ATTREQ
 70
     1
  9
$HANDLING
 70
     1
  9
$HANDSEED
  5
E8D1
  9
$SURFTAB1
 70
     6
  9
$SURFTAB2
 70
     6
  9
$SURFTYPE
 70
     6
  9
$SURFU
 70
     6
  9
$SURFV
 70
     6
  9
$UCSNAME
  2

  9
$UCSORG
 10
0.0
 20
0.0
 30
0.0
  9
$UCSXDIR
 10
1.0
 20
0.0
 30
0.0
  9
$UCSYDIR
 10
0.0
 20
1.0
 30
0.0
  9
$PUCSNAME
  2

  9
$PUCSORG
 10
0.0
 20
0.0
 30
0.0
  9
$PUCSXDIR
 10
1.0
 20
0.0
 30
0.0
  9
$PUCSYDIR
 10
0.0
 20
1.0
 30
0.0
  9
$USERI1
 70
     0
  9
$USERI2
 70
     0
  9
$USERI3
 70
     0
  9
$USERI4
 70
     0
  9
$USERI5
 70
     0
  9
$USERR1
 40
0.0
  9
$USERR2
 40
0.0
  9
$USERR3
 40
0.0
  9
$USERR4
 40
0.0
  9
$USERR5
 40
0.0
  9
$WORLDVIEW
 70
     1
  9
$SHADEDGE
 70
     3
  9
$SHADEDIF
 70
    70
  9
$TILEMODE
 70
     1
  9
$MAXACTVP
 70
    64
  9
$PLIMCHECK
 70
     0
  9
$PEXTMIN
 10
1.0000000000000000E+20
 20
1.0000000000000000E+20
 30
1.0000000000000000E+20
  9
$PEXTMAX
 10
-1.0000000000000000E+20
 20
-1.0000000000000000E+20
 30
-1.0000000000000000E+20
  9
$PLIMMIN
 10
0.0
 20
0.0
  9
$PLIMMAX
 10
12.0
 20
9.0
  9
$UNITMODE
 70
     0
  9
$VISRETAIN
 70
     1
  9
$PLINEGEN
 70
     0
  9
$PSLTSCALE
 70
     1
  0
ENDSEC
  0
SECTION
  2
TABLES
  0
TABLE
  2
VPORT
 70
     1
  0
VPORT
  2
*ACTIVE
 70
     0
 10
0.0
 20
0.0
 11
1.0
 21
1.0
 12
23.9319266402226312
 22
-1.578238872068453
 13
0.0
 23
0.0
 14
1.0
 24
1.0
 15
0.0
 25
0.0
 16
0.0
 26
0.0
 36
136.3316120555728901
 17
3644.7310791015629547
 27
154.8826454424252006
 37
0.0
 40
37.0738174381953272
 41
2.6528599605522678
 42
50.0
 43
0.0
 44
0.0
 50
0.0
 51
0.0
 71
     0
 72
   100
 73
     1
 74
     1
 75
     0
 76
     0
 77
     0
 78
     0
  0
ENDTAB
  0
TABLE
  2
LTYPE
 70
     2
  0
LTYPE
  2
CONTINUOUS
 70
     0
  3
Solid line
 72
    65
 73
     0
 40
0.0
  0
LTYPE
  2
PHANTOM2
 70
     0
  3
___ _ _ ___ _ _ ___ _ _ ___ _ _
 72
    65
 73
     6
 40
1.25
 49
0.625
 49
-0.125
 49
0.125
 49
-0.125
 49
0.125
 49
-0.125
  0
ENDTAB
  0
TABLE
  2
LAYER
 70
     2
  0
LAYER
  2
0
 70
     0
 62
   255
  6
CONTINUOUS
  0
LAYER
  2
DEFPOINTS
 70
     0
 62
     7
  6
CONTINUOUS
  0
ENDTAB
  0
TABLE
  2
STYLE
 70
     1
  0
STYLE
  2
STANDARD
 70
     0
 40
0.0
 41
0.8
 50
0.0
 71
     0
 42
0.2
  3
txt
  4

  0
ENDTAB
  0
TABLE
  2
VIEW
 70
     0
  0
ENDTAB
  0
TABLE
  2
UCS
 70
     0
  0
ENDTAB
  0
TABLE
  2
APPID
 70
    10
  0
APPID
  2
ACAD
 70
     0
  0
APPID
  2
ACAD_MLEADERVER
 70
     0
  0
APPID
  2
ACAD_EXEMPT_FROM_CAD_STANDARDS
 70
     0
  0
APPID
  2
ACAD_NAV_VCDISPLAY
 70
     0
  0
APPID
  2
ACAECLAYERSTANDARD
 70
     0
  0
APPID
  2
ACCMTRANSPARENCY
 70
     0
  0
APPID
  2
ACAD_DSTYLE_DIMJAG
 70
     0
  0
APPID
  2
ACAD_DSTYLE_DIMTALN
 70
     0
  0
APPID
  2
ACDBATTR
 70
     0
  0
APPID
  2
ACAD_PSEXT
 70
     0
  0
ENDTAB
  0
TABLE
  2
DIMSTYLE
 70
     1
  0
DIMSTYLE
  2
STANDARD
 70
     0
  3

  4

  5

  6

  7

 40
1.0
 41
0.1875
 42
0.0625
 43
0.38
 44
0.125
 45
0.0
 46
0.0
 47
0.01
 48
0.01
140
0.15625
141
0.09
142
0.0
143
25.3999999999999986
144
1.0
145
0.0
146
1.0
147
0.09
 71
     1
 72
     0
 73
     1
 74
     1
 75
     0
 76
     0
 77
     0
 78
     4
170
     0
171
     2
172
     0
173
     0
174
     0
175
     0
176
     0
177
     0
178
     0
  0
ENDTAB
  0
ENDSEC
  0
SECTION
  2
BLOCKS
  0
BLOCK
  8
0
  2
$MODEL_SPACE
 70
     0
 10
0.0
 20
0.0
 30
0.0
  3
$MODEL_SPACE
  1

  0
ENDBLK
  5
21
  8
0
  0
BLOCK
 67
     1
  8
0
  2
$PAPER_SPACE
 70
     0
 10
0.0
 20
0.0
 30
0.0
  3
$PAPER_SPACE
  1

  0
ENDBLK
  5
1D
 67
     1
  8
0
  0
ENDSEC
  0
SECTION
  2
ENTITIES
  0
ATTDEF
  5
AA11
  8
DEFPOINTS
 10
3673.8650024541129824
 20
134.9993765632524116
 30
0.0
 40
0.001
  1
K-10129T-C4
  3

  2
MODELNUMBER
 70
     0
1001
ACDBATTR
1070
     0
1070
     1
  0
ATTDEF
  5
AA12
  8
DEFPOINTS
 10
3673.8650024541129824
 20
134.9977098965856896
 30
0.0
 40
0.001
  1
PURIST
  3

  2
TRADENAME
 70
     0
1001
ACDBATTR
1070
     0
1070
     1
  0
ATTDEF
  5
AA13
  8
DEFPOINTS
 10
3673.8650024541129824
 20
134.9960432299191098
 30
0.0
 40
0.001
  1
BATH FILLER
  3

  2
PRODUCT
 70
     0
1001
ACDBATTR
1070
     0
1070
     1
  0
LINE
  5
E82B
  8
0
 10
3661.1999873232721256
 20
166.9511253207869004
 30
0.0
 11
3662.3610896859481727
 21
166.9511253207869004
 31
0.0
  0
LINE
  5
E82C
  8
0
 10
3661.1899873216261767
 20
167.699156816886898
 30
0.0
 11
3662.3710896857191983
 21
167.699156816886898
 31
0.0
  0
LINE
  5
E82D
  8
0
 10
3671.5049479531198813
 20
135.0023064231868943
 30
0.0
 11
3671.5049479531198813
 21
135.789707997986909
 31
0.0
  0
LINE
  5
E82E
  8
0
 10
3673.0797511027199107
 20
135.789707997986909
 30
0.0
 11
3673.0797511027199107
 21
161.32682091112639
 31
0.0
  0
LINE
  5
E82F
  8
0
 10
3676.229357402020014
 20
135.0023064231868943
 30
0.0
 11
3676.229357402020014
 21
135.789707997986909
 31
0.0
  0
LINE
  5
E830
  8
0
 10
3674.6545542524199846
 20
135.789707997986909
 30
0.0
 11
3674.6545542524199846
 21
161.3268209109502038
 31
0.0
  0
LINE
  5
E831
  8
0
 10
3671.5049479531198813
 20
135.0023064231868943
 30
0.0
 11
3676.229357402020014
 21
135.0023064231868943
 31
0.0
  0
LINE
  5
E832
  8
0
 10
3671.5049479531198813
 20
135.789707997986909
 30
0.0
 11
3676.229357402020014
 21
135.789707997986909
 31
0.0
  0
LINE
  5
E833
  8
0
 10
3673.6466831222960536
 20
162.6521845453779065
 30
0.0
 11
3673.6466802367199307
 21
163.1912828010869134
 31
0.0
  0
LINE
  5
E834
  8
0
 10
3673.5561290556202039
 20
163.1912828010869134
 30
0.0
 11
3673.5561290555201595
 21
167.590889100286887
 31
0.0
  0
ARC
  5
E835
  8
0
 10
3673.5659706141091192
 20
167.5908894983930111
 30
0.0
 40
0.0098415585963364
 50
89.9942974594090543
 51
180.0023177023579137
  0
LINE
  5
E836
  8
0
 10
3673.5659715936199063
 20
167.6007310569405888
 30
0.0
 11
3674.1683337616191238
 21
167.6007310569405888
 31
0.0
  0
ARC
  5
E837
  8
0
 10
3674.1683327818800535
 20
167.590887539125589
 30
0.0
 40
0.0098435178637863
 50
0.0090869903508131
 51
89.9942972718644256
  0
LINE
  5
E838
  8
0
 10
3674.1781762996201905
 20
167.590889100286887
 30
0.0
 11
3674.1781762996201905
 21
163.1912828010869134
 31
0.0
  0
LINE
  5
E839
  8
0
 10
3674.1781762996201905
 20
163.1912828010869134
 30
0.0
 11
3673.5561290556202039
 21
163.1912828010869134
 31
0.0
  0
LINE
  5
E83A
  8
0
 10
3674.087625118520009
 20
163.1912828010869134
 30
0.0
 11
3674.0876301873659031
 21
162.6521825485033048
 31
0.0
  0
LINE
  5
E83B
  8
0
 10
3673.0797139379610599
 20
162.2209963395947057
 30
0.0
 11
3673.0798683225689274
 21
164.9432513017630129
 31
0.0
  0
LINE
  5
E83C
  8
0
 10
3673.2766014965200156
 20
164.9432513017630129
 30
0.0
 11
3673.2766014964199712
 21
168.1725151595514944
 31
0.0
  0
LINE
  5
E83D
  8
0
 10
3674.6545914173789242
 20
162.2209963394186047
 30
0.0
 11
3674.6544370327710567
 21
164.9432513017630129
 31
0.0
  0
LINE
  5
E83E
  8
0
 10
3674.4577038588199684
 20
164.9432513017630129
 30
0.0
 11
3674.4577038586198796
 21
168.1725151596891976
 31
0.0
  0
LINE
  5
E83F
  8
0
 10
3673.0798683225689274
 20
164.9432513017630129
 30
0.0
 11
3673.5561290555201595
 21
164.9432513017630129
 31
0.0
  0
LINE
  5
E840
  8
0
 10
3674.1781762996201905
 20
164.9432513017630129
 30
0.0
 11
3674.6544370327710567
 21
164.9432513017630129
 31
0.0
  0
ARC
  5
E841
  8
0
 10
3671.1899873231441234
 20
168.1725151593124963
 30
0.0
 40
2.0866141733762431
 50
0.0000000047859969
 51
88.4999999966480857
  0
LINE
  5
E842
  8
0
 10
3671.2446085146211772
 20
170.2584143021227021
 30
0.0
 11
3664.512325050030995
 21
170.4347053493027886
 31
0.0
  0
ARC
  5
E843
  8
0
 10
3664.4577038585630362
 20
168.3488062068263105
 30
0.0
 40
2.0866141730424528
 50
88.4999999966480857
 51
180.0000000175579089
  0
LINE
  5
E844
  8
0
 10
3662.371089685520019
 20
168.3488062061869073
 30
0.0
 11
3662.3710896859452077
 21
166.9611253207868913
 31
0.0
  0
ARC
  5
E845
  8
0
 10
3662.3610896859481727
 20
166.9611253207837933
 30
0.0
 40
0.0099999999969356
 50
269.9999969729179838
 51
0.0000000175595116
  0
ARC
  5
E846
  8
0
 10
3661.1999873232198297
 20
166.9611253207868913
 30
0.0
 40
0.0099999999999945
 50
179.9999999999901945
 51
270.0000002988521146
  0
LINE
  5
E847
  8
0
 10
3661.1899873232209757
 20
166.9611253207868913
 30
0.0
 11
3661.1899873202219169
 21
168.3488062061869073
 31
0.0
  0
ARC
  5
E848
  8
0
 10
3664.4577038488241669
 20
168.3488062132464904
 30
0.0
 40
3.267716528601865
 50
89.9994304101020788
 51
180.000000123782911
  0
LINE
  5
E849
  8
0
 10
3664.4577363339099065
 20
171.6165227416869072
 30
0.0
 11
3671.2755261695729132
 21
171.4391119091966118
 31
0.0
  0
ARC
  5
E84A
  8
0
 10
3671.1899873123829821
 20
168.1725151280710122
 30
0.0
 40
3.2677165462366831
 50
0.0000005543907312
 51
88.4999998232961644
  0
CIRCLE
  5
E84B
  8
0
 10
3673.8671526776201972
 20
161.7739413530327113
 30
0.0
 40
0.9054931969515447
  0
ENDSEC
  0
EOF
