  0
SECTION
  2
HEADER
  9
$ACADVER
  1
AC1009
  9
$INSBASE
 10
3923.6352268757400452
 20
171.2495279506075008
 30
0.0
  9
$EXTMIN
 10
3906.5779498657511795
 20
171.2446734766224949
 30
-0.0015258207003583
  9
$EXTMAX
 10
3940.685909687187177
 20
250.0491568148393071
 30
0.0000000349246037
  9
$LIMMIN
 10
0.0
 20
0.0
  9
$LIMMAX
 10
11.6929133858000007
 20
8.2677165353999982
  9
$ORTHOMODE
 70
     0
  9
$REGENMODE
 70
     1
  9
$FILLMODE
 70
     1
  9
$QTEXTMODE
 70
     0
  9
$MIRRTEXT
 70
     0
  9
$DRAGMODE
 70
     2
  9
$LTSCALE
 40
0.6431102362
  9
$OSMODE
 70
  4095
  9
$ATTMODE
 70
     1
  9
$TEXTSIZE
 40
0.2
  9
$TRACEWID
 40
0.05
  9
$TEXTSTYLE
  7
STANDARD
  9
$CLAYER
  8
0
  9
$CELTYPE
  6
BYLAYER
  9
$CECOLOR
 62
   256
  9
$DIMSCALE
 40
1.0
  9
$DIMASZ
 40
0.1875
  9
$DIMEXO
 40
0.0625
  9
$DIMDLI
 40
0.4443307087
  9
$DIMRND
 40
0.0
  9
$DIMDLE
 40
0.0
  9
$DIMEXE
 40
0.125
  9
$DIMTP
 40
0.01
  9
$DIMTM
 40
0.01
  9
$DIMTXT
 40
2.0
  9
$DIMCEN
 40
0.1052362205
  9
$DIMTSZ
 40
0.0
  9
$DIMTOL
 70
     1
  9
$DIMLIM
 70
     0
  9
$DIMTIH
 70
     1
  9
$DIMTOH
 70
     1
  9
$DIMSE1
 70
     0
  9
$DIMSE2
 70
     0
  9
$DIMTAD
 70
     0
  9
$DIMZIN
 70
     0
  9
$DIMBLK
  1

  9
$DIMASO
 70
     1
  9
$DIMSHO
 70
     1
  9
$DIMPOST
  1
\X
  9
$DIMAPOST
  1

  9
$DIMALT
 70
     1
  9
$DIMALTD
 70
     2
  9
$DIMALTF
 40
25.3999999999999986
  9
$DIMLFAC
 40
1.0
  9
$DIMTOFL
 70
     0
  9
$DIMTVP
 40
0.0
  9
$DIMTIX
 70
     0
  9
$DIMSOXD
 70
     0
  9
$DIMSAH
 70
     0
  9
$DIMBLK1
  1

  9
$DIMBLK2
  1

  9
$DIMSTYLE
  2
STANDARD
  9
$DIMCLRD
 70
     0
  9
$DIMCLRE
 70
     0
  9
$DIMCLRT
 70
     0
  9
$DIMTFAC
 40
1.0
  9
$DIMGAP
 40
0.09
  9
$LUNITS
 70
     2
  9
$LUPREC
 70
     4
  9
$SKETCHINC
 40
0.1
  9
$FILLETRAD
 40
0.0
  9
$AUNITS
 70
     0
  9
$AUPREC
 70
     0
  9
$MENU
  1
.
  9
$ELEVATION
 40
0.0
  9
$PELEVATION
 40
0.0
  9
$THICKNESS
 40
0.0
  9
$LIMCHECK
 70
     0
  9
$BLIPMODE
 70
     0
  9
$CHAMFERA
 40
0.0
  9
$CHAMFERB
 40
0.0
  9
$SKPOLY
 70
     0
  9
$TDCREATE
 40
2458060.468368056230247
  9
$TDUPDATE
 40
2459506.7662499998696148
  9
$TDINDWG
 40
0.7288033565000001
  9
$TDUSRTIMER
 40
0.7288033565000001
  9
$USRTIMER
 70
     1
  9
$ANGBASE
 50
0.0
  9
$ANGDIR
 70
     0
  9
$PDMODE
 70
     0
  9
$PDSIZE
 40
0.3125
  9
$PLINEWID
 40
0.0
  9
$COORDS
 70
     1
  9
$SPLFRAME
 70
     0
  9
$SPLINETYPE
 70
     6
  9
$SPLINESEGS
 70
     8
  9
$ATTDIA
 70
     1
  9
$ATTREQ
 70
     1
  9
$HANDLING
 70
     1
  9
$HANDSEED
  5
10E8B
  9
$SURFTAB1
 70
     6
  9
$SURFTAB2
 70
     6
  9
$SURFTYPE
 70
     6
  9
$SURFU
 70
     6
  9
$SURFV
 70
     6
  9
$UCSNAME
  2

  9
$UCSORG
 10
0.0
 20
0.0
 30
0.0
  9
$UCSXDIR
 10
1.0
 20
0.0
 30
0.0
  9
$UCSYDIR
 10
0.0
 20
1.0
 30
0.0
  9
$PUCSNAME
  2

  9
$PUCSORG
 10
0.0
 20
0.0
 30
0.0
  9
$PUCSXDIR
 10
1.0
 20
0.0
 30
0.0
  9
$PUCSYDIR
 10
0.0
 20
1.0
 30
0.0
  9
$USERI1
 70
     0
  9
$USERI2
 70
     0
  9
$USERI3
 70
     0
  9
$USERI4
 70
     0
  9
$USERI5
 70
     0
  9
$USERR1
 40
0.0
  9
$USERR2
 40
0.0
  9
$USERR3
 40
0.0
  9
$USERR4
 40
0.0
  9
$USERR5
 40
0.0
  9
$WORLDVIEW
 70
     1
  9
$SHADEDGE
 70
     3
  9
$SHADEDIF
 70
    70
  9
$TILEMODE
 70
     1
  9
$MAXACTVP
 70
    64
  9
$PLIMCHECK
 70
     0
  9
$PEXTMIN
 10
1.0000000000000000E+20
 20
1.0000000000000000E+20
 30
1.0000000000000000E+20
  9
$PEXTMAX
 10
-1.0000000000000000E+20
 20
-1.0000000000000000E+20
 30
-1.0000000000000000E+20
  9
$PLIMMIN
 10
0.0
 20
0.0
  9
$PLIMMAX
 10
12.0
 20
9.0
  9
$UNITMODE
 70
     0
  9
$VISRETAIN
 70
     1
  9
$PLINEGEN
 70
     0
  9
$PSLTSCALE
 70
     1
  0
ENDSEC
  0
SECTION
  2
TABLES
  0
TABLE
  2
VPORT
 70
     1
  0
VPORT
  2
*ACTIVE
 70
     0
 10
0.0
 20
0.0
 11
1.0
 21
1.0
 12
279.5561241124059961
 22
50.7026746459332784
 13
0.0
 23
0.0
 14
1.0
 24
1.0
 15
0.0
 25
0.0
 16
0.0
 26
0.0
 36
26.6346482412083887
 17
3644.0758056640620453
 27
159.9442404997975871
 37
0.0
 40
79.5133692453071603
 41
2.8393393393393391
 42
50.0
 43
0.0
 44
0.0
 50
0.0
 51
0.0
 71
     0
 72
   100
 73
     1
 74
     1
 75
     0
 76
     0
 77
     0
 78
     0
  0
ENDTAB
  0
TABLE
  2
LTYPE
 70
     2
  0
LTYPE
  2
CONTINUOUS
 70
     0
  3
Solid line
 72
    65
 73
     0
 40
0.0
  0
LTYPE
  2
PHANTOM2
 70
     0
  3
___ _ _ ___ _ _ ___ _ _ ___ _ _
 72
    65
 73
     6
 40
1.25
 49
0.625
 49
-0.125
 49
0.125
 49
-0.125
 49
0.125
 49
-0.125
  0
ENDTAB
  0
TABLE
  2
LAYER
 70
     2
  0
LAYER
  2
0
 70
     0
 62
   255
  6
CONTINUOUS
  0
LAYER
  2
DEFPOINTS
 70
     0
 62
     7
  6
CONTINUOUS
  0
ENDTAB
  0
TABLE
  2
STYLE
 70
     1
  0
STYLE
  2
STANDARD
 70
     0
 40
0.0
 41
0.8
 50
0.0
 71
     0
 42
0.2
  3
txt
  4

  0
ENDTAB
  0
TABLE
  2
VIEW
 70
     0
  0
ENDTAB
  0
TABLE
  2
UCS
 70
     0
  0
ENDTAB
  0
TABLE
  2
APPID
 70
    10
  0
APPID
  2
ACAD
 70
     0
  0
APPID
  2
ACAD_MLEADERVER
 70
     0
  0
APPID
  2
ACAD_EXEMPT_FROM_CAD_STANDARDS
 70
     0
  0
APPID
  2
ACAD_NAV_VCDISPLAY
 70
     0
  0
APPID
  2
ACAECLAYERSTANDARD
 70
     0
  0
APPID
  2
ACCMTRANSPARENCY
 70
     0
  0
APPID
  2
ACAD_DSTYLE_DIMJAG
 70
     0
  0
APPID
  2
ACAD_DSTYLE_DIMTALN
 70
     0
  0
APPID
  2
ACDBATTR
 70
     0
  0
APPID
  2
ACAD_PSEXT
 70
     0
  0
ENDTAB
  0
TABLE
  2
DIMSTYLE
 70
     1
  0
DIMSTYLE
  2
STANDARD
 70
     0
  3

  4

  5

  6

  7

 40
1.0
 41
0.1875
 42
0.0625
 43
0.38
 44
0.125
 45
0.0
 46
0.0
 47
0.01
 48
0.01
140
0.15625
141
0.09
142
0.0
143
25.3999999999999986
144
1.0
145
0.0
146
1.0
147
0.09
 71
     1
 72
     0
 73
     1
 74
     1
 75
     0
 76
     0
 77
     0
 78
     4
170
     0
171
     2
172
     0
173
     0
174
     0
175
     0
176
     0
177
     0
178
     0
  0
ENDTAB
  0
ENDSEC
  0
SECTION
  2
BLOCKS
  0
BLOCK
  8
0
  2
$MODEL_SPACE
 70
     0
 10
0.0
 20
0.0
 30
0.0
  3
$MODEL_SPACE
  1

  0
ENDBLK
  5
21
  8
0
  0
BLOCK
 67
     1
  8
0
  2
$PAPER_SPACE
 70
     0
 10
0.0
 20
0.0
 30
0.0
  3
$PAPER_SPACE
  1

  0
ENDBLK
  5
1D
 67
     1
  8
0
  0
ENDSEC
  0
SECTION
  2
ENTITIES
  0
ATTDEF
  5
AA11
  8
DEFPOINTS
 10
3923.6298696611847845
 20
171.2574129741747981
 30
0.0
 40
0.001
  1
K-1.1922.038
  3

  2
MODELNUMBER
 70
     0
1001
ACDBATTR
1070
     0
1070
     1
  0
ATTDEF
  5
AA12
  8
DEFPOINTS
 10
3923.6298696611847845
 20
171.2557463075081898
 30
0.0
 40
0.001
  1

  3

  2
TRADENAME
 70
     0
1001
ACDBATTR
1070
     0
1070
     1
  0
ATTDEF
  5
AA13
  8
DEFPOINTS
 10
3923.6298696611847845
 20
171.2540796408414963
 30
0.0
 40
0.001
  1
SHOWER DOOR
  3

  2
PRODUCT
 70
     0
1001
ACDBATTR
1070
     0
1070
     1
  0
LINE
  5
10D63
  8
0
 10
3940.5677465607400336
 20
171.2495279506075008
 30
0.0
 11
3906.7027071907400568
 21
171.2495279506075008
 31
0.0
  0
LINE
  5
10D64
  8
0
 10
3940.5677465607400336
 20
171.2495279506075008
 30
0.0
 11
3940.6189127024399568
 21
171.2495279506075008
 31
0.0
  0
LINE
  5
10D65
  8
0
 10
3908.2775103403400863
 20
171.8518901553075011
 30
0.0
 11
3940.5677465607400336
 21
171.8518901553075011
 31
0.0
  0
LINE
  5
10D66
  8
0
 10
3940.5677465607400336
 20
171.8518901553075011
 30
0.0
 11
3940.6189127024399568
 21
171.8518901553075011
 31
0.0
  0
LINE
  5
10D67
  8
0
 10
3906.7027071907400568
 20
171.2495279506075008
 30
0.0
 11
3906.7027071907400568
 21
249.9700003915075968
 31
0.0
  0
LINE
  5
10D68
  8
0
 10
3906.7027071906391029
 20
249.9700003915075968
 30
0.0
 11
3906.7027071906391029
 21
250.0487405490075048
 31
0.0
  0
LINE
  5
10D69
  8
0
 10
3906.7145182143399325
 20
249.9700003915075968
 30
0.0
 11
3906.7145182143399325
 21
250.0290555096075025
 31
0.0
  0
LINE
  5
10D6A
  8
0
 10
3908.2775103403400863
 20
250.0290555096075025
 30
0.0
 11
3908.2775103403400863
 21
249.9700003915075968
 31
0.0
  0
LINE
  5
10D6B
  8
0
 10
3908.2775103403400863
 20
249.9700003915075968
 30
0.0
 11
3908.2775103403400863
 21
171.2495279506075008
 31
0.0
  0
LINE
  5
10D6C
  8
0
 10
3908.2971953796400157
 20
249.3676381868075964
 30
0.0
 11
3908.2971953796400157
 21
249.9700003915075968
 31
0.0
  0
LINE
  5
10D6D
  8
0
 10
3913.4153056158402251
 20
249.9700003915075968
 30
0.0
 11
3913.4153056158402251
 21
249.3676381868075964
 31
0.0
  0
LINE
  5
10D6E
  8
0
 10
3940.5677465607400336
 20
249.8127799191074985
 30
0.0
 11
3940.5677465607400336
 21
171.8518901553075011
 31
0.0
  0
LINE
  5
10D6F
  8
0
 10
3913.3365654584399635
 20
249.2888980293074894
 30
0.0
 11
3908.3759355371389574
 21
249.2888980293074894
 31
0.0
  0
LINE
  5
10D70
  8
0
 10
3908.2775103403400863
 20
249.8521499978076008
 30
0.0
 11
3908.2971953796400157
 21
249.8521499978076008
 31
0.0
  0
LINE
  5
10D71
  8
0
 10
3913.4153056158402251
 20
249.8521499978076008
 30
0.0
 11
3940.5283764820401302
 21
249.8521499978076008
 31
0.0
  0
LINE
  5
10D72
  8
0
 10
3908.2775103403400863
 20
249.9640948797074884
 30
0.0
 11
3908.2971953796400157
 21
249.9640948797074884
 31
0.0
  0
LINE
  5
10D73
  8
0
 10
3906.724345851239832
 20
249.9700003915075968
 30
0.0
 11
3908.2775103403400863
 21
249.9700003915075968
 31
0.0
  0
LINE
  5
10D74
  8
0
 10
3908.2775103403400863
 20
249.9700003915075968
 30
0.0
 11
3906.7027071907400568
 21
249.9700003915075968
 31
0.0
  0
LINE
  5
10D75
  8
0
 10
3906.7027071906391029
 20
250.0487405490075048
 30
0.0
 11
3913.3365654584399635
 21
250.0487405490075048
 31
0.0
  0
LINE
  5
10D76
  8
0
 10
3940.5677465607400336
 20
249.8127799191074985
 30
0.0
 11
3940.5283764820401302
 21
249.8521499978076008
 31
0.0
  0
ARC
  5
10D77
  8
0
 10
3908.3759355371389574
 20
249.3676381868075964
 30
0.0
 40
0.0787401575
 50
180.0
 51
270.0
  0
ARC
  5
10D78
  8
0
 10
3913.3365654584399635
 20
249.3676381868075964
 30
0.0
 40
0.0787401575
 50
270.0
 51
0.0
  0
ARC
  5
10D79
  8
0
 10
3908.3759355371389574
 20
249.9700003915075968
 30
0.0
 40
0.0787401575
 50
90.0
 51
180.0
  0
ARC
  5
10D7A
  8
0
 10
3913.3365654584399635
 20
249.9700003915075968
 30
0.0
 40
0.0787401575
 50
0.0
 51
90.0
  0
ARC
  5
10D7B
  8
0
 10
3908.2578253009392029
 20
250.0290555096075025
 30
0.0
 40
0.0196850394
 50
0.0
 51
90.0393928757087423
  0
ARC
  5
10D7C
  8
0
 10
3906.7342032536398619
 20
250.0290555096075025
 30
0.0
 40
0.0196850394
 50
89.9999999998957776
 51
179.9999999998989892
  0
LINE
  5
10D7D
  8
0
 10
3908.2578253009392029
 20
250.0485115826074889
 30
0.0
 11
3908.2577168981401883
 21
250.048740250507592
 31
0.0
  0
LINE
  5
10D7E
  8
0
 10
3940.5283764820401302
 20
249.8127799191074985
 30
0.0
 11
3913.4153056158402251
 21
249.8127799191074985
 31
0.0
  0
LINE
  5
10D7F
  8
0
 10
3940.5283764820401302
 20
249.8127799191074985
 30
0.0
 11
3940.5283764820401302
 21
171.8518901553075011
 31
0.0
  0
LINE
  5
10D80
  8
0
 10
3940.5283764820401302
 20
249.8127799191074985
 30
0.0
 11
3940.5480615213900819
 21
249.832464958457507
 31
0.0
  0
LINE
  5
10D82
  8
0
 10
3940.6386127024397865
 20
171.269227950607501
 30
0.0
 11
3940.6386127024397865
 21
171.8321901553075008
 31
0.0
  0
ARC
  5
10D83
  8
0
 10
3940.6189127024399568
 20
171.269227950607501
 30
0.0
 40
0.0197
 50
270.0
 51
0.0000000000097707
  0
ARC
  5
10D84
  8
0
 10
3940.6189127024399568
 20
171.8321901553075008
 30
0.0
 40
0.0197
 50
0.0
 51
90.0
  0
ENDSEC
  0
EOF
