  0
SECTION
  2
HEADER
  9
$ACADVER
  1
AC1009
  9
$INSBASE
 10
4509.7833266645748154
 20
147.1169192215313899
 30
0.0
  9
$EXTMIN
 10
4509.3955313889246099
 20
147.1169192215313899
 30
0.0
  9
$EXTMAX
 10
4514.7672636724264521
 20
225.9161318199313939
 30
0.0
  9
$LIMMIN
 10
0.0
 20
0.0
  9
$LIMMAX
 10
11.6929133858000007
 20
8.2677165353999982
  9
$ORTHOMODE
 70
     0
  9
$REGENMODE
 70
     1
  9
$FILLMODE
 70
     1
  9
$QTEXTMODE
 70
     0
  9
$MIRRTEXT
 70
     0
  9
$DRAGMODE
 70
     2
  9
$LTSCALE
 40
0.6431102362
  9
$OSMODE
 70
  4095
  9
$ATTMODE
 70
     1
  9
$TEXTSIZE
 40
0.2
  9
$TRACEWID
 40
0.05
  9
$TEXTSTYLE
  7
STANDARD
  9
$CLAYER
  8
0
  9
$CELTYPE
  6
BYLAYER
  9
$CECOLOR
 62
   256
  9
$DIMSCALE
 40
1.0
  9
$DIMASZ
 40
0.1875
  9
$DIMEXO
 40
0.0625
  9
$DIMDLI
 40
0.4443307087
  9
$DIMRND
 40
0.0
  9
$DIMDLE
 40
0.0
  9
$DIMEXE
 40
0.125
  9
$DIMTP
 40
0.01
  9
$DIMTM
 40
0.01
  9
$DIMTXT
 40
2.0
  9
$DIMCEN
 40
0.1052362205
  9
$DIMTSZ
 40
0.0
  9
$DIMTOL
 70
     1
  9
$DIMLIM
 70
     0
  9
$DIMTIH
 70
     1
  9
$DIMTOH
 70
     1
  9
$DIMSE1
 70
     0
  9
$DIMSE2
 70
     0
  9
$DIMTAD
 70
     0
  9
$DIMZIN
 70
     0
  9
$DIMBLK
  1

  9
$DIMASO
 70
     1
  9
$DIMSHO
 70
     1
  9
$DIMPOST
  1
\X
  9
$DIMAPOST
  1

  9
$DIMALT
 70
     1
  9
$DIMALTD
 70
     2
  9
$DIMALTF
 40
25.3999999999999986
  9
$DIMLFAC
 40
1.0
  9
$DIMTOFL
 70
     0
  9
$DIMTVP
 40
0.0
  9
$DIMTIX
 70
     0
  9
$DIMSOXD
 70
     0
  9
$DIMSAH
 70
     0
  9
$DIMBLK1
  1

  9
$DIMBLK2
  1

  9
$DIMSTYLE
  2
STANDARD
  9
$DIMCLRD
 70
     0
  9
$DIMCLRE
 70
     0
  9
$DIMCLRT
 70
     0
  9
$DIMTFAC
 40
1.0
  9
$DIMGAP
 40
0.09
  9
$LUNITS
 70
     2
  9
$LUPREC
 70
     4
  9
$SKETCHINC
 40
0.1
  9
$FILLETRAD
 40
0.0
  9
$AUNITS
 70
     0
  9
$AUPREC
 70
     0
  9
$MENU
  1
.
  9
$ELEVATION
 40
0.0
  9
$PELEVATION
 40
0.0
  9
$THICKNESS
 40
0.0
  9
$LIMCHECK
 70
     0
  9
$BLIPMODE
 70
     0
  9
$CHAMFERA
 40
0.0
  9
$CHAMFERB
 40
0.0
  9
$SKPOLY
 70
     0
  9
$TDCREATE
 40
2458060.468368056230247
  9
$TDUPDATE
 40
2460090.466678240802139
  9
$TDINDWG
 40
0.770446875
  9
$TDUSRTIMER
 40
0.770446875
  9
$USRTIMER
 70
     1
  9
$ANGBASE
 50
0.0
  9
$ANGDIR
 70
     0
  9
$PDMODE
 70
     0
  9
$PDSIZE
 40
0.3125
  9
$PLINEWID
 40
0.0
  9
$COORDS
 70
     1
  9
$SPLFRAME
 70
     0
  9
$SPLINETYPE
 70
     6
  9
$SPLINESEGS
 70
     8
  9
$ATTDIA
 70
     1
  9
$ATTREQ
 70
     1
  9
$HANDLING
 70
     1
  9
$HANDSEED
  5
12A23
  9
$SURFTAB1
 70
     6
  9
$SURFTAB2
 70
     6
  9
$SURFTYPE
 70
     6
  9
$SURFU
 70
     6
  9
$SURFV
 70
     6
  9
$UCSNAME
  2

  9
$UCSORG
 10
0.0
 20
0.0
 30
0.0
  9
$UCSXDIR
 10
1.0
 20
0.0
 30
0.0
  9
$UCSYDIR
 10
0.0
 20
1.0
 30
0.0
  9
$PUCSNAME
  2

  9
$PUCSORG
 10
0.0
 20
0.0
 30
0.0
  9
$PUCSXDIR
 10
1.0
 20
0.0
 30
0.0
  9
$PUCSYDIR
 10
0.0
 20
1.0
 30
0.0
  9
$USERI1
 70
     0
  9
$USERI2
 70
     0
  9
$USERI3
 70
     0
  9
$USERI4
 70
     0
  9
$USERI5
 70
     0
  9
$USERR1
 40
0.0
  9
$USERR2
 40
0.0
  9
$USERR3
 40
0.0
  9
$USERR4
 40
0.0
  9
$USERR5
 40
0.0
  9
$WORLDVIEW
 70
     1
  9
$SHADEDGE
 70
     3
  9
$SHADEDIF
 70
    70
  9
$TILEMODE
 70
     1
  9
$MAXACTVP
 70
    64
  9
$PLIMCHECK
 70
     0
  9
$PEXTMIN
 10
1.0000000000000000E+20
 20
1.0000000000000000E+20
 30
1.0000000000000000E+20
  9
$PEXTMAX
 10
-1.0000000000000000E+20
 20
-1.0000000000000000E+20
 30
-1.0000000000000000E+20
  9
$PLIMMIN
 10
0.0
 20
0.0
  9
$PLIMMAX
 10
12.0
 20
9.0
  9
$UNITMODE
 70
     0
  9
$VISRETAIN
 70
     1
  9
$PLINEGEN
 70
     0
  9
$PSLTSCALE
 70
     1
  0
ENDSEC
  0
SECTION
  2
TABLES
  0
TABLE
  2
VPORT
 70
     1
  0
VPORT
  2
*ACTIVE
 70
     0
 10
0.0
 20
0.0
 11
1.0
 21
1.0
 12
868.0055918666131447
 22
26.5722850209337516
 13
0.0
 23
0.0
 14
1.0
 24
1.0
 15
0.0
 25
0.0
 16
0.0
 26
0.0
 36
26.6346482412083887
 17
3644.0758056640620453
 27
159.9442404997975871
 37
0.0
 40
79.200907819802211
 41
1.612244897959183
 42
50.0
 43
0.0
 44
0.0
 50
0.0
 51
0.0
 71
     0
 72
   100
 73
     1
 74
     1
 75
     0
 76
     0
 77
     0
 78
     0
  0
ENDTAB
  0
TABLE
  2
LTYPE
 70
     3
  0
LTYPE
  2
CONTINUOUS
 70
     0
  3
Solid line
 72
    65
 73
     0
 40
0.0
  0
LTYPE
  2
PHANTOM2
 70
     0
  3
___ _ _ ___ _ _ ___ _ _ ___ _ _
 72
    65
 73
     6
 40
1.25
 49
0.625
 49
-0.125
 49
0.125
 49
-0.125
 49
0.125
 49
-0.125
  0
ENDTAB
  0
TABLE
  2
LAYER
 70
     2
  0
LAYER
  2
0
 70
     0
 62
   255
  6
CONTINUOUS
  0
LAYER
  2
DEFPOINTS
 70
     0
 62
     7
  6
CONTINUOUS
  0
ENDTAB
  0
TABLE
  2
STYLE
 70
     1
  0
STYLE
  2
STANDARD
 70
     0
 40
0.0
 41
0.8
 50
0.0
 71
     0
 42
0.2
  3
txt
  4

  0
ENDTAB
  0
TABLE
  2
VIEW
 70
     0
  0
ENDTAB
  0
TABLE
  2
UCS
 70
     0
  0
ENDTAB
  0
TABLE
  2
APPID
 70
    10
  0
APPID
  2
ACAD
 70
     0
  0
APPID
  2
ACAD_MLEADERVER
 70
     0
  0
APPID
  2
ACAD_EXEMPT_FROM_CAD_STANDARDS
 70
     0
  0
APPID
  2
ACAD_NAV_VCDISPLAY
 70
     0
  0
APPID
  2
ACAECLAYERSTANDARD
 70
     0
  0
APPID
  2
ACCMTRANSPARENCY
 70
     0
  0
APPID
  2
ACAD_DSTYLE_DIMJAG
 70
     0
  0
APPID
  2
ACAD_DSTYLE_DIMTALN
 70
     0
  0
APPID
  2
ACDBATTR
 70
     0
  0
APPID
  2
ACAD_PSEXT
 70
     0
  0
ENDTAB
  0
TABLE
  2
DIMSTYLE
 70
     2
  0
DIMSTYLE
  2
STANDARD
 70
     0
  3

  4

  5

  6

  7

 40
1.0
 41
0.1875
 42
0.0625
 43
0.38
 44
0.125
 45
0.0
 46
0.0
 47
0.01
 48
0.01
140
0.15625
141
0.09
142
0.0
143
25.3999999999999986
144
1.0
145
0.0
146
1.0
147
0.09
 71
     1
 72
     0
 73
     1
 74
     1
 75
     0
 76
     0
 77
     0
 78
     4
170
     0
171
     2
172
     0
173
     0
174
     0
175
     0
176
     0
177
     0
178
     0
  0
ENDTAB
  0
ENDSEC
  0
SECTION
  2
BLOCKS
  0
BLOCK
  8
0
  2
$MODEL_SPACE
 70
     0
 10
0.0
 20
0.0
 30
0.0
  3
$MODEL_SPACE
  1

  0
ENDBLK
  5
21
  8
0
  0
BLOCK
 67
     1
  8
0
  2
$PAPER_SPACE
 70
     0
 10
0.0
 20
0.0
 30
0.0
  3
$PAPER_SPACE
  1

  0
ENDBLK
  5
1D
 67
     1
  8
0
  0
ENDSEC
  0
SECTION
  2
ENTITIES
  0
ATTDEF
  5
AA11
  8
DEFPOINTS
 10
4509.7784260817834365
 20
147.1219618105791085
 30
0.0
 40
0.001
  1
K-1.1922.037
  3

  2
MODELNUMBER
 70
     0
1001
ACDBATTR
1070
     0
1070
     1
  0
ATTDEF
  5
AA12
  8
DEFPOINTS
 10
4509.7784260817834365
 20
147.1202951439123865
 30
0.0
 40
0.001
  1
COMPOSED
  3

  2
TRADENAME
 70
     0
1001
ACDBATTR
1070
     0
1070
     1
  0
ATTDEF
  5
AA13
  8
DEFPOINTS
 10
4509.7784260817834365
 20
147.1186284772456929
 30
0.0
 40
0.001
  1
SHOWER DOOR
  3

  2
PRODUCT
 70
     0
1001
ACDBATTR
1070
     0
1070
     1
  0
LINE
  5
12811
  8
0
 10
4509.4171849322246999
 20
147.1169192215313899
 30
0.0
 11
4510.1494683969249309
 21
147.1169192215313899
 31
0.0
  0
LINE
  5
12812
  8
0
 10
4510.0470802078261841
 20
147.7192814262313902
 30
0.0
 11
4509.5116991055256221
 21
147.7192814262313902
 31
0.0
  0
ARC
  5
12813
  8
0
 10
4509.5116991055256221
 20
147.7113814262314122
 30
0.0
 40
0.0079
 50
90.0
 51
180.0
  0
LINE
  5
12814
  8
0
 10
4510.0628542236254361
 20
147.7271554419313873
 30
0.0
 11
4510.0340003552246344
 21
147.7271554419313873
 31
0.0
  0
LINE
  5
12815
  8
0
 10
4509.5037991055260136
 20
147.7271554419313873
 30
0.0
 11
4509.5923817826260347
 21
147.7271554419313873
 31
0.0
  0
LINE
  5
12816
  8
0
 10
4509.8913498532256199
 20
147.7586515049314073
 30
0.0
 11
4509.9978935936260314
 21
147.7586515049314073
 31
0.0
  0
LINE
  5
12817
  8
0
 10
4509.5926416251249975
 20
225.7195412687314047
 30
0.0
 11
4509.5530117039261313
 21
225.679911347431414
 31
0.0
  0
LINE
  5
12818
  8
0
 10
4509.5923817826260347
 20
225.6801711900313876
 30
0.0
 11
4509.6317518614259825
 21
225.7195412687314047
 31
0.0
  0
LINE
  5
12819
  8
0
 10
4509.8876573732259203
 20
225.6998562293314023
 30
0.0
 11
4509.8679723338245822
 21
225.6801711900313876
 31
0.0
  0
LINE
  5
1281A
  8
0
 10
4509.9978935936260314
 20
147.7586515049314073
 30
0.0
 11
4510.0253913096257747
 21
147.7308712415313892
 31
0.0
  0
LINE
  5
1281B
  8
0
 10
4509.3955313889246099
 20
225.1759743396314093
 30
0.0
 11
4509.3955313889246099
 21
225.8964467805313916
 31
0.0
  0
LINE
  5
1281C
  8
0
 10
4509.4171849322246999
 20
147.1169192215313899
 30
0.0
 11
4509.4171849322246999
 21
225.156289300231407
 31
0.0
  0
LINE
  5
1281D
  8
0
 10
4509.5037991055260136
 20
147.1247932372313869
 30
0.0
 11
4509.5037991055260136
 21
147.7271554419313873
 31
0.0
  0
LINE
  5
1281E
  8
0
 10
4509.5156101290249353
 20
147.7192814262313902
 30
0.0
 11
4509.5156101290249353
 21
147.7271554419313873
 31
0.0
  0
LINE
  5
1281F
  8
0
 10
4509.5530117039261313
 20
225.6799113475314016
 30
0.0
 11
4509.5530117039261313
 21
225.2290898774313916
 31
0.0
  0
LINE
  5
12820
  8
0
 10
4509.5530117039261313
 20
225.156289300231407
 30
0.0
 11
4509.5530117039261313
 21
225.679911347431414
 31
0.0
  0
LINE
  5
12821
  8
0
 10
4509.5549802078257926
 20
147.7271554419313873
 30
0.0
 11
4509.5549802078257926
 21
147.7192814262313902
 31
0.0
  0
LINE
  5
12822
  8
0
 10
4509.5923817826260347
 20
225.6801711900313876
 30
0.0
 11
4509.5923817826260347
 21
147.7192814262313902
 31
0.0
  0
LINE
  5
12823
  8
0
 10
4509.6317518614259825
 20
225.6801711900313876
 30
0.0
 11
4509.6317518614259825
 21
147.7192814262313902
 31
0.0
  0
LINE
  5
12824
  8
0
 10
4509.8679723338245822
 20
147.7192814262313902
 30
0.0
 11
4509.8679723338245822
 21
225.6801711900313876
 31
0.0
  0
LINE
  5
12825
  8
0
 10
4509.907342412525395
 20
147.7192814262313902
 30
0.0
 11
4509.907342412525395
 21
147.7219811724314127
 31
0.0
  0
LINE
  5
12826
  8
0
 10
4509.907342412525395
 20
147.7586515049314073
 30
0.0
 11
4509.907342412525395
 21
225.6801711900313876
 31
0.0
  0
LINE
  5
12827
  8
0
 10
4509.9467124913253429
 20
225.679911347431414
 30
0.0
 11
4509.9467124913253429
 21
225.156289300231407
 31
0.0
  0
LINE
  5
12828
  8
0
 10
4509.9467124913253429
 20
225.2290898774313916
 30
0.0
 11
4509.9467124913253429
 21
225.6799113475314016
 31
0.0
  0
LINE
  5
12829
  8
0
 10
4510.0057676094256749
 20
225.156289300231407
 30
0.0
 11
4510.0057676094256749
 21
147.7506965812227975
 31
0.0
  0
LINE
  5
1282A
  8
0
 10
4510.0332653253253739
 20
147.7192814262313902
 30
0.0
 11
4510.0332653253253739
 21
225.156289300231407
 31
0.0
  0
LINE
  5
1282B
  8
0
 10
4510.0340003552246344
 20
147.7192814262313902
 30
0.0
 11
4510.0340003552246344
 21
225.156289300231407
 31
0.0
  0
LINE
  5
1282C
  8
0
 10
4510.051043200024651
 20
147.7271554419313873
 30
0.0
 11
4510.051043200024651
 21
147.7182155094048994
 31
0.0
  0
LINE
  5
1282D
  8
0
 10
4510.051043200024651
 20
147.1179747282313883
 30
0.0
 11
4510.051043200024651
 21
147.1169192215313899
 31
0.0
  0
LINE
  5
1282E
  8
0
 10
4510.0549802078248831
 20
147.7113814262314122
 30
0.0
 11
4510.0549802078248831
 21
147.1247932372313869
 31
0.0
  0
ARC
  5
1282F
  8
0
 10
4510.0470802078261841
 20
147.7113814262314122
 30
0.0
 40
0.0079
 50
0.0
 51
90.0
  0
LINE
  5
12830
  8
0
 10
4510.0628542236254361
 20
147.1169192215313899
 30
0.0
 11
4510.0628542236254361
 21
147.7271554419313873
 31
0.0
  0
LINE
  5
12831
  8
0
 10
4510.1494683969249309
 20
147.1169192215313899
 30
0.0
 11
4510.1494683969249309
 21
225.156289300231407
 31
0.0
  0
LINE
  5
12832
  8
0
 10
4510.521515640925827
 20
225.1759743396314093
 30
0.0
 11
4510.521515640925827
 21
225.8964467805313916
 31
0.0
  0
LINE
  5
12833
  8
0
 10
4514.7672636724264521
 20
225.8373916624314006
 30
0.0
 11
4514.7672636724264521
 21
225.2350294577314003
 31
0.0
  0
LINE
  5
12834
  8
0
 10
4509.6317518614259825
 20
225.6801711900313876
 30
0.0
 11
4509.6120668220246444
 21
225.6998562293314023
 31
0.0
  0
LINE
  5
12835
  8
0
 10
4509.907342412525395
 20
225.6801711900313876
 30
0.0
 11
4509.8679723338245822
 21
225.7195412687314047
 31
0.0
  0
LINE
  5
12836
  8
0
 10
4509.9467124913253429
 20
225.679911347431414
 30
0.0
 11
4509.9070825700264322
 21
225.7195412687314047
 31
0.0
  0
LINE
  5
12837
  8
0
 10
4509.5530117039261313
 20
225.156289300231407
 30
0.0
 11
4509.4152164283250386
 21
225.156289300231407
 31
0.0
  0
LINE
  5
12838
  8
0
 10
4509.9467124913253429
 20
225.156289300231407
 30
0.0
 11
4514.6885235149256914
 21
225.156289300231407
 31
0.0
  0
LINE
  5
12839
  8
0
 10
4509.9467124913253429
 20
225.1621948120314016
 30
0.0
 11
4509.907342412525395
 21
225.1621948120314016
 31
0.0
  0
LINE
  5
1283A
  8
0
 10
4509.5923817826260347
 20
225.1621948120314016
 30
0.0
 11
4509.5530117039261313
 21
225.1621948120314016
 31
0.0
  0
LINE
  5
1283B
  8
0
 10
4509.8679723338245822
 20
225.6801711900313876
 30
0.0
 11
4509.6317518614259825
 21
225.6801711900313876
 31
0.0
  0
LINE
  5
1283C
  8
0
 10
4509.9070825700264322
 20
225.7195412687314047
 30
0.0
 11
4509.5926416251249975
 21
225.7195412687314047
 31
0.0
  0
LINE
  5
1283D
  8
0
 10
4509.4152164283250386
 20
225.9161318199313939
 30
0.0
 11
4514.6885235149256914
 21
225.9161318199313939
 31
0.0
  0
ARC
  5
1283E
  8
0
 10
4514.6885235149256914
 20
225.8373916624314006
 30
0.0
 40
0.0787401575
 50
0.0
 51
90.0
  0
ARC
  5
1283F
  8
0
 10
4514.6885235149256914
 20
225.2350294577314003
 30
0.0
 40
0.0787401575
 50
270.0
 51
0.0
  0
ARC
  5
12840
  8
0
 10
4509.9218678043262116
 20
147.7585657263313976
 30
0.0
 40
0.0393700787
 50
194.3164094962997126
 51
266.2171175189088217
  0
ARC
  5
12841
  8
0
 10
4509.4152164283250386
 20
225.8964467805313916
 30
0.0
 40
0.0196850394
 50
90.0
 51
180.0000000007001972
  0
ARC
  5
12842
  8
0
 10
4509.4152164283250386
 20
225.1759743396314093
 30
0.0
 40
0.0196850394
 50
179.9999999992998028
 51
270.0
  0
ARC
  5
12843
  8
0
 10
4510.5018306015253984
 20
225.8964467805313916
 30
0.0
 40
0.0196850394
 50
0.0000000002002986
 51
90.0
  0
ARC
  5
12844
  8
0
 10
4510.5018306015253984
 20
225.1759743396314093
 30
0.0
 40
0.0196850394
 50
270.0
 51
0.0
  0
ARC
  5
12845
  8
0
 10
4509.891349853124666
 20
147.7507774892314103
 30
0.0
 40
0.0078740157
 50
89.9999995558125931
 51
194.3164096828820107
  0
ARC
  5
12846
  8
0
 10
4509.5116731212256127
 20
147.1247932372313869
 30
0.0
 40
0.0078740157
 50
180.0
 51
270.0
  0
ARC
  5
12847
  8
0
 10
4510.0471061921261935
 20
147.1247932372313869
 30
0.0
 40
0.0078740157
 50
270.0
 51
0.0
  0
ARC
  5
12848
  8
0
 10
4510.0195282031891111
 20
147.72648052723261
 30
0.0
 40
0.0073249156406394
 50
280.6347063255212788
 51
36.8285001001200172
  0
LINE
  5
1295A
  8
0
 10
4510.045515640926169
 20
225.156289300231407
 30
0.0
 11
4510.0455156409252595
 21
225.9161318199313939
 31
0.0
  0
ENDSEC
  0
EOF
