  0
SECTION
  2
HEADER
  9
$ACADVER
  1
AC1009
  9
$INSBASE
 10
4654.5853263809758573
 20
158.5641734021731963
 30
0.0
  9
$EXTMIN
 10
4635.5123485720623648
 20
157.7603067973385862
 30
-0.0015258207003583
  9
$EXTMAX
 10
4673.6644145844456943
 20
197.8320220563948908
 30
0.0000000349246037
  9
$LIMMIN
 10
0.0
 20
0.0
  9
$LIMMAX
 10
11.6929133858000007
 20
8.2677165353999982
  9
$ORTHOMODE
 70
     0
  9
$REGENMODE
 70
     1
  9
$FILLMODE
 70
     1
  9
$QTEXTMODE
 70
     0
  9
$MIRRTEXT
 70
     0
  9
$DRAGMODE
 70
     2
  9
$LTSCALE
 40
0.6431102362
  9
$OSMODE
 70
  4095
  9
$ATTMODE
 70
     1
  9
$TEXTSIZE
 40
0.2
  9
$TRACEWID
 40
0.05
  9
$TEXTSTYLE
  7
STANDARD
  9
$CLAYER
  8
0
  9
$CELTYPE
  6
BYLAYER
  9
$CECOLOR
 62
   256
  9
$DIMSCALE
 40
1.0
  9
$DIMASZ
 40
0.1875
  9
$DIMEXO
 40
0.0625
  9
$DIMDLI
 40
0.4443307087
  9
$DIMRND
 40
0.0
  9
$DIMDLE
 40
0.0
  9
$DIMEXE
 40
0.125
  9
$DIMTP
 40
0.01
  9
$DIMTM
 40
0.01
  9
$DIMTXT
 40
2.0
  9
$DIMCEN
 40
0.1052362205
  9
$DIMTSZ
 40
0.0
  9
$DIMTOL
 70
     1
  9
$DIMLIM
 70
     0
  9
$DIMTIH
 70
     1
  9
$DIMTOH
 70
     1
  9
$DIMSE1
 70
     0
  9
$DIMSE2
 70
     0
  9
$DIMTAD
 70
     0
  9
$DIMZIN
 70
     0
  9
$DIMBLK
  1

  9
$DIMASO
 70
     1
  9
$DIMSHO
 70
     1
  9
$DIMPOST
  1
\X
  9
$DIMAPOST
  1

  9
$DIMALT
 70
     1
  9
$DIMALTD
 70
     2
  9
$DIMALTF
 40
25.3999999999999986
  9
$DIMLFAC
 40
1.0
  9
$DIMTOFL
 70
     0
  9
$DIMTVP
 40
0.0
  9
$DIMTIX
 70
     0
  9
$DIMSOXD
 70
     0
  9
$DIMSAH
 70
     0
  9
$DIMBLK1
  1

  9
$DIMBLK2
  1

  9
$DIMSTYLE
  2
STANDARD
  9
$DIMCLRD
 70
     0
  9
$DIMCLRE
 70
     0
  9
$DIMCLRT
 70
     0
  9
$DIMTFAC
 40
1.0
  9
$DIMGAP
 40
0.09
  9
$LUNITS
 70
     2
  9
$LUPREC
 70
     4
  9
$SKETCHINC
 40
0.1
  9
$FILLETRAD
 40
0.0
  9
$AUNITS
 70
     0
  9
$AUPREC
 70
     0
  9
$MENU
  1
.
  9
$ELEVATION
 40
0.0
  9
$PELEVATION
 40
0.0
  9
$THICKNESS
 40
0.0
  9
$LIMCHECK
 70
     0
  9
$BLIPMODE
 70
     0
  9
$CHAMFERA
 40
0.0
  9
$CHAMFERB
 40
0.0
  9
$SKPOLY
 70
     0
  9
$TDCREATE
 40
2458060.468368056230247
  9
$TDUPDATE
 40
2460005.4753240738064051
  9
$TDINDWG
 40
0.7670440972
  9
$TDUSRTIMER
 40
0.7670440972
  9
$USRTIMER
 70
     1
  9
$ANGBASE
 50
0.0
  9
$ANGDIR
 70
     0
  9
$PDMODE
 70
     0
  9
$PDSIZE
 40
0.3125
  9
$PLINEWID
 40
0.0
  9
$COORDS
 70
     1
  9
$SPLFRAME
 70
     0
  9
$SPLINETYPE
 70
     6
  9
$SPLINESEGS
 70
     8
  9
$ATTDIA
 70
     1
  9
$ATTREQ
 70
     1
  9
$HANDLING
 70
     1
  9
$HANDSEED
  5
12AB7
  9
$SURFTAB1
 70
     6
  9
$SURFTAB2
 70
     6
  9
$SURFTYPE
 70
     6
  9
$SURFU
 70
     6
  9
$SURFV
 70
     6
  9
$UCSNAME
  2

  9
$UCSORG
 10
0.0
 20
0.0
 30
0.0
  9
$UCSXDIR
 10
1.0
 20
0.0
 30
0.0
  9
$UCSYDIR
 10
0.0
 20
1.0
 30
0.0
  9
$PUCSNAME
  2

  9
$PUCSORG
 10
0.0
 20
0.0
 30
0.0
  9
$PUCSXDIR
 10
1.0
 20
0.0
 30
0.0
  9
$PUCSYDIR
 10
0.0
 20
1.0
 30
0.0
  9
$USERI1
 70
     0
  9
$USERI2
 70
     0
  9
$USERI3
 70
     0
  9
$USERI4
 70
     0
  9
$USERI5
 70
     0
  9
$USERR1
 40
0.0
  9
$USERR2
 40
0.0
  9
$USERR3
 40
0.0
  9
$USERR4
 40
0.0
  9
$USERR5
 40
0.0
  9
$WORLDVIEW
 70
     1
  9
$SHADEDGE
 70
     3
  9
$SHADEDIF
 70
    70
  9
$TILEMODE
 70
     1
  9
$MAXACTVP
 70
    64
  9
$PLIMCHECK
 70
     0
  9
$PEXTMIN
 10
1.0000000000000000E+20
 20
1.0000000000000000E+20
 30
1.0000000000000000E+20
  9
$PEXTMAX
 10
-1.0000000000000000E+20
 20
-1.0000000000000000E+20
 30
-1.0000000000000000E+20
  9
$PLIMMIN
 10
0.0
 20
0.0
  9
$PLIMMAX
 10
12.0
 20
9.0
  9
$UNITMODE
 70
     0
  9
$VISRETAIN
 70
     1
  9
$PLINEGEN
 70
     0
  9
$PSLTSCALE
 70
     1
  0
ENDSEC
  0
SECTION
  2
TABLES
  0
TABLE
  2
VPORT
 70
     1
  0
VPORT
  2
*ACTIVE
 70
     0
 10
0.0
 20
0.0
 11
1.0
 21
1.0
 12
1010.5125759141909612
 22
17.8519239270691195
 13
0.0
 23
0.0
 14
1.0
 24
1.0
 15
0.0
 25
0.0
 16
0.0
 26
0.0
 36
26.6346482412083887
 17
3644.0758056640620453
 27
159.9442404997975871
 37
0.0
 40
40.3454734474733385
 41
2.2592190889370931
 42
50.0
 43
0.0
 44
0.0
 50
0.0
 51
0.0
 71
     0
 72
   100
 73
     1
 74
     1
 75
     0
 76
     0
 77
     0
 78
     0
  0
ENDTAB
  0
TABLE
  2
LTYPE
 70
     3
  0
LTYPE
  2
CONTINUOUS
 70
     0
  3
Solid line
 72
    65
 73
     0
 40
0.0
  0
LTYPE
  2
PHANTOM2
 70
     0
  3
___ _ _ ___ _ _ ___ _ _ ___ _ _
 72
    65
 73
     6
 40
1.25
 49
0.625
 49
-0.125
 49
0.125
 49
-0.125
 49
0.125
 49
-0.125
  0
ENDTAB
  0
TABLE
  2
LAYER
 70
     2
  0
LAYER
  2
0
 70
     0
 62
   255
  6
CONTINUOUS
  0
LAYER
  2
DEFPOINTS
 70
     0
 62
     7
  6
CONTINUOUS
  0
ENDTAB
  0
TABLE
  2
STYLE
 70
     1
  0
STYLE
  2
STANDARD
 70
     0
 40
0.0
 41
0.8
 50
0.0
 71
     0
 42
0.2
  3
txt
  4

  0
ENDTAB
  0
TABLE
  2
VIEW
 70
     0
  0
ENDTAB
  0
TABLE
  2
UCS
 70
     0
  0
ENDTAB
  0
TABLE
  2
APPID
 70
    10
  0
APPID
  2
ACAD
 70
     0
  0
APPID
  2
ACAD_MLEADERVER
 70
     0
  0
APPID
  2
ACAD_EXEMPT_FROM_CAD_STANDARDS
 70
     0
  0
APPID
  2
ACAD_NAV_VCDISPLAY
 70
     0
  0
APPID
  2
ACAECLAYERSTANDARD
 70
     0
  0
APPID
  2
ACCMTRANSPARENCY
 70
     0
  0
APPID
  2
ACAD_DSTYLE_DIMJAG
 70
     0
  0
APPID
  2
ACAD_DSTYLE_DIMTALN
 70
     0
  0
APPID
  2
ACDBATTR
 70
     0
  0
APPID
  2
ACAD_PSEXT
 70
     0
  0
ENDTAB
  0
TABLE
  2
DIMSTYLE
 70
     2
  0
DIMSTYLE
  2
STANDARD
 70
     0
  3

  4

  5

  6

  7

 40
1.0
 41
0.1875
 42
0.0625
 43
0.38
 44
0.125
 45
0.0
 46
0.0
 47
0.01
 48
0.01
140
0.15625
141
0.09
142
0.0
143
25.3999999999999986
144
1.0
145
0.0
146
1.0
147
0.09
 71
     1
 72
     0
 73
     1
 74
     1
 75
     0
 76
     0
 77
     0
 78
     4
170
     0
171
     2
172
     0
173
     0
174
     0
175
     0
176
     0
177
     0
178
     0
  0
ENDTAB
  0
ENDSEC
  0
SECTION
  2
BLOCKS
  0
BLOCK
  8
0
  2
$MODEL_SPACE
 70
     0
 10
0.0
 20
0.0
 30
0.0
  3
$MODEL_SPACE
  1

  0
ENDBLK
  5
21
  8
0
  0
BLOCK
 67
     1
  8
0
  2
$PAPER_SPACE
 70
     0
 10
0.0
 20
0.0
 30
0.0
  3
$PAPER_SPACE
  1

  0
ENDBLK
  5
1D
 67
     1
  8
0
  0
ENDSEC
  0
SECTION
  2
ENTITIES
  0
ATTDEF
  5
AA11
  8
DEFPOINTS
 10
4654.5797354428095787
 20
158.5604795359244861
 30
0.0
 40
0.001
  1
K-1.1922.033
  3

  2
MODELNUMBER
 70
     0
1001
ACDBATTR
1070
     0
1070
     1
  0
ATTDEF
  5
AA12
  8
DEFPOINTS
 10
4654.5797354428095787
 20
158.5588128692577925
 30
0.0
 40
0.001
  1
COMPOSED
  3

  2
TRADENAME
 70
     0
1001
ACDBATTR
1070
     0
1070
     1
  0
ATTDEF
  5
AA13
  8
DEFPOINTS
 10
4654.5797354428095787
 20
158.5571462025912126
 30
0.0
 40
0.001
  1
SHOWER DOOR
  3

  2
PRODUCT
 70
     0
1001
ACDBATTR
1070
     0
1070
     1
  0
LINE
  5
12843
  8
0
 10
4635.6488736250757938
 20
163.5520474179535029
 30
0.0
 11
4635.6488736250757938
 21
159.0464568667534877
 31
0.0
  0
LINE
  5
12844
  8
0
 10
4635.6488736250757938
 20
158.2355507665535015
 30
0.0
 11
4635.6488736250757938
 21
158.2826773390534925
 31
0.0
  0
LINE
  5
12845
  8
0
 10
4635.6488736250757938
 20
158.8535434810534923
 30
0.0
 11
4635.6488736250757938
 21
158.9045784394535019
 31
0.0
  0
LINE
  5
12846
  8
0
 10
4635.6606846486756695
 20
158.2275297244534897
 30
0.0
 11
4635.6606846486756695
 21
158.9125572958535031
 31
0.0
  0
LINE
  5
12847
  8
0
 10
4636.1252515777759982
 20
160.8023623785535108
 30
0.0
 11
4636.1252515777759982
 21
163.5323623785535005
 31
0.0
  0
LINE
  5
12848
  8
0
 10
4637.223676774676278
 20
158.9045784395534895
 30
0.0
 11
4637.223676774676278
 21
158.2355507665535015
 31
0.0
  0
LINE
  5
12849
  8
0
 10
4637.2433618140757972
 20
158.2000001738535104
 30
0.0
 11
4637.2433618140757972
 21
158.8299214336535101
 31
0.0
  0
LINE
  5
1284A
  8
0
 10
4637.2433618140757972
 20
158.8299214336535101
 30
0.0
 11
4637.2433618140757972
 21
158.9677167092534944
 31
0.0
  0
LINE
  5
1284B
  8
0
 10
4637.2352665899761632
 20
158.8180490708535046
 30
0.0
 11
4637.2433618140757972
 21
158.8100361816534871
 31
0.0
  0
LINE
  5
1284C
  8
0
 10
4642.3614720502746422
 20
159.2866143470535008
 30
0.0
 11
4642.3614720502746422
 21
158.2000001738535104
 31
0.0
  0
LINE
  5
1284D
  8
0
 10
4642.3417870108760326
 20
158.1803151344535081
 30
0.0
 11
4637.2630468533761814
 21
158.1803151344535081
 31
0.0
  0
LINE
  5
1284E
  8
0
 10
4673.4918498789756995
 20
158.2885828510536044
 30
0.0
 11
4667.449974790779379
 21
158.2885828510341923
 31
0.0
  0
LINE
  5
1284F
  8
0
 10
4666.9794251098746827
 20
158.288582851032686
 30
0.0
 11
4642.3614720502746422
 21
158.2885828509535031
 31
0.0
  0
LINE
  5
12850
  8
0
 10
4637.2433618140757972
 20
158.2885828509535031
 30
0.0
 11
4637.223676774676278
 21
158.2885828509535031
 31
0.0
  0
LINE
  5
12851
  8
0
 10
4637.223676774676278
 20
158.3771655281535118
 30
0.0
 11
4637.2433618140757972
 21
158.3771655281535118
 31
0.0
  0
LINE
  5
12852
  8
0
 10
4642.3614720502746422
 20
158.3771655281535118
 30
0.0
 11
4666.9794251098746827
 21
158.3771655281535118
 31
0.0
  0
LINE
  5
12853
  8
0
 10
4667.449974790779379
 20
158.3771655281535118
 30
0.0
 11
4673.4115429163748558
 21
158.3771655281535118
 31
0.0
  0
LINE
  5
12854
  8
0
 10
4673.4115429163748558
 20
158.3771655281535118
 30
0.0
 11
4673.4509129951757131
 21
158.3771655281535118
 31
0.0
  0
LINE
  5
12855
  8
0
 10
4637.223676774676278
 20
158.4165356068535004
 30
0.0
 11
4637.2433618140757972
 21
158.4165356068535004
 31
0.0
  0
LINE
  5
12856
  8
0
 10
4642.3614720502746422
 20
158.4165356068535004
 30
0.0
 11
4666.9794251098746827
 21
158.416535606932797
 31
0.0
  0
LINE
  5
12857
  8
0
 10
4667.449974790779379
 20
158.4165356069343034
 30
0.0
 11
4673.4115429163748558
 21
158.416535606953488
 31
0.0
  0
LINE
  5
12858
  8
0
 10
4673.4115429163748558
 20
158.6527560793535088
 30
0.0
 11
4667.449974790779379
 21
158.6527560793535088
 31
0.0
  0
LINE
  5
12859
  8
0
 10
4666.9794251098746827
 20
158.6527560793535088
 30
0.0
 11
4642.3614720502746422
 21
158.6527560793535088
 31
0.0
  0
LINE
  5
1285A
  8
0
 10
4637.2433618140757972
 20
158.6527560793535088
 30
0.0
 11
4637.223676774676278
 21
158.6527560793535088
 31
0.0
  0
LINE
  5
1285B
  8
0
 10
4673.4354094915770474
 20
158.6682595829535103
 30
0.0
 11
4673.4509129951757131
 21
158.6682595829533966
 31
0.0
  0
LINE
  5
1285C
  8
0
 10
4673.4275354757746754
 20
158.6761335986535073
 30
0.0
 11
4673.4509129951757131
 21
158.6761335986535073
 31
0.0
  0
LINE
  5
1285D
  8
0
 10
4673.4115429163748558
 20
158.6921261580534974
 30
0.0
 11
4667.449974790779379
 21
158.6921261580534974
 31
0.0
  0
LINE
  5
1285E
  8
0
 10
4666.9794251098746827
 20
158.6921261580534974
 30
0.0
 11
4642.3614720502746422
 21
158.6921261580534974
 31
0.0
  0
LINE
  5
1285F
  8
0
 10
4637.2433618140757972
 20
158.6921261580534974
 30
0.0
 11
4637.223676774676278
 21
158.6921261580534974
 31
0.0
  0
LINE
  5
12860
  8
0
 10
4642.3614720502746422
 20
158.7826773391535085
 30
0.0
 11
4666.9794251098746827
 21
158.7826773391535085
 31
0.0
  0
LINE
  5
12861
  8
0
 10
4667.449974790779379
 20
158.7826773391535085
 30
0.0
 11
4673.4509129951757131
 21
158.7826773391535085
 31
0.0
  0
LINE
  5
12862
  8
0
 10
4673.4509129951757131
 20
158.8101750551535076
 30
0.0
 11
4667.449974790779379
 21
158.8101750551535076
 31
0.0
  0
LINE
  5
12863
  8
0
 10
4666.9794251098746827
 20
158.8101750551535076
 30
0.0
 11
4642.3614720502746422
 21
158.8101750551535076
 31
0.0
  0
LINE
  5
12864
  8
0
 10
4637.2433618140757972
 20
158.8109100849534912
 30
0.0
 11
4637.2424789311771747
 21
158.8109100849534912
 31
0.0
  0
LINE
  5
12865
  8
0
 10
4637.223676774676278
 20
158.8397639533534971
 30
0.0
 11
4637.2433618140757972
 21
158.8397639533534971
 31
0.0
  0
LINE
  5
12866
  8
0
 10
4642.3614720502746422
 20
158.8397639533534971
 30
0.0
 11
4666.9794251098746827
 21
158.8397639533534971
 31
0.0
  0
LINE
  5
12867
  8
0
 10
4667.449974790779379
 20
158.8397639533534971
 30
0.0
 11
4673.4918498789756995
 21
158.8397639533534971
 31
0.0
  0
LINE
  5
12868
  8
0
 10
4637.2433618140757972
 20
158.9677167092534944
 30
0.0
 11
4635.727613782575645
 21
158.9677167092534944
 31
0.0
  0
LINE
  5
12869
  8
0
 10
4642.3417870108760326
 20
159.3062993864535031
 30
0.0
 11
4637.6213145699748566
 21
159.3062993864535031
 31
0.0
  0
LINE
  5
1286A
  8
0
 10
4635.6488736250757938
 20
163.5520474179535029
 30
0.0
 11
4636.1055665384747044
 21
163.5520474179535029
 31
0.0
  0
LINE
  5
1286B
  8
0
 10
4673.431227955776194
 20
158.3968505675534004
 30
0.0
 11
4673.4115429163748558
 21
158.416535606953488
 31
0.0
  0
LINE
  5
1286C
  8
0
 10
4673.4115429163748558
 20
158.6921261580534974
 30
0.0
 11
4673.4509129951757131
 21
158.6527560793535088
 31
0.0
  0
LINE
  5
1286D
  8
0
 10
4673.431227955776194
 20
158.6724411187535111
 30
0.0
 11
4673.4115429163748558
 21
158.6527560793535088
 31
0.0
  0
LINE
  5
1286E
  8
0
 10
4673.4509129951757131
 20
158.416535606953488
 30
0.0
 11
4673.4115429163748558
 21
158.3771655281535118
 31
0.0
  0
LINE
  5
1286F
  8
0
 10
4673.4115429163748558
 20
158.6527560793535088
 30
0.0
 11
4673.4115429163748558
 21
158.416535606953488
 31
0.0
  0
LINE
  5
12870
  8
0
 10
4673.4509129951757131
 20
158.8397639533534971
 30
0.0
 11
4673.4509129951757131
 21
158.2885828510534907
 31
0.0
  0
ARC
  5
12871
  8
0
 10
4636.4362751998760359
 20
129.4066930873534886
 30
0.0
 40
29.5275590550999993
 50
88.5091477175662646
 51
91.4908522826422228
  0
ARC
  5
12872
  8
0
 10
4636.4362751998760359
 20
179.4336797347534969
 30
0.0
 40
21.2317110569999983
 50
267.9261614142156986
 51
272.0738385857843014
  0
ARC
  5
12873
  8
0
 10
4637.6213145699748566
 20
160.8023623785535108
 30
0.0
 40
1.4960629920999999
 50
180.0
 51
270.0
  0
ARC
  5
12874
  8
0
 10
4635.727613782575645
 20
159.0464568667534877
 30
0.0
 40
0.0787401575
 50
179.9999999949990013
 51
269.9999999977072207
  0
ARC
  5
12875
  8
0
 10
4637.2629610747762854
 20
158.7145255656535028
 30
0.0
 40
0.0393700787
 50
183.5646047004989043
 51
214.6841636912922127
  0
ARC
  5
12876
  8
0
 10
4637.2039917352749399
 20
158.2355507665535015
 30
0.0
 40
0.0196850394
 50
271.7585005021641109
 51
0.0
  0
ARC
  5
12877
  8
0
 10
4637.2039917352749399
 20
158.9045784395534895
 30
0.0
 40
0.0196850394
 50
0.0
 51
88.5091477175662646
  0
ARC
  5
12878
  8
0
 10
4635.6685586643761781
 20
158.9045784394535019
 30
0.0
 40
0.0196850394
 50
91.4908522826422228
 51
179.9999999976990068
  0
ARC
  5
12879
  8
0
 10
4635.6685586644762225
 20
158.2355507665535015
 30
0.0
 40
0.0196850394
 50
180.0000000079988922
 51
268.2414994980445044
  0
ARC
  5
1287A
  8
0
 10
4637.2630468533761814
 20
158.2000001738535104
 30
0.0
 40
0.0196850394
 50
180.0
 51
270.0000000006775167
  0
ARC
  5
1287B
  8
0
 10
4642.3417870108760326
 20
158.2000001738535104
 30
0.0
 40
0.0196850394
 50
270.000000000208388
 51
0.0
  0
ARC
  5
1287C
  8
0
 10
4642.3417870108760326
 20
159.2866143470535008
 30
0.0
 40
0.0196850394
 50
0.0
 51
90.0000000006774314
  0
ARC
  5
1287D
  8
0
 10
4636.1055665384747044
 20
163.5323623785535005
 30
0.0
 40
0.0196850394
 50
0.0
 51
90.0
  0
ARC
  5
1287E
  8
0
 10
4635.6724956722764546
 20
158.9125572958535031
 30
0.0
 40
0.0118110236
 50
91.4828094349961418
 51
180.0000000022000108
  0
ARC
  5
1287F
  8
0
 10
4635.6724956722764546
 20
158.2275297244534897
 30
0.0
 40
0.0118110236
 50
180.0000000019996946
 51
267.9372759304882834
  0
ARC
  5
12880
  8
0
 10
4635.6606846486756695
 20
158.8535434809535047
 30
0.0
 40
0.0118110236
 50
179.9999995508001973
 51
269.9999987840083122
  0
ARC
  5
12881
  8
0
 10
4635.6606846486756695
 20
158.2826773391535085
 30
0.0
 40
0.0118110236
 50
90.0000012180239963
 51
180.0000004419987931
  0
ARC
  5
12882
  8
0
 10
4670.3006505279754492
 20
158.5641734021535001
 30
0.0
 40
3.2211286088999991
 50
355.4152042079741136
 51
4.5847957920258837
  0
ARC
  5
12883
  8
0
 10
4673.4918498789756995
 20
158.3082678903535054
 30
0.0
 40
0.0196850394
 50
270.0000000002606271
 51
355.4152042079936109
  0
ARC
  5
12884
  8
0
 10
4673.4918498789756995
 20
158.8200789139534947
 30
0.0
 40
0.0196850394
 50
4.5847957920486087
 51
90.0
  0
ARC
  5
12885
  8
0
 10
4637.2297944843094228
 20
158.8142404032610102
 30
0.0
 40
0.0066670750146672
 50
34.8384955443321687
 51
156.5777370696721107
  0
LINE
  5
12887
  8
0
 10
4666.9794251098746827
 20
157.8653545045534941
 30
0.0
 11
4667.4499747906784251
 21
157.8653545045534941
 31
0.0
  0
LINE
  5
12888
  8
0
 10
4667.5199844934759312
 20
196.6724777589535051
 30
0.0
 11
4667.4981544127758752
 21
196.65064767815349
 31
0.0
  0
LINE
  5
12889
  8
0
 10
4666.9794251098746827
 20
157.8653545045534941
 30
0.0
 11
4666.9805201069375471
 21
157.8040593368953921
 31
0.0
  0
LINE
  5
1288A
  8
0
 10
4666.8960361119761728
 20
196.6862254015534859
 30
0.0
 11
4666.8860895855759736
 21
197.8259844258535054
 31
0.0
  0
LINE
  5
1288B
  8
0
 10
4667.5356958847760325
 20
197.8259844258535054
 30
0.0
 11
4667.5257493584758777
 21
196.6862254015534859
 31
0.0
  0
LINE
  5
1288C
  8
0
 10
4667.4489304008138788
 20
157.8040907340169952
 30
0.0
 11
4667.4499747906784251
 21
157.8653545045534941
 31
0.0
  0
LINE
  5
1288D
  8
0
 10
4666.9375644602177999
 20
196.6448820636535118
 30
0.0
 11
4667.484221010249712
 21
196.6448820636535118
 31
0.0
  0
LINE
  5
1288E
  8
0
 10
4667.5199844934759312
 20
196.6724777589535051
 30
0.0
 11
4666.9018009769761193
 21
196.6724777589535051
 31
0.0
  0
LINE
  5
1288F
  8
0
 10
4667.5356958847760325
 20
197.8259844258535054
 30
0.0
 11
4666.8860895855759736
 21
197.8259844258535054
 31
0.0
  0
LINE
  5
12890
  8
0
 10
4666.9236310576761753
 20
196.65064767815349
 30
0.0
 11
4666.9018009769761193
 21
196.6724777589535051
 31
0.0
  0
CIRCLE
  5
12891
  8
0
 10
4667.2108927351755483
 20
196.9204726148535087
 30
0.0
 40
0.1023622047
  0
CIRCLE
  5
12892
  8
0
 10
4667.2108927351755483
 20
196.9204726148535087
 30
0.0
 40
0.0826771654
  0
ARC
  5
12893
  8
0
 10
4666.9157204017747063
 20
196.6863971837535132
 30
0.0
 40
0.0196850394
 50
180.5000000154996087
 51
224.9999999994876134
  0
ARC
  5
12894
  8
0
 10
4666.9375504824747622
 20
196.6645671030535141
 30
0.0
 40
0.0196850394
 50
224.9999999887949116
 51
270.0406839668262933
  0
ARC
  5
12895
  8
0
 10
4667.5060650686746158
 20
196.6863971837535132
 30
0.0
 40
0.0196850394
 50
315.0000000003892069
 51
359.4999999852004748
  0
ARC
  5
12896
  8
0
 10
4667.4842349879745598
 20
196.6645671030535141
 30
0.0
 40
0.0196850394
 50
269.9593160808232142
 51
315.0000000112050884
  0
ARC
  5
12897
  8
0
 10
4667.214675188448382
 20
159.2032733702039025
 30
0.0
 40
1.4349058785459829
 50
261.2839026098678232
 51
278.7201871560627069
  0
ARC
  5
12898
  8
0
 10
4667.4292332627474025
 20
157.8044265196072047
 30
0.0
 40
0.0197
 50
278.7201871560627069
 51
359.0233487891812842
  0
ARC
  5
12899
  8
0
 10
4667.0002169642166336
 20
157.8044112080409889
 30
0.0
 40
0.0197
 50
181.0234418129215044
 51
261.2839026098678232
  0
LINE
  5
1289A
  8
0
 10
4667.449974790779379
 20
157.8653545045534941
 30
0.0
 11
4667.449974790779379
 21
196.6448820636535118
 31
0.0
  0
LINE
  5
1289B
  8
0
 10
4666.9794251098746827
 20
157.8653545045534941
 30
0.0
 11
4666.9794251098746827
 21
196.6448820636535118
 31
0.0
  0
LINE
  5
1289C
  8
0
 10
4667.116267085574691
 20
157.8653545045534941
 30
0.0
 11
4667.116267085574691
 21
196.6448820636535118
 31
0.0
  0
LINE
  5
1289D
  8
0
 10
4667.3131174191748869
 20
157.8653545045534941
 30
0.0
 11
4667.3131174191748869
 21
196.6448820636535118
 31
0.0
  0
ENDSEC
  0
EOF
