  0
SECTION
  2
HEADER
  9
$ACADVER
  1
AC1009
  9
$INSBASE
 10
4404.3430244618466531
 20
141.8642834027868105
 30
0.0
  9
$EXTMIN
 10
4387.2713278613300645
 20
141.8570688930929862
 30
-0.0015258207003583
  9
$EXTMAX
 10
4421.6731731348918402
 20
220.6787877876186883
 30
0.0000000349246037
  9
$LIMMIN
 10
0.0
 20
0.0
  9
$LIMMAX
 10
11.6929133858000007
 20
8.2677165353999982
  9
$ORTHOMODE
 70
     0
  9
$REGENMODE
 70
     1
  9
$FILLMODE
 70
     1
  9
$QTEXTMODE
 70
     0
  9
$MIRRTEXT
 70
     0
  9
$DRAGMODE
 70
     2
  9
$LTSCALE
 40
0.6431102362
  9
$OSMODE
 70
  4095
  9
$ATTMODE
 70
     1
  9
$TEXTSIZE
 40
0.2
  9
$TRACEWID
 40
0.05
  9
$TEXTSTYLE
  7
STANDARD
  9
$CLAYER
  8
0
  9
$CELTYPE
  6
BYLAYER
  9
$CECOLOR
 62
   256
  9
$DIMSCALE
 40
1.0
  9
$DIMASZ
 40
0.1875
  9
$DIMEXO
 40
0.0625
  9
$DIMDLI
 40
0.4443307087
  9
$DIMRND
 40
0.0
  9
$DIMDLE
 40
0.0
  9
$DIMEXE
 40
0.125
  9
$DIMTP
 40
0.01
  9
$DIMTM
 40
0.01
  9
$DIMTXT
 40
2.0
  9
$DIMCEN
 40
0.1052362205
  9
$DIMTSZ
 40
0.0
  9
$DIMTOL
 70
     1
  9
$DIMLIM
 70
     0
  9
$DIMTIH
 70
     1
  9
$DIMTOH
 70
     1
  9
$DIMSE1
 70
     0
  9
$DIMSE2
 70
     0
  9
$DIMTAD
 70
     0
  9
$DIMZIN
 70
     0
  9
$DIMBLK
  1

  9
$DIMASO
 70
     1
  9
$DIMSHO
 70
     1
  9
$DIMPOST
  1
\X
  9
$DIMAPOST
  1

  9
$DIMALT
 70
     1
  9
$DIMALTD
 70
     2
  9
$DIMALTF
 40
25.3999999999999986
  9
$DIMLFAC
 40
1.0
  9
$DIMTOFL
 70
     0
  9
$DIMTVP
 40
0.0
  9
$DIMTIX
 70
     0
  9
$DIMSOXD
 70
     0
  9
$DIMSAH
 70
     0
  9
$DIMBLK1
  1

  9
$DIMBLK2
  1

  9
$DIMSTYLE
  2
STANDARD
  9
$DIMCLRD
 70
     0
  9
$DIMCLRE
 70
     0
  9
$DIMCLRT
 70
     0
  9
$DIMTFAC
 40
1.0
  9
$DIMGAP
 40
0.09
  9
$LUNITS
 70
     2
  9
$LUPREC
 70
     4
  9
$SKETCHINC
 40
0.1
  9
$FILLETRAD
 40
0.0
  9
$AUNITS
 70
     0
  9
$AUPREC
 70
     0
  9
$MENU
  1
.
  9
$ELEVATION
 40
0.0
  9
$PELEVATION
 40
0.0
  9
$THICKNESS
 40
0.0
  9
$LIMCHECK
 70
     0
  9
$BLIPMODE
 70
     0
  9
$CHAMFERA
 40
0.0
  9
$CHAMFERB
 40
0.0
  9
$SKPOLY
 70
     0
  9
$TDCREATE
 40
2458060.468368056230247
  9
$TDUPDATE
 40
2459545.8584837960079312
  9
$TDINDWG
 40
0.7599144676
  9
$TDUSRTIMER
 40
0.7599144676
  9
$USRTIMER
 70
     1
  9
$ANGBASE
 50
0.0
  9
$ANGDIR
 70
     0
  9
$PDMODE
 70
     0
  9
$PDSIZE
 40
0.3125
  9
$PLINEWID
 40
0.0
  9
$COORDS
 70
     1
  9
$SPLFRAME
 70
     0
  9
$SPLINETYPE
 70
     6
  9
$SPLINESEGS
 70
     8
  9
$ATTDIA
 70
     1
  9
$ATTREQ
 70
     1
  9
$HANDLING
 70
     1
  9
$HANDSEED
  5
12469
  9
$SURFTAB1
 70
     6
  9
$SURFTAB2
 70
     6
  9
$SURFTYPE
 70
     6
  9
$SURFU
 70
     6
  9
$SURFV
 70
     6
  9
$UCSNAME
  2

  9
$UCSORG
 10
0.0
 20
0.0
 30
0.0
  9
$UCSXDIR
 10
1.0
 20
0.0
 30
0.0
  9
$UCSYDIR
 10
0.0
 20
1.0
 30
0.0
  9
$PUCSNAME
  2

  9
$PUCSORG
 10
0.0
 20
0.0
 30
0.0
  9
$PUCSXDIR
 10
1.0
 20
0.0
 30
0.0
  9
$PUCSYDIR
 10
0.0
 20
1.0
 30
0.0
  9
$USERI1
 70
     0
  9
$USERI2
 70
     0
  9
$USERI3
 70
     0
  9
$USERI4
 70
     0
  9
$USERI5
 70
     0
  9
$USERR1
 40
0.0
  9
$USERR2
 40
0.0
  9
$USERR3
 40
0.0
  9
$USERR4
 40
0.0
  9
$USERR5
 40
0.0
  9
$WORLDVIEW
 70
     1
  9
$SHADEDGE
 70
     3
  9
$SHADEDIF
 70
    70
  9
$TILEMODE
 70
     1
  9
$MAXACTVP
 70
    64
  9
$PLIMCHECK
 70
     0
  9
$PEXTMIN
 10
1.0000000000000000E+20
 20
1.0000000000000000E+20
 30
1.0000000000000000E+20
  9
$PEXTMAX
 10
-1.0000000000000000E+20
 20
-1.0000000000000000E+20
 30
-1.0000000000000000E+20
  9
$PLIMMIN
 10
0.0
 20
0.0
  9
$PLIMMAX
 10
12.0
 20
9.0
  9
$UNITMODE
 70
     0
  9
$VISRETAIN
 70
     1
  9
$PLINEGEN
 70
     0
  9
$PSLTSCALE
 70
     1
  0
ENDSEC
  0
SECTION
  2
TABLES
  0
TABLE
  2
VPORT
 70
     1
  0
VPORT
  2
*ACTIVE
 70
     0
 10
0.0
 20
0.0
 11
1.0
 21
1.0
 12
760.3964448340484523
 22
21.3236878405582218
 13
0.0
 23
0.0
 14
1.0
 24
1.0
 15
0.0
 25
0.0
 16
0.0
 26
0.0
 36
26.6346482412083887
 17
3644.0758056640620453
 27
159.9442404997975871
 37
0.0
 40
79.5361920365156436
 41
2.8393393393393391
 42
50.0
 43
0.0
 44
0.0
 50
0.0
 51
0.0
 71
     0
 72
   100
 73
     1
 74
     1
 75
     0
 76
     0
 77
     0
 78
     0
  0
ENDTAB
  0
TABLE
  2
LTYPE
 70
     2
  0
LTYPE
  2
CONTINUOUS
 70
     0
  3
Solid line
 72
    65
 73
     0
 40
0.0
  0
LTYPE
  2
PHANTOM2
 70
     0
  3
___ _ _ ___ _ _ ___ _ _ ___ _ _
 72
    65
 73
     6
 40
1.25
 49
0.625
 49
-0.125
 49
0.125
 49
-0.125
 49
0.125
 49
-0.125
  0
ENDTAB
  0
TABLE
  2
LAYER
 70
     2
  0
LAYER
  2
0
 70
     0
 62
   255
  6
CONTINUOUS
  0
LAYER
  2
DEFPOINTS
 70
     0
 62
     7
  6
CONTINUOUS
  0
ENDTAB
  0
TABLE
  2
STYLE
 70
     1
  0
STYLE
  2
STANDARD
 70
     0
 40
0.0
 41
0.8
 50
0.0
 71
     0
 42
0.2
  3
txt
  4

  0
ENDTAB
  0
TABLE
  2
VIEW
 70
     0
  0
ENDTAB
  0
TABLE
  2
UCS
 70
     0
  0
ENDTAB
  0
TABLE
  2
APPID
 70
    10
  0
APPID
  2
ACAD
 70
     0
  0
APPID
  2
ACAD_MLEADERVER
 70
     0
  0
APPID
  2
ACAD_EXEMPT_FROM_CAD_STANDARDS
 70
     0
  0
APPID
  2
ACAD_NAV_VCDISPLAY
 70
     0
  0
APPID
  2
ACAECLAYERSTANDARD
 70
     0
  0
APPID
  2
ACCMTRANSPARENCY
 70
     0
  0
APPID
  2
ACAD_DSTYLE_DIMJAG
 70
     0
  0
APPID
  2
ACAD_DSTYLE_DIMTALN
 70
     0
  0
APPID
  2
ACDBATTR
 70
     0
  0
APPID
  2
ACAD_PSEXT
 70
     0
  0
ENDTAB
  0
TABLE
  2
DIMSTYLE
 70
     1
  0
DIMSTYLE
  2
STANDARD
 70
     0
  3

  4

  5

  6

  7

 40
1.0
 41
0.1875
 42
0.0625
 43
0.38
 44
0.125
 45
0.0
 46
0.0
 47
0.01
 48
0.01
140
0.15625
141
0.09
142
0.0
143
25.3999999999999986
144
1.0
145
0.0
146
1.0
147
0.09
 71
     1
 72
     0
 73
     1
 74
     1
 75
     0
 76
     0
 77
     0
 78
     4
170
     0
171
     2
172
     0
173
     0
174
     0
175
     0
176
     0
177
     0
178
     0
  0
ENDTAB
  0
ENDSEC
  0
SECTION
  2
BLOCKS
  0
BLOCK
  8
0
  2
$MODEL_SPACE
 70
     0
 10
0.0
 20
0.0
 30
0.0
  3
$MODEL_SPACE
  1

  0
ENDBLK
  5
21
  8
0
  0
BLOCK
 67
     1
  8
0
  2
$PAPER_SPACE
 70
     0
 10
0.0
 20
0.0
 30
0.0
  3
$PAPER_SPACE
  1

  0
ENDBLK
  5
1D
 67
     1
  8
0
  0
ENDSEC
  0
SECTION
  2
ENTITIES
  0
ATTDEF
  5
AA11
  8
DEFPOINTS
 10
4404.3395705862558316
 20
141.8687919676843876
 30
0.0
 40
0.001
  1
K-1.1922.032
  3

  2
MODELNUMBER
 70
     0
1001
ACDBATTR
1070
     0
1070
     1
  0
ATTDEF
  5
AA12
  8
DEFPOINTS
 10
4404.3395705862558316
 20
141.8671253010178077
 30
0.0
 40
0.001
  1

  3

  2
TRADENAME
 70
     0
1001
ACDBATTR
1070
     0
1070
     1
  0
ATTDEF
  5
AA13
  8
DEFPOINTS
 10
4404.3395705862558316
 20
141.8654586343511141
 30
0.0
 40
0.001
  1
SHOWER DOOR
  3

  2
PRODUCT
 70
     0
1001
ACDBATTR
1070
     0
1070
     1
  0
LINE
  5
12346
  8
0
 10
4421.275544146896209
 20
141.8642834027868105
 30
0.0
 11
4387.4105047767970973
 21
141.8642834027868105
 31
0.0
  0
LINE
  5
12347
  8
0
 10
4421.275544146896209
 20
141.8642834027868105
 30
0.0
 11
4421.326725249197807
 21
141.8642834027868105
 31
0.0
  0
LINE
  5
12348
  8
0
 10
4388.9853079263975815
 20
142.4666456074868108
 30
0.0
 11
4421.326725249197807
 21
142.4666456074868108
 31
0.0
  0
LINE
  5
12349
  8
0
 10
4387.4105047767970973
 20
141.8642834027868105
 30
0.0
 11
4387.4105047767970973
 21
220.6634960011867861
 31
0.0
  0
LINE
  5
1234A
  8
0
 10
4387.4223158003978824
 20
220.5847558436869065
 30
0.0
 11
4387.4223158003978824
 21
220.6438109617868122
 31
0.0
  0
LINE
  5
1234B
  8
0
 10
4388.9853079263975815
 20
220.6438109617868122
 30
0.0
 11
4388.9853079263975815
 21
141.8642834027868105
 31
0.0
  0
LINE
  5
1234C
  8
0
 10
4389.0049929657971006
 20
219.9823936389869061
 30
0.0
 11
4389.0049929657971006
 21
220.5847558436869065
 31
0.0
  0
LINE
  5
1234D
  8
0
 10
4394.1231032019968552
 20
220.5847558436869065
 30
0.0
 11
4394.1231032019968552
 21
219.9823936389869061
 31
0.0
  0
LINE
  5
1234E
  8
0
 10
4421.275544146896209
 20
220.4275353712868082
 30
0.0
 11
4421.275544146896209
 21
142.4666456074868108
 31
0.0
  0
LINE
  5
1234F
  8
0
 10
4421.275544146896209
 20
142.4569918177867862
 30
0.0
 11
4421.275544146896209
 21
141.870170037886794
 31
0.0
  0
LINE
  5
12350
  8
0
 10
4421.275544146896209
 20
142.4666456074868108
 30
0.0
 11
4421.275544146896209
 21
141.8642834027868105
 31
0.0
  0
LINE
  5
12351
  8
0
 10
4421.3464102885973261
 20
141.8839684420867968
 30
0.0
 11
4421.3464102885973261
 21
142.4469605680868085
 31
0.0
  0
LINE
  5
12352
  8
0
 10
4394.0443630444960945
 20
219.9036534814869128
 30
0.0
 11
4389.0837331231969074
 21
219.9036534814869128
 31
0.0
  0
LINE
  5
12353
  8
0
 10
4388.9853079263975815
 20
220.4275353712868082
 30
0.0
 11
4389.0049929657971006
 21
220.4275353712868082
 31
0.0
  0
LINE
  5
12354
  8
0
 10
4394.1231032019968552
 20
220.4669054499869105
 30
0.0
 11
4421.2361740680980802
 21
220.4669054499869105
 31
0.0
  0
LINE
  5
12355
  8
0
 10
4387.4321434372977819
 20
220.5847558436869065
 30
0.0
 11
4388.9853079263975815
 21
220.5847558436869065
 31
0.0
  0
LINE
  5
12356
  8
0
 10
4389.0049929657971006
 20
220.5847558436869065
 30
0.0
 11
4388.9853079263975815
 21
220.5847558436869065
 31
0.0
  0
LINE
  5
12357
  8
0
 10
4388.9853079263975815
 20
220.5847558436869065
 30
0.0
 11
4387.4105047767970973
 21
220.5847558436869065
 31
0.0
  0
LINE
  5
12358
  8
0
 10
4394.0443630444960945
 20
220.6634960011867861
 30
0.0
 11
4387.4105047767970973
 21
220.6634960011867861
 31
0.0
  0
LINE
  5
12359
  8
0
 10
4421.275544146896209
 20
220.4275353712868082
 30
0.0
 11
4421.2361740680980802
 21
220.4669054499869105
 31
0.0
  0
ARC
  5
1235A
  8
0
 10
4389.0837331231969074
 20
219.9823936389869061
 30
0.0
 40
0.0787401575
 50
180.0
 51
270.0
  0
ARC
  5
1235B
  8
0
 10
4394.0443630444960945
 20
219.9823936389869061
 30
0.0
 40
0.0787401575
 50
270.0
 51
0.0
  0
ARC
  5
1235C
  8
0
 10
4389.0837331231969074
 20
220.5847558436869065
 30
0.0
 40
0.0787401575
 50
90.0
 51
180.0
  0
ARC
  5
1235D
  8
0
 10
4394.0443630444960945
 20
220.5847558436869065
 30
0.0
 40
0.0787401575
 50
0.0
 51
90.0
  0
ARC
  5
1235E
  8
0
 10
4421.326725249197807
 20
142.4469605680868085
 30
0.0
 40
0.0196850394
 50
0.0
 51
90.0
  0
ARC
  5
1235F
  8
0
 10
4421.326725249197807
 20
141.8839684420867968
 30
0.0
 40
0.0196850394
 50
270.0
 51
0.0
  0
ARC
  5
12360
  8
0
 10
4388.9656228869971528
 20
220.6438109617868122
 30
0.0
 40
0.0196850394
 50
0.0
 51
90.0393928756826796
  0
ARC
  5
12361
  8
0
 10
4387.4420008397974016
 20
220.6438109617868122
 30
0.0
 40
0.0196850394
 50
90.0
 51
179.9999999998998135
  0
ENDSEC
  0
EOF
