  0
SECTION
  2
HEADER
  9
$ACADVER
  1
AC1009
  9
$INSBASE
 10
4408.129866185580795
 20
152.3660151431689087
 30
0.0
  9
$EXTMIN
 10
4407.7164803586811104
 20
152.3597936345364019
 30
0.0
  9
$EXTMAX
 10
4413.1472677601814212
 20
213.6260501923688935
 30
0.0
  9
$LIMMIN
 10
0.0
 20
0.0
  9
$LIMMAX
 10
11.6929133858000007
 20
8.2677165353999982
  9
$ORTHOMODE
 70
     0
  9
$REGENMODE
 70
     1
  9
$FILLMODE
 70
     1
  9
$QTEXTMODE
 70
     0
  9
$MIRRTEXT
 70
     0
  9
$DRAGMODE
 70
     2
  9
$LTSCALE
 40
0.6431102362
  9
$OSMODE
 70
  4095
  9
$ATTMODE
 70
     1
  9
$TEXTSIZE
 40
0.2
  9
$TRACEWID
 40
0.05
  9
$TEXTSTYLE
  7
STANDARD
  9
$CLAYER
  8
0
  9
$CELTYPE
  6
BYLAYER
  9
$CECOLOR
 62
   256
  9
$DIMSCALE
 40
1.0
  9
$DIMASZ
 40
0.1875
  9
$DIMEXO
 40
0.0625
  9
$DIMDLI
 40
0.4443307087
  9
$DIMRND
 40
0.0
  9
$DIMDLE
 40
0.0
  9
$DIMEXE
 40
0.125
  9
$DIMTP
 40
0.01
  9
$DIMTM
 40
0.01
  9
$DIMTXT
 40
2.0
  9
$DIMCEN
 40
0.1052362205
  9
$DIMTSZ
 40
0.0
  9
$DIMTOL
 70
     1
  9
$DIMLIM
 70
     0
  9
$DIMTIH
 70
     1
  9
$DIMTOH
 70
     1
  9
$DIMSE1
 70
     0
  9
$DIMSE2
 70
     0
  9
$DIMTAD
 70
     0
  9
$DIMZIN
 70
     0
  9
$DIMBLK
  1

  9
$DIMASO
 70
     1
  9
$DIMSHO
 70
     1
  9
$DIMPOST
  1
\X
  9
$DIMAPOST
  1

  9
$DIMALT
 70
     1
  9
$DIMALTD
 70
     2
  9
$DIMALTF
 40
25.3999999999999986
  9
$DIMLFAC
 40
1.0
  9
$DIMTOFL
 70
     0
  9
$DIMTVP
 40
0.0
  9
$DIMTIX
 70
     0
  9
$DIMSOXD
 70
     0
  9
$DIMSAH
 70
     0
  9
$DIMBLK1
  1

  9
$DIMBLK2
  1

  9
$DIMSTYLE
  2
STANDARD
  9
$DIMCLRD
 70
     0
  9
$DIMCLRE
 70
     0
  9
$DIMCLRT
 70
     0
  9
$DIMTFAC
 40
1.0
  9
$DIMGAP
 40
0.09
  9
$LUNITS
 70
     2
  9
$LUPREC
 70
     4
  9
$SKETCHINC
 40
0.1
  9
$FILLETRAD
 40
0.0
  9
$AUNITS
 70
     0
  9
$AUPREC
 70
     0
  9
$MENU
  1
.
  9
$ELEVATION
 40
0.0
  9
$PELEVATION
 40
0.0
  9
$THICKNESS
 40
0.0
  9
$LIMCHECK
 70
     0
  9
$BLIPMODE
 70
     0
  9
$CHAMFERA
 40
0.0
  9
$CHAMFERB
 40
0.0
  9
$SKPOLY
 70
     0
  9
$TDCREATE
 40
2458060.468368056230247
  9
$TDUPDATE
 40
2459545.8020254629664123
  9
$TDINDWG
 40
0.7570903935
  9
$TDUSRTIMER
 40
0.7570903935
  9
$USRTIMER
 70
     1
  9
$ANGBASE
 50
0.0
  9
$ANGDIR
 70
     0
  9
$PDMODE
 70
     0
  9
$PDSIZE
 40
0.3125
  9
$PLINEWID
 40
0.0
  9
$COORDS
 70
     1
  9
$SPLFRAME
 70
     0
  9
$SPLINETYPE
 70
     6
  9
$SPLINESEGS
 70
     8
  9
$ATTDIA
 70
     1
  9
$ATTREQ
 70
     1
  9
$HANDLING
 70
     1
  9
$HANDSEED
  5
125B3
  9
$SURFTAB1
 70
     6
  9
$SURFTAB2
 70
     6
  9
$SURFTYPE
 70
     6
  9
$SURFU
 70
     6
  9
$SURFV
 70
     6
  9
$UCSNAME
  2

  9
$UCSORG
 10
0.0
 20
0.0
 30
0.0
  9
$UCSXDIR
 10
1.0
 20
0.0
 30
0.0
  9
$UCSYDIR
 10
0.0
 20
1.0
 30
0.0
  9
$PUCSNAME
  2

  9
$PUCSORG
 10
0.0
 20
0.0
 30
0.0
  9
$PUCSXDIR
 10
1.0
 20
0.0
 30
0.0
  9
$PUCSYDIR
 10
0.0
 20
1.0
 30
0.0
  9
$USERI1
 70
     0
  9
$USERI2
 70
     0
  9
$USERI3
 70
     0
  9
$USERI4
 70
     0
  9
$USERI5
 70
     0
  9
$USERR1
 40
0.0
  9
$USERR2
 40
0.0
  9
$USERR3
 40
0.0
  9
$USERR4
 40
0.0
  9
$USERR5
 40
0.0
  9
$WORLDVIEW
 70
     1
  9
$SHADEDGE
 70
     3
  9
$SHADEDIF
 70
    70
  9
$TILEMODE
 70
     1
  9
$MAXACTVP
 70
    64
  9
$PLIMCHECK
 70
     0
  9
$PEXTMIN
 10
1.0000000000000000E+20
 20
1.0000000000000000E+20
 30
1.0000000000000000E+20
  9
$PEXTMAX
 10
-1.0000000000000000E+20
 20
-1.0000000000000000E+20
 30
-1.0000000000000000E+20
  9
$PLIMMIN
 10
0.0
 20
0.0
  9
$PLIMMAX
 10
12.0
 20
9.0
  9
$UNITMODE
 70
     0
  9
$VISRETAIN
 70
     1
  9
$PLINEGEN
 70
     0
  9
$PSLTSCALE
 70
     1
  0
ENDSEC
  0
SECTION
  2
TABLES
  0
TABLE
  2
VPORT
 70
     1
  0
VPORT
  2
*ACTIVE
 70
     0
 10
0.0
 20
0.0
 11
1.0
 21
1.0
 12
766.3560683953686521
 22
23.0486814136550002
 13
0.0
 23
0.0
 14
1.0
 24
1.0
 15
0.0
 25
0.0
 16
0.0
 26
0.0
 36
26.6346482412083887
 17
3644.0758056640620453
 27
159.9442404997975871
 37
0.0
 40
61.7942008742908371
 41
2.6486111111111108
 42
50.0
 43
0.0
 44
0.0
 50
0.0
 51
0.0
 71
     0
 72
   100
 73
     1
 74
     1
 75
     0
 76
     0
 77
     0
 78
     0
  0
ENDTAB
  0
TABLE
  2
LTYPE
 70
     2
  0
LTYPE
  2
CONTINUOUS
 70
     0
  3
Solid line
 72
    65
 73
     0
 40
0.0
  0
LTYPE
  2
PHANTOM2
 70
     0
  3
___ _ _ ___ _ _ ___ _ _ ___ _ _
 72
    65
 73
     6
 40
1.25
 49
0.625
 49
-0.125
 49
0.125
 49
-0.125
 49
0.125
 49
-0.125
  0
ENDTAB
  0
TABLE
  2
LAYER
 70
     2
  0
LAYER
  2
0
 70
     0
 62
   255
  6
CONTINUOUS
  0
LAYER
  2
DEFPOINTS
 70
     0
 62
     7
  6
CONTINUOUS
  0
ENDTAB
  0
TABLE
  2
STYLE
 70
     1
  0
STYLE
  2
STANDARD
 70
     0
 40
0.0
 41
0.8
 50
0.0
 71
     0
 42
0.2
  3
txt
  4

  0
ENDTAB
  0
TABLE
  2
VIEW
 70
     0
  0
ENDTAB
  0
TABLE
  2
UCS
 70
     0
  0
ENDTAB
  0
TABLE
  2
APPID
 70
    10
  0
APPID
  2
ACAD
 70
     0
  0
APPID
  2
ACAD_MLEADERVER
 70
     0
  0
APPID
  2
ACAD_EXEMPT_FROM_CAD_STANDARDS
 70
     0
  0
APPID
  2
ACAD_NAV_VCDISPLAY
 70
     0
  0
APPID
  2
ACAECLAYERSTANDARD
 70
     0
  0
APPID
  2
ACCMTRANSPARENCY
 70
     0
  0
APPID
  2
ACAD_DSTYLE_DIMJAG
 70
     0
  0
APPID
  2
ACAD_DSTYLE_DIMTALN
 70
     0
  0
APPID
  2
ACDBATTR
 70
     0
  0
APPID
  2
ACAD_PSEXT
 70
     0
  0
ENDTAB
  0
TABLE
  2
DIMSTYLE
 70
     1
  0
DIMSTYLE
  2
STANDARD
 70
     0
  3

  4

  5

  6

  7

 40
1.0
 41
0.1875
 42
0.0625
 43
0.38
 44
0.125
 45
0.0
 46
0.0
 47
0.01
 48
0.01
140
0.15625
141
0.09
142
0.0
143
25.3999999999999986
144
1.0
145
0.0
146
1.0
147
0.09
 71
     1
 72
     0
 73
     1
 74
     1
 75
     0
 76
     0
 77
     0
 78
     4
170
     0
171
     2
172
     0
173
     0
174
     0
175
     0
176
     0
177
     0
178
     0
  0
ENDTAB
  0
ENDSEC
  0
SECTION
  2
BLOCKS
  0
BLOCK
  8
0
  2
$MODEL_SPACE
 70
     0
 10
0.0
 20
0.0
 30
0.0
  3
$MODEL_SPACE
  1

  0
ENDBLK
  5
21
  8
0
  0
BLOCK
 67
     1
  8
0
  2
$PAPER_SPACE
 70
     0
 10
0.0
 20
0.0
 30
0.0
  3
$PAPER_SPACE
  1

  0
ENDBLK
  5
1D
 67
     1
  8
0
  0
ENDSEC
  0
SECTION
  2
ENTITIES
  0
ATTDEF
  5
AA11
  8
DEFPOINTS
 10
4408.1260715088210418
 20
152.3631269678697038
 30
0.0
 40
0.001
  1
K-1.1922.031
  3

  2
MODELNUMBER
 70
     0
1001
ACDBATTR
1070
     0
1070
     1
  0
ATTDEF
  5
AA12
  8
DEFPOINTS
 10
4408.1260715088210418
 20
152.3614603012030102
 30
0.0
 40
0.001
  1

  3

  2
TRADENAME
 70
     0
1001
ACDBATTR
1070
     0
1070
     1
  0
ATTDEF
  5
AA13
  8
DEFPOINTS
 10
4408.1260715088210418
 20
152.3597936345364019
 30
0.0
 40
0.001
  1
SHOWER DOOR
  3

  2
PRODUCT
 70
     0
1001
ACDBATTR
1070
     0
1070
     1
  0
LINE
  5
123AA
  8
0
 10
4408.0499473636809853
 20
152.3663848092689079
 30
0.0
 11
4408.0981073842813203
 21
152.3663848092689079
 31
0.0
  0
LINE
  5
123AB
  8
0
 10
4407.7971890199805785
 20
152.4449478301688998
 30
0.0
 11
4407.8110953403820531
 21
152.4449478301688998
 31
0.0
  0
LINE
  5
123AC
  8
0
 10
4407.812937051580775
 20
152.4449478301688998
 30
0.0
 11
4407.8740800519808545
 21
152.4449478301688998
 31
0.0
  0
LINE
  5
123AD
  8
0
 10
4408.2868241236819813
 20
152.4449478301688998
 30
0.0
 11
4408.5294724846817189
 21
152.4449478301688998
 31
0.0
  0
LINE
  5
123AE
  8
0
 10
4407.8720452225807094
 20
152.5632352029689116
 30
0.0
 11
4407.8882520832821683
 21
152.5632352029689116
 31
0.0
  0
ARC
  5
123AF
  8
0
 10
4407.8720452225807094
 20
152.6026352029689122
 30
0.0
 40
0.0394
 50
180.0
 51
270.0
  0
LINE
  5
123B0
  8
0
 10
4407.9512442090817785
 20
152.6655974077688995
 30
0.0
 11
4408.0714619280815896
 21
152.6655974077688995
 31
0.0
  0
LINE
  5
123B1
  8
0
 10
4408.1502020855823503
 20
152.6655974077688995
 30
0.0
 11
4408.2704198045830708
 21
152.6655974077688995
 31
0.0
  0
LINE
  5
123B2
  8
0
 10
4408.3334119307819492
 20
152.6811683025688922
 30
0.0
 11
4408.3520225660813594
 21
152.6811683025688922
 31
0.0
  0
LINE
  5
123B3
  8
0
 10
4408.2979788597804145
 20
152.7049674864688882
 30
0.0
 11
4408.1895721643813886
 21
152.7049674864688882
 31
0.0
  0
LINE
  5
123B4
  8
0
 10
4408.0320918493807767
 20
152.7049674864688882
 30
0.0
 11
4407.9236851539808413
 21
152.7049674864688882
 31
0.0
  0
LINE
  5
123B5
  8
0
 10
4408.3019158677807354
 20
152.7089044943689089
 30
0.0
 11
4408.2013831880813086
 21
152.7089044943689089
 31
0.0
  0
LINE
  5
123B6
  8
0
 10
4408.020280825881855
 20
152.7089044943689089
 30
0.0
 11
4407.9197481462806536
 21
152.7089044943689089
 31
0.0
  0
LINE
  5
123B7
  8
0
 10
4407.9394331856810823
 20
152.7404005573689005
 30
0.0
 11
4408.020280825881855
 21
152.7404005573689005
 31
0.0
  0
LINE
  5
123B8
  8
0
 10
4408.2013831880813086
 20
152.7404005573689005
 30
0.0
 11
4408.2822308283821258
 21
152.7404005573689005
 31
0.0
  0
LINE
  5
123B9
  8
0
 10
4407.9433701933821794
 20
152.7443375652688928
 30
0.0
 11
4408.0320918493807767
 21
152.7443375652688928
 31
0.0
  0
LINE
  5
123BA
  8
0
 10
4408.1895721643813886
 20
152.7443375652688928
 30
0.0
 11
4408.2782938203818048
 21
152.7443375652688928
 31
0.0
  0
LINE
  5
123BB
  8
0
 10
4408.0714619280815896
 20
152.7561485888689106
 30
0.0
 11
4408.1502020855823503
 21
152.7561485888689106
 31
0.0
  0
LINE
  5
123BC
  8
0
 10
4408.2704198045830708
 20
152.7955186675688992
 30
0.0
 11
4407.9512442090817785
 21
152.7955186675688992
 31
0.0
  0
LINE
  5
123BD
  8
0
 10
4408.2743568126816172
 20
152.7994556754688915
 30
0.0
 11
4407.9473072013806814
 21
152.7994556754688915
 31
0.0
  0
LINE
  5
123BE
  8
0
 10
4408.266646207881422
 20
152.8386486175689072
 30
0.0
 11
4407.9792310913808251
 21
152.8386486175689072
 31
0.0
  0
LINE
  5
123BF
  8
0
 10
4407.9564430597820319
 20
153.147322879068895
 30
0.0
 11
4407.9276221618811178
 21
153.147322879068895
 31
0.0
  0
LINE
  5
123C0
  8
0
 10
4407.9354961777808057
 20
153.1534852610689086
 30
0.0
 11
4407.9720571413809012
 21
153.1534852610689086
 31
0.0
  0
LINE
  5
123C1
  8
0
 10
4408.4349842956817156
 20
153.1536092474688928
 30
0.0
 11
4408.3614076641806605
 21
153.1536092474688928
 31
0.0
  0
LINE
  5
123C2
  8
0
 10
4408.4428583113813147
 20
153.1654202711688981
 30
0.0
 11
4408.4053953974807882
 21
153.1654202711688981
 31
0.0
  0
LINE
  5
123C3
  8
0
 10
4408.3520231857819454
 20
153.1929793262688975
 30
0.0
 11
4408.3778976814810449
 21
153.1929793262688975
 31
0.0
  0
LINE
  5
123C4
  8
0
 10
4408.3778976814810449
 20
153.1929793262688975
 30
0.0
 11
4408.4140044429814225
 21
153.1929793262688975
 31
0.0
  0
LINE
  5
123C5
  8
0
 10
4408.2845615055821327
 20
153.2125403792688871
 30
0.0
 11
4408.2724780826820279
 21
153.2125403792688871
 31
0.0
  0
LINE
  5
123C6
  8
0
 10
4407.9720571413809012
 20
153.2125403792688871
 30
0.0
 11
4407.9276221619820717
 21
153.2125403792688871
 31
0.0
  0
LINE
  5
123C7
  8
0
 10
4407.9723858705810926
 20
153.2128415022689012
 30
0.0
 11
4407.8137268912823856
 21
153.2128415022689012
 31
0.0
  0
LINE
  5
123C8
  8
0
 10
4407.9723858705810926
 20
213.1929793262688975
 30
0.0
 11
4408.0117559493819499
 21
213.2323494049689998
 31
0.0
  0
LINE
  5
123C9
  8
0
 10
4408.5791061821819312
 20
159.6299872002689142
 30
0.0
 11
4408.287346500381318
 21
159.6299872002689142
 31
0.0
  0
LINE
  5
123CA
  8
0
 10
4407.9330157917820543
 20
159.6299872002689142
 30
0.0
 11
4407.7361653980806295
 21
159.6299872002689142
 31
0.0
  0
LINE
  5
123CB
  8
0
 10
4407.9723858704819577
 20
159.6693572789689028
 30
0.0
 11
4407.9330157917820543
 21
159.6693572789689028
 31
0.0
  0
LINE
  5
123CC
  8
0
 10
4407.9330157917820543
 20
159.8662076726689065
 30
0.0
 11
4407.9723858704819577
 21
159.8662076726689065
 31
0.0
  0
LINE
  5
123CD
  8
0
 10
4408.0117559493819499
 20
152.8386486175689072
 30
0.0
 11
4407.9723858705810926
 21
152.8780186963689118
 31
0.0
  0
LINE
  5
123CE
  8
0
 10
4407.9236851541818396
 20
152.9337704262688931
 30
0.0
 11
4407.9595460519813059
 21
152.8977037356688982
 31
0.0
  0
LINE
  5
123CF
  8
0
 10
4407.9535345477816008
 20
152.9077093385689068
 30
0.0
 11
4407.9276221618811178
 21
152.9337704262688931
 31
0.0
  0
LINE
  5
123D0
  8
0
 10
4408.3778976814810449
 20
153.1929793262688975
 30
0.0
 11
4408.4053953974807882
 21
153.1654202711688981
 31
0.0
  0
LINE
  5
123D1
  8
0
 10
4407.9723858704819577
 20
161.5591210584688895
 30
0.0
 11
4407.9330157917820543
 21
161.5591210584688895
 31
0.0
  0
LINE
  5
123D2
  8
0
 10
4407.9330157917820543
 20
161.7559714521688932
 30
0.0
 11
4407.9723858704819577
 21
161.7559714521688932
 31
0.0
  0
LINE
  5
123D3
  8
0
 10
4407.7361653980806295
 20
161.7953415309688978
 30
0.0
 11
4407.9330157917820543
 21
161.7953415309688978
 31
0.0
  0
LINE
  5
123D4
  8
0
 10
4408.287346500381318
 20
161.7953415309688978
 30
0.0
 11
4408.5791062003818297
 21
161.7953415309688978
 31
0.0
  0
LINE
  5
123D5
  8
0
 10
4407.9564430597820319
 20
153.147322879068895
 30
0.0
 11
4407.9669922405819307
 21
153.1079528003689063
 31
0.0
  0
LINE
  5
123D6
  8
0
 10
4408.3244047939806478
 20
153.1066832473688919
 30
0.0
 11
4408.3334119307819492
 21
152.8639783963689069
 31
0.0
  0
LINE
  5
123D7
  8
0
 10
4408.2863177043773248
 20
152.8590637292653014
 30
0.0
 11
4408.2786719517816891
 21
153.0743095824689135
 31
0.0
  0
LINE
  5
123D8
  8
0
 10
4407.7164803586820199
 20
161.7756564915688955
 30
0.0
 11
4407.7164803586820199
 21
159.6496722395689005
 31
0.0
  0
LINE
  5
123D9
  8
0
 10
4407.7755354767823519
 20
212.7284123970688938
 30
0.0
 11
4407.7755354767823519
 21
213.4488848380688921
 31
0.0
  0
LINE
  5
123DA
  8
0
 10
4407.7971890199805785
 20
152.4449478301688998
 30
0.0
 11
4407.7971890199805785
 21
159.6299872002689142
 31
0.0
  0
LINE
  5
123DB
  8
0
 10
4407.7971890199805785
 20
161.7953415309688978
 30
0.0
 11
4407.7971890199805785
 21
204.2686110775688917
 31
0.0
  0
LINE
  5
123DC
  8
0
 10
4407.7971890199805785
 20
206.4339654082689037
 30
0.0
 11
4407.7971890199805785
 21
212.7087273577689075
 31
0.0
  0
LINE
  5
123DD
  8
0
 10
4407.812937051580775
 20
152.4449478301688998
 30
0.0
 11
4407.812937051580775
 21
153.2008533419688945
 31
0.0
  0
LINE
  5
123DE
  8
0
 10
4407.8137268912823856
 20
152.6026052817688878
 30
0.0
 11
4407.8137268912823856
 21
153.2128415022689012
 31
0.0
  0
LINE
  5
123DF
  8
0
 10
4407.8326452225819594
 20
153.2128415022689012
 30
0.0
 11
4407.8326452225819594
 21
152.6026352029689122
 31
0.0
  0
LINE
  5
123E0
  8
0
 10
4407.8882520830820795
 20
153.1731703004689109
 30
0.0
 11
4407.8882520830820795
 21
153.2128415022689012
 31
0.0
  0
LINE
  5
123E1
  8
0
 10
4407.8882520832821683
 20
153.1731703004689109
 30
0.0
 11
4407.8882520832821683
 21
152.5632352029689116
 31
0.0
  0
LINE
  5
123E2
  8
0
 10
4407.8973004845820469
 20
153.2126643655689122
 30
0.0
 11
4407.8973004845820469
 21
159.6299872002689142
 31
0.0
  0
LINE
  5
123E3
  8
0
 10
4407.8973004869822034
 20
161.7953415309688978
 30
0.0
 11
4407.8973004869822034
 21
204.2686110775688917
 31
0.0
  0
LINE
  5
123E4
  8
0
 10
4407.8973071373820858
 20
213.6260501923688935
 30
0.0
 11
4407.8973071373820858
 21
206.4339654082689037
 31
0.0
  0
LINE
  5
123E5
  8
0
 10
4407.9079371226816875
 20
152.6970934707688912
 30
0.0
 11
4407.9079371226816875
 21
152.5885950668688906
 31
0.0
  0
LINE
  5
123E6
  8
0
 10
4407.9118741303818751
 20
152.6931564628688989
 30
0.0
 11
4407.9118741303818751
 21
152.5888257541689086
 31
0.0
  0
LINE
  5
123E7
  8
0
 10
4407.9236851541818396
 20
152.9337704262688931
 30
0.0
 11
4407.9236851541818396
 21
153.1416742374688909
 31
0.0
  0
LINE
  5
123E8
  8
0
 10
4407.9276221618811178
 20
153.147322879068895
 30
0.0
 11
4407.9276221618811178
 21
152.9337704262688931
 31
0.0
  0
LINE
  5
123E9
  8
0
 10
4407.9276221619820717
 20
152.7797706360688892
 30
0.0
 11
4407.9276221619820717
 21
152.7522115809688898
 31
0.0
  0
LINE
  5
123EA
  8
0
 10
4407.9315591697813943
 20
152.7758336281688969
 30
0.0
 11
4407.9315591697813943
 21
152.7561485888689106
 31
0.0
  0
LINE
  5
123EB
  8
0
 10
4407.9330157917820543
 20
159.6299872002689142
 30
0.0
 11
4407.9330157917820543
 21
161.7953415309688978
 31
0.0
  0
LINE
  5
123EC
  8
0
 10
4407.9512442090817785
 20
152.5888257541689086
 30
0.0
 11
4407.9512442090817785
 21
152.6655974077688995
 31
0.0
  0
LINE
  5
123ED
  8
0
 10
4407.9563608360258513
 20
204.3079811562689088
 30
0.0
 11
4407.956354385782106
 21
161.7559714521688932
 31
0.0
  0
LINE
  5
123EE
  8
0
 10
4407.9563540694816766
 20
159.6693572789689028
 30
0.0
 11
4407.9563530907807944
 21
153.2128415022689012
 31
0.0
  0
LINE
  5
123EF
  8
0
 10
4407.9595460519813059
 20
152.8583336569689095
 30
0.0
 11
4407.9595460519813059
 21
152.8977037356688982
 31
0.0
  0
LINE
  5
123F0
  8
0
 10
4407.9669922405819307
 20
153.1534852610689086
 30
0.0
 11
4407.9669922405819307
 21
152.8429267103689142
 31
0.0
  0
LINE
  5
123F1
  8
0
 10
4407.9723858705810926
 20
153.153489836717398
 30
0.0
 11
4407.9723858705810926
 21
152.8780186963689118
 31
0.0
  0
LINE
  5
123F2
  8
0
 10
4407.9723858705810926
 20
153.2125358036203977
 30
0.0
 11
4407.9723858705810926
 21
213.1929793262688975
 31
0.0
  0
LINE
  5
123F3
  8
0
 10
4407.9838681649816863
 20
153.1652962847689139
 30
0.0
 11
4407.9838681649816863
 21
153.2007293555689103
 31
0.0
  0
LINE
  5
123F4
  8
0
 10
4408.0117559493819499
 20
213.2323494049689998
 30
0.0
 11
4408.0117559493819499
 21
152.8386486175689072
 31
0.0
  0
LINE
  5
123F5
  8
0
 10
4408.0320918493807767
 20
152.7443375652688928
 30
0.0
 11
4408.0320918493807767
 21
152.7285895337689112
 31
0.0
  0
LINE
  5
123F6
  8
0
 10
4408.0320918493807767
 20
152.7207155179688982
 30
0.0
 11
4408.0320918493807767
 21
152.7049674864688882
 31
0.0
  0
LINE
  5
123F7
  8
0
 10
4408.032091849581775
 20
152.7285895337689112
 30
0.0
 11
4408.032091849581775
 21
152.7207155179688982
 31
0.0
  0
LINE
  5
123F8
  8
0
 10
4408.0714619280815896
 20
152.6655974077688995
 30
0.0
 11
4408.0714619280815896
 21
152.7561485888689106
 31
0.0
  0
LINE
  5
123F9
  8
0
 10
4408.1158020936809407
 20
213.2323494049689998
 30
0.0
 11
4408.1158020936809407
 21
213.6260501923688935
 31
0.0
  0
LINE
  5
123FA
  8
0
 10
4408.1502020855823503
 20
152.7561485888689106
 30
0.0
 11
4408.1502020855823503
 21
152.6655974077688995
 31
0.0
  0
LINE
  5
123FB
  8
0
 10
4408.1895721643813886
 20
152.7049674864688882
 30
0.0
 11
4408.1895721643813886
 21
152.7207155179688982
 31
0.0
  0
LINE
  5
123FC
  8
0
 10
4408.189572164481433
 20
152.7207155179688982
 30
0.0
 11
4408.189572164481433
 21
152.7285895337689112
 31
0.0
  0
LINE
  5
123FD
  8
0
 10
4408.1895721643813886
 20
152.7285895337689112
 30
0.0
 11
4408.1895721643813886
 21
152.7443375652688928
 31
0.0
  0
LINE
  5
123FE
  8
0
 10
4408.2479764217805496
 20
152.8386486175689072
 30
0.0
 11
4408.2479764217805496
 21
213.2323494049689998
 31
0.0
  0
LINE
  5
123FF
  8
0
 10
4408.2606670589811984
 20
153.2007293555689103
 30
0.0
 11
4408.2606670589811984
 21
153.0743095824689135
 31
0.0
  0
LINE
  5
12400
  8
0
 10
4408.2704198045830708
 20
152.6655974077688995
 30
0.0
 11
4408.2704198045830708
 21
152.5888257541689086
 31
0.0
  0
LINE
  5
12401
  8
0
 10
4408.2873465005814069
 20
153.2124381721513089
 30
0.0
 11
4408.2873465005814069
 21
213.1929793262688975
 31
0.0
  0
LINE
  5
12402
  8
0
 10
4408.290104843980771
 20
152.7561485888689106
 30
0.0
 11
4408.290104843980771
 21
152.7758336281688969
 31
0.0
  0
LINE
  5
12403
  8
0
 10
4408.2940418519820014
 20
152.7522115809688898
 30
0.0
 11
4408.2940418519820014
 21
152.7797706360688892
 31
0.0
  0
LINE
  5
12404
  8
0
 10
4408.3097898833811996
 20
152.5888257541689086
 30
0.0
 11
4408.3097898833811996
 21
152.6931564628688989
 31
0.0
  0
LINE
  5
12405
  8
0
 10
4408.3137268913806111
 20
152.5885950668688906
 30
0.0
 11
4408.3137268913806111
 21
152.6970934707688912
 31
0.0
  0
LINE
  5
12406
  8
0
 10
4408.3334119307819492
 20
152.5770147305688909
 30
0.0
 11
4408.3334119307819492
 21
152.8639783963689069
 31
0.0
  0
LINE
  5
12407
  8
0
 10
4408.3520225660813594
 20
152.6811683025688922
 30
0.0
 11
4408.3520225660813594
 21
153.1087950054688918
 31
0.0
  0
LINE
  5
12408
  8
0
 10
4408.3520225660813594
 20
153.1623913088689051
 30
0.0
 11
4408.3520225660813594
 21
159.6299872002689142
 31
0.0
  0
LINE
  5
12409
  8
0
 10
4408.3520225660813594
 20
161.7953415309688978
 30
0.0
 11
4408.3520225660813594
 21
204.2686110775688917
 31
0.0
  0
LINE
  5
1240A
  8
0
 10
4408.3520225660813594
 20
206.4339654082689037
 30
0.0
 11
4408.3520225660813594
 21
213.6260501923688935
 31
0.0
  0
LINE
  5
1240B
  8
0
 10
4408.3660866577820343
 20
212.7087273577689075
 30
0.0
 11
4408.3660866577820343
 21
212.6811683025688922
 31
0.0
  0
LINE
  5
1240C
  8
0
 10
4408.385771697180644
 20
212.6811683025688922
 30
0.0
 11
4408.385771697180644
 21
206.4339654082689037
 31
0.0
  0
LINE
  5
1240D
  8
0
 10
4408.385771697180644
 20
204.2686110775688917
 30
0.0
 11
4408.385771697180644
 21
161.7953415309688978
 31
0.0
  0
LINE
  5
1240E
  8
0
 10
4408.385771697180644
 20
159.6299872002689142
 30
0.0
 11
4408.385771697180644
 21
153.1929793262688975
 31
0.0
  0
LINE
  5
1240F
  8
0
 10
4408.4140044429814225
 20
153.1929793262688975
 30
0.0
 11
4408.4140044429814225
 21
159.6299872002689142
 31
0.0
  0
LINE
  5
12410
  8
0
 10
4408.4140044429814225
 20
161.7953415309688978
 30
0.0
 11
4408.4140044429814225
 21
204.2686110775688917
 31
0.0
  0
LINE
  5
12411
  8
0
 10
4408.4140044429814225
 20
206.4339654082689037
 30
0.0
 11
4408.4140044429814225
 21
212.6811683025688922
 31
0.0
  0
LINE
  5
12412
  8
0
 10
4408.4349842956817156
 20
153.0883943834689092
 30
0.0
 11
4408.4349842956817156
 21
153.1536092474688928
 31
0.0
  0
LINE
  5
12413
  8
0
 10
4408.4349842956817156
 20
153.0372339350689117
 30
0.0
 11
4408.4349842956817156
 21
152.4449478301688998
 31
0.0
  0
LINE
  5
12414
  8
0
 10
4408.4428583113813147
 20
152.4449478301688998
 30
0.0
 11
4408.4428583113813147
 21
153.0307363383689108
 31
0.0
  0
LINE
  5
12415
  8
0
 10
4408.4428583113813147
 20
153.0818197279689059
 30
0.0
 11
4408.4428583113813147
 21
153.1654202711688981
 31
0.0
  0
LINE
  5
12416
  8
0
 10
4408.5294724846817189
 20
152.4449478301688998
 30
0.0
 11
4408.5294724846817189
 21
152.9640058702688918
 31
0.0
  0
LINE
  5
12417
  8
0
 10
4408.5294724846817189
 20
153.0129813434689083
 30
0.0
 11
4408.5294724846817189
 21
159.6299872002689142
 31
0.0
  0
LINE
  5
12418
  8
0
 10
4408.5294724846817189
 20
161.7953415309688978
 30
0.0
 11
4408.5294724846817189
 21
204.2686110775688917
 31
0.0
  0
LINE
  5
12419
  8
0
 10
4408.5294724846817189
 20
206.4339654082689037
 30
0.0
 11
4408.5294724846817189
 21
212.7087273577689075
 31
0.0
  0
LINE
  5
1241A
  8
0
 10
4408.9015197286817056
 20
212.7284123970688938
 30
0.0
 11
4408.9015197286817056
 21
213.4488848380688921
 31
0.0
  0
LINE
  5
1241B
  8
0
 10
4413.1472677601814212
 20
213.3898297199689011
 30
0.0
 11
4413.1472677601814212
 21
212.7874675151689132
 31
0.0
  0
LINE
  5
1241C
  8
0
 10
4408.2857027907821248
 20
152.8763749865688908
 30
0.0
 11
4408.2479764217805496
 21
152.8386486175689072
 31
0.0
  0
LINE
  5
1241D
  8
0
 10
4408.2479764217805496
 20
213.2323494049689998
 30
0.0
 11
4408.2873465005814069
 21
213.1929793262688975
 31
0.0
  0
LINE
  5
1241E
  8
0
 10
4408.3520231857819454
 20
212.6811683025688922
 30
0.0
 11
4408.4140044429814225
 21
212.6811683025688922
 31
0.0
  0
LINE
  5
1241F
  8
0
 10
4408.4251417759805918
 20
212.7087273577689075
 30
0.0
 11
4408.3520231857819454
 21
212.7087273577689075
 31
0.0
  0
LINE
  5
12420
  8
0
 10
4407.8973071373820858
 20
212.7087273577689075
 30
0.0
 11
4407.7952205160809172
 21
212.7087273577689075
 31
0.0
  0
LINE
  5
12421
  8
0
 10
4408.4251417759805918
 20
212.7087273577689075
 30
0.0
 11
4413.0685276026806605
 21
212.7087273577689075
 31
0.0
  0
LINE
  5
12422
  8
0
 10
4408.0117559493819499
 20
213.2323494049689998
 30
0.0
 11
4408.2479764217805496
 21
213.2323494049689998
 31
0.0
  0
LINE
  5
12423
  8
0
 10
4407.7952205160809172
 20
213.4685698774688944
 30
0.0
 11
4407.8973071373820858
 21
213.4685698774688944
 31
0.0
  0
LINE
  5
12424
  8
0
 10
4408.3520231857819454
 20
213.4685698774688944
 30
0.0
 11
4408.4251417759805918
 21
213.4685698774688944
 31
0.0
  0
LINE
  5
12425
  8
0
 10
4408.4251417759805918
 20
213.4685698773689069
 30
0.0
 11
4413.0685276026806605
 21
213.4685698773689069
 31
0.0
  0
LINE
  5
12426
  8
0
 10
4407.8973054903817683
 20
213.6260501923688935
 30
0.0
 11
4408.3520225660813594
 21
213.6260501923688935
 31
0.0
  0
ARC
  5
12427
  8
0
 10
4358.9815722221819669
 20
160.7126643655689122
 30
0.0
 40
49.6286089239000106
 50
358.7722042876534942
 51
1.2277957123465459
  0
ARC
  5
12428
  8
0
 10
4408.0499473636809853
 20
152.6026052817688878
 30
0.0
 40
0.2362204724
 50
180.0
 51
270.0
  0
ARC
  5
12429
  8
0
 10
4408.1108320069815818
 20
152.5885950668688906
 30
0.0
 40
0.2225799237
 50
180.0
 51
0.0
  0
ARC
  5
1242A
  8
0
 10
4408.1227820093818082
 20
152.5770147305688909
 30
0.0
 40
0.2106299213
 50
270.2466006650669215
 51
0.0
  0
ARC
  5
1242B
  8
0
 10
4408.1108320069815818
 20
152.5885950668688906
 30
0.0
 40
0.2028948844
 50
180.0
 51
0.0
  0
ARC
  5
1242C
  8
0
 10
4408.1108320068806279
 20
152.5889647330689058
 30
0.0
 40
0.1989579250407542
 50
180.0400230604400065
 51
359.9599769395600219
  0
ARC
  5
1242D
  8
0
 10
4408.1109709856809786
 20
152.5888257541689086
 30
0.0
 40
0.1594488189
 50
180.0
 51
0.0
  0
ARC
  5
1242E
  8
0
 10
4407.9276221619820717
 20
153.1731703004689109
 30
0.0
 40
0.0393700787
 50
89.9999999993746798
 51
180.0000000006994014
  0
ARC
  5
1242F
  8
0
 10
4408.2845615055821327
 20
153.1745457110689017
 30
0.0
 40
0.0379946681
 50
45.0554604260918978
 51
90.0000000002084306
  0
ARC
  5
12430
  8
0
 10
4408.2704198045830708
 20
152.7758336281688969
 30
0.0
 40
0.0196850394
 50
0.0
 51
90.0
  0
ARC
  5
12431
  8
0
 10
4407.9512442090817785
 20
152.7758336281688969
 30
0.0
 40
0.0196850394
 50
90.0
 51
180.0000000002995932
  0
ARC
  5
12432
  8
0
 10
4407.9792310913808251
 20
152.8583336569689095
 30
0.0
 40
0.0196850394
 50
179.999999999399904
 51
270.000000000104194
  0
ARC
  5
12433
  8
0
 10
4408.2666462079805569
 20
152.8583336569689095
 30
0.0
 40
0.0196850394
 50
269.999999999895806
 51
2.1254545613497751
  0
ARC
  5
12434
  8
0
 10
4408.678984035481335
 20
152.8868342047688884
 30
0.0
 40
0.0196850394
 50
238.2327366535942019
 51
58.232736683385248
  0
ARC
  5
12435
  8
0
 10
4408.2743568126816172
 20
152.7797706360688892
 30
0.0
 40
0.0196850394
 50
0.0
 51
90.0
  0
ARC
  5
12436
  8
0
 10
4407.9473072013806814
 20
152.7797706360688892
 30
0.0
 40
0.0196850394
 50
90.0
 51
179.9999999980996108
  0
ARC
  5
12437
  8
0
 10
4407.9433701933821794
 20
152.7561485888689106
 30
0.0
 40
0.0118110236
 50
179.9999999987998081
 51
270.0
  0
ARC
  5
12438
  8
0
 10
4407.9236851539808413
 20
152.6931564628688989
 30
0.0
 40
0.0118110236
 50
90.0
 51
180.0000000011993109
  0
ARC
  5
12439
  8
0
 10
4408.2979788597804145
 20
152.6931564628688989
 30
0.0
 40
0.0118110236
 50
0.0
 51
90.0
  0
ARC
  5
1243A
  8
0
 10
4408.2782938203818048
 20
152.7561485888689106
 30
0.0
 40
0.0118110236
 50
270.0
 51
0.0
  0
ARC
  5
1243B
  8
0
 10
4407.8247480751806506
 20
153.2008533419688945
 30
0.0
 40
0.0118110236
 50
159.1087335227047959
 51
180.0
  0
ARC
  5
1243C
  8
0
 10
4407.9720571413809012
 20
153.2007293555689103
 30
0.0
 40
0.0118110236
 50
0.0000000020998785
 51
90.0000000025012952
  0
ARC
  5
1243D
  8
0
 10
4407.9720571413809012
 20
153.1652962847689139
 30
0.0
 40
0.0118110236
 50
270.0000000017196271
 51
359.999999999399904
  0
ARC
  5
1243E
  8
0
 10
4407.9354961777808057
 20
153.1416742374688909
 30
0.0
 40
0.0118110236
 50
89.9999999974987048
 51
179.9999999979000904
  0
ARC
  5
1243F
  8
0
 10
4408.2724780826820279
 20
153.2007293555689103
 30
0.0
 40
0.0118110236
 50
89.9999999969254958
 51
179.9999999963995094
  0
ARC
  5
12440
  8
0
 10
4408.3362076924813664
 20
153.1071212703689071
 30
0.0
 40
0.0118110236
 50
47.4855661067055266
 51
182.1253559365989929
  0
ARC
  5
12441
  8
0
 10
4408.2013831880813086
 20
152.7207155179688982
 30
0.0
 40
0.0118110236
 50
179.9999999976998026
 51
269.9999999994789164
  0
ARC
  5
12442
  8
0
 10
4408.2013831880813086
 20
152.7285895337689112
 30
0.0
 40
0.0118110236
 50
89.9999999995831246
 51
180.0000000020999096
  0
ARC
  5
12443
  8
0
 10
4408.2822308283821258
 20
152.7522115809688898
 30
0.0
 40
0.0118110236
 50
270.0
 51
359.9999999974995148
  0
ARC
  5
12444
  8
0
 10
4407.9394331856810823
 20
152.7522115809688898
 30
0.0
 40
0.0118110236
 50
180.0000000017994068
 51
270.0000000006252776
  0
ARC
  5
12445
  8
0
 10
4408.020280825881855
 20
152.7285895337689112
 30
0.0
 40
0.0118110236
 50
0.0
 51
90.0
  0
ARC
  5
12446
  8
0
 10
4408.020280825881855
 20
152.7207155179688982
 30
0.0
 40
0.0118110236
 50
270.0
 51
0.0
  0
ARC
  5
12447
  8
0
 10
4407.9197481462806536
 20
152.6970934707688912
 30
0.0
 40
0.0118110236
 50
90.0
 51
179.9999999980996108
  0
ARC
  5
12448
  8
0
 10
4408.3019158677807354
 20
152.6970934707688912
 30
0.0
 40
0.0118110236
 50
0.0
 51
89.9999999995831246
  0
ARC
  5
12449
  8
0
 10
4408.2696695053818985
 20
153.0743095824689135
 30
0.0
 40
0.0090024464
 50
180.0
 51
0.0
  0
ARC
  5
1244A
  8
0
 10
4407.9591182248814221
 20
152.9132611557689074
 30
0.0
 40
0.0078740157
 50
224.8360709659062024
 51
359.9999999990994866
  0
ARC
  5
1244B
  8
0
 10
4408.5791062003818297
 20
159.6496722395689005
 30
0.0
 40
0.0196850394
 50
269.9862218755943104
 51
358.7677657954000097
  0
ARC
  5
1244C
  8
0
 10
4408.5791062003818297
 20
161.7756564915688955
 30
0.0
 40
0.0196850394
 50
1.232265949300799
 51
90.0
  0
ARC
  5
1244D
  8
0
 10
4408.5791062003818297
 20
159.6496722395689005
 30
0.0
 40
0.0196850394
 50
269.9999542850172816
 51
358.7722042876566775
  0
ARC
  5
1244E
  8
0
 10
4408.5791062003818297
 20
161.7756564915688955
 30
0.0
 40
0.0196850394
 50
1.2277957123432901
 51
90.0
  0
ARC
  5
1244F
  8
0
 10
4407.7361653980806295
 20
161.7756564915688955
 30
0.0
 40
0.0196850394
 50
90.0
 51
180.0000000002995932
  0
ARC
  5
12450
  8
0
 10
4407.7361653980806295
 20
159.6496722395689005
 30
0.0
 40
0.0196850394
 50
179.9999999987998081
 51
270.0
  0
ARC
  5
12451
  8
0
 10
4409.8126034480819726
 20
154.7175098464688858
 30
0.0
 40
2.172930561299999
 50
227.485566094198191
 51
238.2327366594103921
  0
ARC
  5
12452
  8
0
 10
4409.8126034480819726
 20
154.7175098464688858
 30
0.0
 40
2.1335604825000001
 50
225.2823713978891078
 51
238.232736659222212
  0
ARC
  5
12453
  8
0
 10
4413.0685276026806605
 20
213.3898297199689011
 30
0.0
 40
0.0787401575
 50
0.0
 51
90.0
  0
ARC
  5
12454
  8
0
 10
4413.0685276026806605
 20
212.7874675151689132
 30
0.0
 40
0.0787401575
 50
270.0
 51
0.0
  0
ARC
  5
12455
  8
0
 10
4407.7952205160809172
 20
213.4488848380688921
 30
0.0
 40
0.0196850394
 50
90.0
 51
180.0000000006994014
  0
ARC
  5
12456
  8
0
 10
4407.7952205160809172
 20
212.7284123970688938
 30
0.0
 40
0.0196850394
 50
179.9999999992998028
 51
270.0
  0
ARC
  5
12457
  8
0
 10
4408.8818346893813214
 20
213.4488848380688921
 30
0.0
 40
0.0196850394
 50
0.0000000002002986
 51
90.0
  0
ARC
  5
12458
  8
0
 10
4408.8818346893813214
 20
212.7284123970688938
 30
0.0
 40
0.0196850394
 50
270.0
 51
0.0
  0
ARC
  5
12459
  8
0
 10
4408.398228541998833
 20
153.1616288366182062
 30
0.0
 40
0.0081079463163295
 50
278.4663901332315845
 51
27.8798897372291492
  0
LINE
  5
1245A
  8
0
 10
4408.5791061821819312
 20
204.2686110775688917
 30
0.0
 11
4408.287346500381318
 21
204.2686110775688917
 31
0.0
  0
LINE
  5
1245B
  8
0
 10
4407.9330157917820543
 20
204.2686110775688917
 30
0.0
 11
4407.7361653980806295
 21
204.2686110775688917
 31
0.0
  0
LINE
  5
1245C
  8
0
 10
4407.9723858704819577
 20
204.3079811562689088
 30
0.0
 11
4407.9330157917820543
 21
204.3079811562689088
 31
0.0
  0
LINE
  5
1245D
  8
0
 10
4407.9330157917820543
 20
204.5048315499689124
 30
0.0
 11
4407.9723858704819577
 21
204.5048315499689124
 31
0.0
  0
LINE
  5
1245E
  8
0
 10
4407.9723858704819577
 20
206.1977449357688954
 30
0.0
 11
4407.9330157917820543
 21
206.1977449357688954
 31
0.0
  0
LINE
  5
1245F
  8
0
 10
4407.9330157917820543
 20
206.3945953294688991
 30
0.0
 11
4407.9723858704819577
 21
206.3945953294688991
 31
0.0
  0
LINE
  5
12460
  8
0
 10
4407.7361653980806295
 20
206.4339654082689037
 30
0.0
 11
4407.9330157917820543
 21
206.4339654082689037
 31
0.0
  0
LINE
  5
12461
  8
0
 10
4408.287346500381318
 20
206.4339654082689037
 30
0.0
 11
4408.5791062003818297
 21
206.4339654082689037
 31
0.0
  0
LINE
  5
12462
  8
0
 10
4407.7164803586820199
 20
206.4142803688689014
 30
0.0
 11
4407.7164803586820199
 21
204.2882961168689064
 31
0.0
  0
LINE
  5
12463
  8
0
 10
4407.9330157917820543
 20
204.2686110775688917
 30
0.0
 11
4407.9330157917820543
 21
206.4339654082689037
 31
0.0
  0
ARC
  5
12464
  8
0
 10
4358.9815722221819669
 20
205.3512882428688897
 30
0.0
 40
49.6286089239000106
 50
358.7722042876534942
 51
1.2277957123465459
  0
ARC
  5
12465
  8
0
 10
4408.5791062003818297
 20
204.2882961168689064
 30
0.0
 40
0.0196850394
 50
269.9862218755943104
 51
358.7677657954000097
  0
ARC
  5
12466
  8
0
 10
4408.5791062003818297
 20
206.4142803688689014
 30
0.0
 40
0.0196850394
 50
1.232265949300799
 51
90.0
  0
ARC
  5
12467
  8
0
 10
4408.5791062003818297
 20
204.2882961168689064
 30
0.0
 40
0.0196850394
 50
269.9999542850172816
 51
358.7722042876566775
  0
ARC
  5
12468
  8
0
 10
4408.5791062003818297
 20
206.4142803688689014
 30
0.0
 40
0.0196850394
 50
1.2277957123432901
 51
90.0
  0
ARC
  5
12469
  8
0
 10
4407.7361653980806295
 20
206.4142803688689014
 30
0.0
 40
0.0196850394
 50
90.0
 51
180.0000000002995932
  0
ARC
  5
1246A
  8
0
 10
4407.7361653980806295
 20
204.2882961168689064
 30
0.0
 40
0.0196850394
 50
179.9999999987998081
 51
270.0
  0
ENDSEC
  0
EOF
