  0
SECTION
  2
HEADER
  9
$ACADVER
  1
AC1009
  9
$INSBASE
 10
4438.3165257262971863
 20
181.1355773138207894
 30
0.0
  9
$EXTMIN
 10
4418.3324079900157813
 20
180.7098543845881125
 30
-0.0015258207003583
  9
$EXTMAX
 10
4458.0625800223815531
 20
186.1535111219263001
 30
0.0000000349246037
  9
$LIMMIN
 10
0.0
 20
0.0
  9
$LIMMAX
 10
11.6929133858000007
 20
8.2677165353999982
  9
$ORTHOMODE
 70
     0
  9
$REGENMODE
 70
     1
  9
$FILLMODE
 70
     1
  9
$QTEXTMODE
 70
     0
  9
$MIRRTEXT
 70
     0
  9
$DRAGMODE
 70
     2
  9
$LTSCALE
 40
0.6431102362
  9
$OSMODE
 70
  4095
  9
$ATTMODE
 70
     1
  9
$TEXTSIZE
 40
0.2
  9
$TRACEWID
 40
0.05
  9
$TEXTSTYLE
  7
STANDARD
  9
$CLAYER
  8
0
  9
$CELTYPE
  6
BYLAYER
  9
$CECOLOR
 62
   256
  9
$DIMSCALE
 40
1.0
  9
$DIMASZ
 40
0.1875
  9
$DIMEXO
 40
0.0625
  9
$DIMDLI
 40
0.4443307087
  9
$DIMRND
 40
0.0
  9
$DIMDLE
 40
0.0
  9
$DIMEXE
 40
0.125
  9
$DIMTP
 40
0.01
  9
$DIMTM
 40
0.01
  9
$DIMTXT
 40
2.0
  9
$DIMCEN
 40
0.1052362205
  9
$DIMTSZ
 40
0.0
  9
$DIMTOL
 70
     1
  9
$DIMLIM
 70
     0
  9
$DIMTIH
 70
     1
  9
$DIMTOH
 70
     1
  9
$DIMSE1
 70
     0
  9
$DIMSE2
 70
     0
  9
$DIMTAD
 70
     0
  9
$DIMZIN
 70
     0
  9
$DIMBLK
  1

  9
$DIMASO
 70
     1
  9
$DIMSHO
 70
     1
  9
$DIMPOST
  1
\X
  9
$DIMAPOST
  1

  9
$DIMALT
 70
     1
  9
$DIMALTD
 70
     2
  9
$DIMALTF
 40
25.3999999999999986
  9
$DIMLFAC
 40
1.0
  9
$DIMTOFL
 70
     0
  9
$DIMTVP
 40
0.0
  9
$DIMTIX
 70
     0
  9
$DIMSOXD
 70
     0
  9
$DIMSAH
 70
     0
  9
$DIMBLK1
  1

  9
$DIMBLK2
  1

  9
$DIMSTYLE
  2
STANDARD
  9
$DIMCLRD
 70
     0
  9
$DIMCLRE
 70
     0
  9
$DIMCLRT
 70
     0
  9
$DIMTFAC
 40
1.0
  9
$DIMGAP
 40
0.09
  9
$LUNITS
 70
     2
  9
$LUPREC
 70
     4
  9
$SKETCHINC
 40
0.1
  9
$FILLETRAD
 40
0.0
  9
$AUNITS
 70
     0
  9
$AUPREC
 70
     0
  9
$MENU
  1
.
  9
$ELEVATION
 40
0.0
  9
$PELEVATION
 40
0.0
  9
$THICKNESS
 40
0.0
  9
$LIMCHECK
 70
     0
  9
$BLIPMODE
 70
     0
  9
$CHAMFERA
 40
0.0
  9
$CHAMFERB
 40
0.0
  9
$SKPOLY
 70
     0
  9
$TDCREATE
 40
2458060.468368056230247
  9
$TDUPDATE
 40
2459545.8019444439560175
  9
$TDINDWG
 40
0.7565927083
  9
$TDUSRTIMER
 40
0.7565927083
  9
$USRTIMER
 70
     1
  9
$ANGBASE
 50
0.0
  9
$ANGDIR
 70
     0
  9
$PDMODE
 70
     0
  9
$PDSIZE
 40
0.3125
  9
$PLINEWID
 40
0.0
  9
$COORDS
 70
     1
  9
$SPLFRAME
 70
     0
  9
$SPLINETYPE
 70
     6
  9
$SPLINESEGS
 70
     8
  9
$ATTDIA
 70
     1
  9
$ATTREQ
 70
     1
  9
$HANDLING
 70
     1
  9
$HANDSEED
  5
127DB
  9
$SURFTAB1
 70
     6
  9
$SURFTAB2
 70
     6
  9
$SURFTYPE
 70
     6
  9
$SURFU
 70
     6
  9
$SURFV
 70
     6
  9
$UCSNAME
  2

  9
$UCSORG
 10
0.0
 20
0.0
 30
0.0
  9
$UCSXDIR
 10
1.0
 20
0.0
 30
0.0
  9
$UCSYDIR
 10
0.0
 20
1.0
 30
0.0
  9
$PUCSNAME
  2

  9
$PUCSORG
 10
0.0
 20
0.0
 30
0.0
  9
$PUCSXDIR
 10
1.0
 20
0.0
 30
0.0
  9
$PUCSYDIR
 10
0.0
 20
1.0
 30
0.0
  9
$USERI1
 70
     0
  9
$USERI2
 70
     0
  9
$USERI3
 70
     0
  9
$USERI4
 70
     0
  9
$USERI5
 70
     0
  9
$USERR1
 40
0.0
  9
$USERR2
 40
0.0
  9
$USERR3
 40
0.0
  9
$USERR4
 40
0.0
  9
$USERR5
 40
0.0
  9
$WORLDVIEW
 70
     1
  9
$SHADEDGE
 70
     3
  9
$SHADEDIF
 70
    70
  9
$TILEMODE
 70
     1
  9
$MAXACTVP
 70
    64
  9
$PLIMCHECK
 70
     0
  9
$PEXTMIN
 10
1.0000000000000000E+20
 20
1.0000000000000000E+20
 30
1.0000000000000000E+20
  9
$PEXTMAX
 10
-1.0000000000000000E+20
 20
-1.0000000000000000E+20
 30
-1.0000000000000000E+20
  9
$PLIMMIN
 10
0.0
 20
0.0
  9
$PLIMMAX
 10
12.0
 20
9.0
  9
$UNITMODE
 70
     0
  9
$VISRETAIN
 70
     1
  9
$PLINEGEN
 70
     0
  9
$PSLTSCALE
 70
     1
  0
ENDSEC
  0
SECTION
  2
TABLES
  0
TABLE
  2
VPORT
 70
     1
  0
VPORT
  2
*ACTIVE
 70
     0
 10
0.0
 20
0.0
 11
1.0
 21
1.0
 12
794.1216883421366219
 22
23.4874422534595908
 13
0.0
 23
0.0
 14
1.0
 24
1.0
 15
0.0
 25
0.0
 16
0.0
 26
0.0
 36
26.6346482412083887
 17
3644.0758056640620453
 27
159.9442404997975871
 37
0.0
 40
15.0475098641892497
 41
2.6486111111111108
 42
50.0
 43
0.0
 44
0.0
 50
0.0
 51
0.0
 71
     0
 72
   100
 73
     1
 74
     1
 75
     0
 76
     0
 77
     0
 78
     0
  0
ENDTAB
  0
TABLE
  2
LTYPE
 70
     2
  0
LTYPE
  2
CONTINUOUS
 70
     0
  3
Solid line
 72
    65
 73
     0
 40
0.0
  0
LTYPE
  2
PHANTOM2
 70
     0
  3
___ _ _ ___ _ _ ___ _ _ ___ _ _
 72
    65
 73
     6
 40
1.25
 49
0.625
 49
-0.125
 49
0.125
 49
-0.125
 49
0.125
 49
-0.125
  0
ENDTAB
  0
TABLE
  2
LAYER
 70
     2
  0
LAYER
  2
0
 70
     0
 62
   255
  6
CONTINUOUS
  0
LAYER
  2
DEFPOINTS
 70
     0
 62
     7
  6
CONTINUOUS
  0
ENDTAB
  0
TABLE
  2
STYLE
 70
     1
  0
STYLE
  2
STANDARD
 70
     0
 40
0.0
 41
0.8
 50
0.0
 71
     0
 42
0.2
  3
txt
  4

  0
ENDTAB
  0
TABLE
  2
VIEW
 70
     0
  0
ENDTAB
  0
TABLE
  2
UCS
 70
     0
  0
ENDTAB
  0
TABLE
  2
APPID
 70
    10
  0
APPID
  2
ACAD
 70
     0
  0
APPID
  2
ACAD_MLEADERVER
 70
     0
  0
APPID
  2
ACAD_EXEMPT_FROM_CAD_STANDARDS
 70
     0
  0
APPID
  2
ACAD_NAV_VCDISPLAY
 70
     0
  0
APPID
  2
ACAECLAYERSTANDARD
 70
     0
  0
APPID
  2
ACCMTRANSPARENCY
 70
     0
  0
APPID
  2
ACAD_DSTYLE_DIMJAG
 70
     0
  0
APPID
  2
ACAD_DSTYLE_DIMTALN
 70
     0
  0
APPID
  2
ACDBATTR
 70
     0
  0
APPID
  2
ACAD_PSEXT
 70
     0
  0
ENDTAB
  0
TABLE
  2
DIMSTYLE
 70
     1
  0
DIMSTYLE
  2
STANDARD
 70
     0
  3

  4

  5

  6

  7

 40
1.0
 41
0.1875
 42
0.0625
 43
0.38
 44
0.125
 45
0.0
 46
0.0
 47
0.01
 48
0.01
140
0.15625
141
0.09
142
0.0
143
25.3999999999999986
144
1.0
145
0.0
146
1.0
147
0.09
 71
     1
 72
     0
 73
     1
 74
     1
 75
     0
 76
     0
 77
     0
 78
     4
170
     0
171
     2
172
     0
173
     0
174
     0
175
     0
176
     0
177
     0
178
     0
  0
ENDTAB
  0
ENDSEC
  0
SECTION
  2
BLOCKS
  0
BLOCK
  8
0
  2
$MODEL_SPACE
 70
     0
 10
0.0
 20
0.0
 30
0.0
  3
$MODEL_SPACE
  1

  0
ENDBLK
  5
21
  8
0
  0
BLOCK
 67
     1
  8
0
  2
$PAPER_SPACE
 70
     0
 10
0.0
 20
0.0
 30
0.0
  3
$PAPER_SPACE
  1

  0
ENDBLK
  5
1D
 67
     1
  8
0
  0
ENDSEC
  0
SECTION
  2
ENTITIES
  0
ATTDEF
  5
AA11
  8
DEFPOINTS
 10
4438.312106571914228
 20
181.1326494831999128
 30
0.0
 40
0.001
  1
K-1.1922.031
  3

  2
MODELNUMBER
 70
     0
1001
ACDBATTR
1070
     0
1070
     1
  0
ATTDEF
  5
AA12
  8
DEFPOINTS
 10
4438.312106571914228
 20
181.1309828165331908
 30
0.0
 40
0.001
  1

  3

  2
TRADENAME
 70
     0
1001
ACDBATTR
1070
     0
1070
     1
  0
ATTDEF
  5
AA13
  8
DEFPOINTS
 10
4438.312106571914228
 20
181.1293161498664972
 30
0.0
 40
0.001
  1
SHOWER DOOR
  3

  2
PRODUCT
 70
     0
1001
ACDBATTR
1070
     0
1070
     1
  0
LINE
  5
125E8
  8
0
 10
4418.6275493482971797
 20
186.1529788885706864
 30
0.0
 11
4418.6275493482971797
 21
181.541525331770714
 31
0.0
  0
LINE
  5
125E9
  8
0
 10
4418.6275493482971797
 20
180.8364822371707135
 30
0.0
 11
4418.6275493482971797
 21
180.883608809770692
 31
0.0
  0
LINE
  5
125EA
  8
0
 10
4418.6275493482971797
 20
181.4544749516707043
 30
0.0
 11
4418.6275493482971797
 21
181.5055099100707139
 31
0.0
  0
LINE
  5
125EB
  8
0
 10
4418.6393603719961902
 20
180.8284611950707017
 30
0.0
 11
4418.6393603719961902
 21
181.5134887664706866
 31
0.0
  0
LINE
  5
125EC
  8
0
 10
4419.1039273010974284
 20
183.4032938491706943
 30
0.0
 11
4419.1039273010974284
 21
186.1332938491707125
 31
0.0
  0
LINE
  5
125ED
  8
0
 10
4420.2023524979967988
 20
181.5055099101707015
 30
0.0
 11
4420.2023524979967988
 21
180.8364822371707135
 31
0.0
  0
LINE
  5
125EE
  8
0
 10
4420.222037537297183
 20
180.800931644470694
 30
0.0
 11
4420.222037537297183
 21
181.4308529043707097
 31
0.0
  0
LINE
  5
125EF
  8
0
 10
4420.222037537297183
 20
181.4308529043707097
 30
0.0
 11
4420.222037537297183
 21
181.5292781011706893
 31
0.0
  0
LINE
  5
125F0
  8
0
 10
4420.3007776947970342
 20
181.5292781011706893
 30
0.0
 11
4420.3007776947970342
 21
181.4308529043707097
 31
0.0
  0
LINE
  5
125F1
  8
0
 10
4420.2139423131957301
 20
181.4189805415707895
 30
0.0
 11
4420.222037537297183
 21
181.4109676523706867
 31
0.0
  0
LINE
  5
125F2
  8
0
 10
4425.3401477734960281
 20
181.8875458177707003
 30
0.0
 11
4425.3401477734960281
 21
181.4308529043707097
 31
0.0
  0
LINE
  5
125F3
  8
0
 10
4425.3401477734960281
 20
181.4308529043707097
 30
0.0
 11
4425.3401477734960281
 21
180.800931644470694
 31
0.0
  0
LINE
  5
125F4
  8
0
 10
4425.4381807396957811
 20
181.5882978553707119
 30
0.0
 11
4425.4381807396957811
 21
181.293057628770697
 31
0.0
  0
LINE
  5
125F5
  8
0
 10
4425.4381807396957811
 20
180.9387269200707067
 30
0.0
 11
4425.4381807396957811
 21
180.7418856099959044
 31
0.0
  0
LINE
  5
125F6
  8
0
 10
4425.4972536555960687
 20
180.9780969988707113
 30
0.0
 11
4425.4972536555960687
 21
180.9387269200707067
 31
0.0
  0
LINE
  5
125F7
  8
0
 10
4425.6359125938970465
 20
181.6044978155707952
 30
0.0
 11
4425.6359213042969714
 21
181.293057628770697
 31
0.0
  0
LINE
  5
125F8
  8
0
 10
4425.6949586125965652
 20
180.9780969988707113
 30
0.0
 11
4425.6949586125965652
 21
180.9387269200707067
 31
0.0
  0
LINE
  5
125F9
  8
0
 10
4430.2323599213459602
 20
181.6049157554180908
 30
0.0
 11
4430.2318879221957104
 21
181.6158922744706956
 31
0.0
  0
LINE
  5
125FA
  8
0
 10
4429.9961570789955658
 20
180.9387269201706943
 30
0.0
 11
4429.9961570789955658
 21
180.9190418807706919
 31
0.0
  0
LINE
  5
125FB
  8
0
 10
4429.9961570789955658
 20
181.293057628770697
 30
0.0
 11
4429.9961570789955658
 21
181.3521127468706879
 31
0.0
  0
LINE
  5
125FC
  8
0
 10
4430.0015650963969165
 20
181.3069101136707957
 30
0.0
 11
4430.0015650963969165
 21
181.269754479223991
 31
0.0
  0
LINE
  5
125FD
  8
0
 10
4430.0015650963969165
 20
180.9701721363574052
 30
0.0
 11
4430.0015650963969165
 21
180.9335792818706921
 31
0.0
  0
LINE
  5
125FE
  8
0
 10
4430.0055021041962391
 20
181.3137276456706957
 30
0.0
 11
4430.0055021041962391
 21
181.3521127468706879
 31
0.0
  0
LINE
  5
125FF
  8
0
 10
4430.063588362297196
 20
181.3521127468706879
 30
0.0
 11
4430.063588362297196
 21
181.3243744704707012
 31
0.0
  0
LINE
  5
12600
  8
0
 10
4430.0724312380971242
 20
180.961093061870713
 30
0.0
 11
4430.0724312380971242
 21
180.9689906996707123
 31
0.0
  0
LINE
  5
12601
  8
0
 10
4430.0724312380971242
 20
181.2711195212706912
 30
0.0
 11
4430.0724312380971242
 21
181.2790064476706959
 31
0.0
  0
LINE
  5
12602
  8
0
 10
4430.2023524979958893
 20
181.2735182586706912
 30
0.0
 11
4430.2023524979958893
 21
180.966923731831713
 31
0.0
  0
LINE
  5
12603
  8
0
 10
4430.2456595845960692
 20
180.9629582000920891
 30
0.0
 11
4430.2456595845960692
 21
181.1215132220706892
 31
0.0
  0
LINE
  5
12604
  8
0
 10
4430.2456595845960692
 20
181.1451352692706962
 30
0.0
 11
4430.2456595845960692
 21
181.3281322459706928
 31
0.0
  0
LINE
  5
12605
  8
0
 10
4430.2520447607967071
 20
181.5851343547772103
 30
0.0
 11
4430.2520447607967071
 21
181.3521127468706879
 31
0.0
  0
LINE
  5
12606
  8
0
 10
4430.2716318770972066
 20
180.9387269201706943
 30
0.0
 11
4430.2716318770972066
 21
180.9190418807706919
 31
0.0
  0
LINE
  5
12607
  8
0
 10
4430.4070769073960037
 20
181.3258138489707108
 30
0.0
 11
4430.4070769073960037
 21
181.2648928473707031
 31
0.0
  0
LINE
  5
12608
  8
0
 10
4430.4257930866970128
 20
181.0942387311706909
 30
0.0
 11
4430.4257930866970128
 21
181.1217363199706938
 31
0.0
  0
LINE
  5
12609
  8
0
 10
4430.4257930866970128
 20
181.1453912350706901
 30
0.0
 11
4430.4257930866970128
 21
181.1651048728706996
 31
0.0
  0
LINE
  5
1260A
  8
0
 10
4430.4464469860959071
 20
181.0174670775707
 30
0.0
 11
4430.4464469860959071
 21
181.1247912071706878
 31
0.0
  0
LINE
  5
1260B
  8
0
 10
4430.4464469860959071
 20
181.149249572070687
 30
0.0
 11
4430.4464469860959071
 21
181.2536875500707083
 31
0.0
  0
LINE
  5
1260C
  8
0
 10
4430.1928903926964267
 20
181.0080049723707134
 30
0.0
 11
4430.1928874807972534
 21
180.9975948328707034
 31
0.0
  0
LINE
  5
1260D
  8
0
 10
4430.2717387000957387
 20
180.7221914870706883
 30
0.0
 11
4430.2717476019970491
 21
180.9190418807706919
 31
0.0
  0
LINE
  5
1260E
  8
0
 10
4430.4489129381972816
 20
180.9387269201706943
 30
0.0
 11
4430.4489040362959713
 21
180.7221914870706883
 31
0.0
  0
LINE
  5
1260F
  8
0
 10
4430.6157461505972606
 20
181.6158922744706956
 30
0.0
 11
4430.6162181497447818
 21
181.6049157554249973
 31
0.0
  0
LINE
  5
12610
  8
0
 10
4430.564557222395706
 20
181.3391230589706993
 30
0.0
 11
4430.564557222395706
 21
181.293057628770697
 31
0.0
  0
LINE
  5
12611
  8
0
 10
4430.5965329145974465
 20
181.293057628770697
 30
0.0
 11
4430.5965329145974465
 21
181.5852353173706888
 31
0.0
  0
LINE
  5
12612
  8
0
 10
4430.6432973797973318
 20
181.7043802030707127
 30
0.0
 11
4430.6432973797973318
 21
181.6158922744706956
 31
0.0
  0
LINE
  5
12613
  8
0
 10
4430.6432973797973318
 20
180.9727033689707127
 30
0.0
 11
4430.6432973797973318
 21
180.9387269201706943
 31
0.0
  0
LINE
  5
12614
  8
0
 10
4430.6432973797973318
 20
180.9777682696708041
 30
0.0
 11
4430.6432973797973318
 21
180.9387269201706943
 31
0.0
  0
LINE
  5
12615
  8
0
 10
4430.6517704346970277
 20
180.9780969988707113
 30
0.0
 11
4430.6517704346970277
 21
180.9387269201706943
 31
0.0
  0
LINE
  5
12616
  8
0
 10
4430.6525359989964272
 20
180.9387269201706943
 30
0.0
 11
4430.6525359989964272
 21
180.9780969988707113
 31
0.0
  0
LINE
  5
12617
  8
0
 10
4430.8494753916957052
 20
180.9780969988707113
 30
0.0
 11
4430.8494753916957052
 21
180.9387269201706943
 31
0.0
  0
LINE
  5
12618
  8
0
 10
4430.1649574098955782
 20
181.2910826380706908
 30
0.0
 11
4430.2023524978967544
 21
181.2536875500707083
 31
0.0
  0
LINE
  5
12619
  8
0
 10
4430.4858170648967644
 20
180.9780969988707113
 30
0.0
 11
4430.4464469860959071
 21
181.0174670775707
 31
0.0
  0
LINE
  5
1261A
  8
0
 10
4430.2023524978967544
 20
181.0174670775707
 30
0.0
 11
4430.1629824191959415
 21
180.9780969988707113
 31
0.0
  0
LINE
  5
1261B
  8
0
 10
4430.4464469860959071
 20
181.2536875500707083
 30
0.0
 11
4430.4858170648967644
 21
181.293057628770697
 31
0.0
  0
LINE
  5
1261C
  8
0
 10
4435.2618157365795923
 20
181.6079798512452896
 30
0.0
 11
4435.2614149669971084
 21
181.6158922744706956
 31
0.0
  0
LINE
  5
1261D
  8
0
 10
4435.0305773263971787
 20
180.9387269201706943
 30
0.0
 11
4435.0305773263971787
 21
180.9780969988707113
 31
0.0
  0
LINE
  5
1261E
  8
0
 10
4435.2273386807955831
 20
180.9780969988707113
 30
0.0
 11
4435.2273386807955831
 21
180.9387269201706943
 31
0.0
  0
LINE
  5
1261F
  8
0
 10
4435.2815005902966732
 20
181.5882978554706995
 30
0.0
 11
4435.2815005902966732
 21
181.2930576288707982
 31
0.0
  0
LINE
  5
12620
  8
0
 10
4435.2815005902966732
 20
180.9387269201706943
 30
0.0
 11
4435.2815005902966732
 21
180.7418765264706906
 31
0.0
  0
LINE
  5
12621
  8
0
 10
4435.2618155528971329
 20
180.7221914870706883
 30
0.0
 11
4425.457865776997096
 21
180.7221914870706883
 31
0.0
  0
LINE
  5
12622
  8
0
 10
4425.3204627341956439
 20
180.7812466051707077
 30
0.0
 11
4420.2417225766967022
 21
180.7812466050706917
 31
0.0
  0
LINE
  5
12623
  8
0
 10
4425.4381807396957811
 20
180.8895143216707027
 30
0.0
 11
4425.3401477734960281
 21
180.8895143216707027
 31
0.0
  0
LINE
  5
12624
  8
0
 10
4420.222037537297183
 20
180.8895143216707027
 30
0.0
 11
4420.2023524978967544
 21
180.8895143216707027
 31
0.0
  0
LINE
  5
12625
  8
0
 10
4458.005502104297193
 20
180.8939632116706946
 30
0.0
 11
4435.2815005902966732
 21
180.893963211570707
 31
0.0
  0
LINE
  5
12626
  8
0
 10
4425.3401477734960281
 20
180.8973883374708009
 30
0.0
 11
4425.4381807396957811
 21
180.8973883374708009
 31
0.0
  0
LINE
  5
12627
  8
0
 10
4429.9961570789955658
 20
180.9190418807706919
 30
0.0
 11
4430.0599848112969994
 21
180.9190418807706919
 31
0.0
  0
LINE
  5
12628
  8
0
 10
4430.2270427385956282
 20
180.9190418807706919
 30
0.0
 11
4430.2717476019970491
 21
180.9190418807706919
 31
0.0
  0
LINE
  5
12629
  8
0
 10
4435.2815005902966732
 20
180.9333332902706957
 30
0.0
 11
4458.005502104297193
 21
180.9333332904706992
 31
0.0
  0
LINE
  5
1262A
  8
0
 10
4429.9960413540966329
 20
180.9387269201706943
 30
0.0
 11
4430.0015650963969165
 21
180.9387269201706943
 31
0.0
  0
LINE
  5
1262B
  8
0
 10
4435.2815005902966732
 20
180.9387269201706943
 30
0.0
 11
4430.4489129381972816
 21
180.9387269201706943
 31
0.0
  0
LINE
  5
1262C
  8
0
 10
4430.448636978995637
 20
180.9387269201706943
 30
0.0
 11
4430.2716318770972066
 21
180.9387269201706943
 31
0.0
  0
LINE
  5
1262D
  8
0
 10
4430.2716318770972066
 20
180.9387269201706943
 30
0.0
 11
4430.2408432349957366
 21
180.9387269201706943
 31
0.0
  0
LINE
  5
1262E
  8
0
 10
4430.0015650963969165
 20
180.9387269201706943
 30
0.0
 11
4425.4381807396957811
 21
180.9387269200707067
 31
0.0
  0
LINE
  5
1262F
  8
0
 10
4430.1781252089440386
 20
180.9036236276805028
 30
0.0
 11
4430.0084201321287765
 21
180.9257714778534023
 31
0.0
  0
LINE
  5
12630
  8
0
 10
4430.0724312380971242
 20
180.961093061870713
 30
0.0
 11
4430.1795733807393844
 21
180.947110167877014
 31
0.0
  0
LINE
  5
12631
  8
0
 10
4425.4972536555960687
 20
180.9702229830706983
 30
0.0
 11
4425.3401477734960281
 21
180.9702229830706983
 31
0.0
  0
LINE
  5
12632
  8
0
 10
4430.6432973797973318
 20
180.9727033689707127
 30
0.0
 11
4430.3975470475961629
 21
180.9727033689707127
 31
0.0
  0
LINE
  5
12633
  8
0
 10
4430.6517704346970277
 20
180.9777682696708041
 30
0.0
 11
4430.6432973797973318
 21
180.9777682696708041
 31
0.0
  0
LINE
  5
12634
  8
0
 10
4430.1629824191959415
 20
180.9780969988707113
 30
0.0
 11
4430.0681314691955777
 21
180.9780969988707113
 31
0.0
  0
LINE
  5
12635
  8
0
 10
4430.0050103932971979
 20
180.9780969988707113
 30
0.0
 11
4425.3401477734960281
 21
180.9780969988707113
 31
0.0
  0
LINE
  5
12636
  8
0
 10
4420.222037537297183
 20
180.9780969987706953
 30
0.0
 11
4420.2023524979967988
 21
180.9780969987706953
 31
0.0
  0
LINE
  5
12637
  8
0
 10
4430.4858170648967644
 20
180.9780969988707113
 30
0.0
 11
4457.9661320254972452
 21
180.9780969990706865
 31
0.0
  0
LINE
  5
12638
  8
0
 10
4430.0606202144972485
 20
180.9808017232707016
 30
0.0
 11
4430.012194683308735
 21
180.9808017232707016
 31
0.0
  0
LINE
  5
12639
  8
0
 10
4457.9776143198960199
 20
180.9895792933706957
 30
0.0
 11
4458.005502104297193
 21
180.9895792933706957
 31
0.0
  0
LINE
  5
1263A
  8
0
 10
4430.4464469860959071
 20
181.0174670775707
 30
0.0
 11
4458.005502104297193
 21
181.0174670777707036
 31
0.0
  0
LINE
  5
1263B
  8
0
 10
4430.4464469860959071
 20
181.0910915629706892
 30
0.0
 11
4430.4159545942957266
 21
181.0910915629706892
 31
0.0
  0
LINE
  5
1263C
  8
0
 10
4430.4053498071971262
 20
181.0942387311706909
 30
0.0
 11
4430.3728251895972789
 21
181.0942387311706909
 31
0.0
  0
LINE
  5
1263D
  8
0
 10
4430.4188879309958793
 20
181.1215132220706892
 30
0.0
 11
4430.2456595845960692
 21
181.1215132220706892
 31
0.0
  0
LINE
  5
1263E
  8
0
 10
4430.4188879309958793
 20
181.1451352692706962
 30
0.0
 11
4430.2456595845960692
 21
181.1451352692706962
 31
0.0
  0
LINE
  5
1263F
  8
0
 10
4458.005502104297193
 20
181.2536875502707119
 30
0.0
 11
4430.5361450203972709
 21
181.2536875500707083
 31
0.0
  0
LINE
  5
12640
  8
0
 10
4430.5123227908970875
 20
181.2536875500707083
 30
0.0
 11
4430.4464469860959071
 21
181.2536875500707083
 31
0.0
  0
LINE
  5
12641
  8
0
 10
4430.0115419641861081
 20
181.2593084976707019
 30
0.0
 11
4430.0606202144972485
 21
181.2593084976707019
 31
0.0
  0
LINE
  5
12642
  8
0
 10
4458.005502104297193
 20
181.266378187470707
 30
0.0
 11
4457.9928114669955903
 21
181.266378187470707
 31
0.0
  0
LINE
  5
12643
  8
0
 10
4457.9810004433957147
 20
181.2781892110706963
 30
0.0
 11
4458.005502104297193
 21
181.2781892110706963
 31
0.0
  0
LINE
  5
12644
  8
0
 10
4458.005502104297193
 20
181.2902726339706874
 30
0.0
 11
4457.9689170204974289
 21
181.2902726339706874
 31
0.0
  0
LINE
  5
12645
  8
0
 10
4457.9661320254972452
 20
181.2930576289707005
 30
0.0
 11
4430.5241967185957037
 21
181.293057628770697
 31
0.0
  0
LINE
  5
12646
  8
0
 10
4430.496810660995834
 20
181.293057628770697
 30
0.0
 11
4430.4858170648967644
 21
181.293057628770697
 31
0.0
  0
LINE
  5
12647
  8
0
 10
4430.0015650963969165
 20
181.293057628770697
 30
0.0
 11
4425.3401477734960281
 21
181.293057628770697
 31
0.0
  0
LINE
  5
12648
  8
0
 10
4420.222037537297183
 20
181.293057628770697
 30
0.0
 11
4420.2023524979967988
 21
181.293057628770697
 31
0.0
  0
LINE
  5
12649
  8
0
 10
4430.564557222395706
 20
181.3258138489707108
 30
0.0
 11
4430.4996290415956537
 21
181.3258138489707108
 31
0.0
  0
LINE
  5
1264A
  8
0
 10
4430.4575750199956019
 20
181.3258138489707108
 30
0.0
 11
4430.4070769073960037
 21
181.3258138489707108
 31
0.0
  0
LINE
  5
1264B
  8
0
 10
4430.5965329145974465
 20
181.3391230589706993
 30
0.0
 11
4430.564557222395706
 21
181.3391230589706993
 31
0.0
  0
LINE
  5
1264C
  8
0
 10
4429.9961570789955658
 20
181.3521127468706879
 30
0.0
 11
4430.2502713287967708
 21
181.3521127468706879
 31
0.0
  0
LINE
  5
1264D
  8
0
 10
4425.3401477734960281
 20
181.383608809870708
 30
0.0
 11
4425.4381807396957811
 21
181.383608809870708
 31
0.0
  0
LINE
  5
1264E
  8
0
 10
4425.4381807396957811
 20
181.4111065258707072
 30
0.0
 11
4425.3401477734960281
 21
181.4111065258707072
 31
0.0
  0
LINE
  5
1264F
  8
0
 10
4420.222037537297183
 20
181.4118415556706907
 30
0.0
 11
4420.2211546543967415
 21
181.4118415556706907
 31
0.0
  0
LINE
  5
12650
  8
0
 10
4420.222037537297183
 20
181.4308529043707097
 30
0.0
 11
4425.3401477734960281
 21
181.4308529043707097
 31
0.0
  0
LINE
  5
12651
  8
0
 10
4425.3401477734960281
 20
181.4308529043707097
 30
0.0
 11
4420.222037537297183
 21
181.4308529043707097
 31
0.0
  0
LINE
  5
12652
  8
0
 10
4420.222037537297183
 20
181.432821408270712
 30
0.0
 11
4420.2023524978967544
 21
181.432821408270712
 31
0.0
  0
LINE
  5
12653
  8
0
 10
4420.2023524978967544
 20
181.440695423970709
 30
0.0
 11
4420.222037537297183
 21
181.440695423970709
 31
0.0
  0
LINE
  5
12654
  8
0
 10
4425.3401477734960281
 20
181.4406954240706966
 30
0.0
 11
4425.4381807396957811
 21
181.4406954240706966
 31
0.0
  0
LINE
  5
12655
  8
0
 10
4420.3007776947970342
 20
181.5292781011706893
 30
0.0
 11
4420.2220375373972274
 21
181.5292781011706893
 31
0.0
  0
LINE
  5
12656
  8
0
 10
4425.6359125938970465
 20
181.6044978155707952
 30
0.0
 11
4430.2283278164832154
 21
181.6044978156710954
 31
0.0
  0
LINE
  5
12657
  8
0
 10
4430.6202503571612397
 20
181.6044978157707135
 30
0.0
 11
4435.2506290296287261
 21
181.6044978157707135
 31
0.0
  0
LINE
  5
12658
  8
0
 10
4430.6157461505972606
 20
181.6158922744706956
 30
0.0
 11
4435.2614149669971084
 21
181.6158922744706956
 31
0.0
  0
LINE
  5
12659
  8
0
 10
4430.2318879221957104
 20
181.6158922744706956
 30
0.0
 11
4425.4582663629971648
 21
181.6158922744706956
 31
0.0
  0
LINE
  5
1265A
  8
0
 10
4458.005502104297193
 20
181.7043802032706878
 30
0.0
 11
4430.6432973797973318
 21
181.7043802030707127
 31
0.0
  0
LINE
  5
1265B
  8
0
 10
4425.3204627341956439
 20
181.9072308570706866
 30
0.0
 11
4420.5999902931962424
 21
181.9072308570706866
 31
0.0
  0
LINE
  5
1265C
  8
0
 10
4430.1928874807972534
 20
180.9975948328707034
 30
0.0
 11
4430.1824831633957729
 21
180.9975977430707132
 31
0.0
  0
LINE
  5
1265D
  8
0
 10
4430.0085671939659733
 20
181.3147357051551012
 30
0.0
 11
4430.199495998896964
 21
181.3481831584707038
 31
0.0
  0
LINE
  5
1265E
  8
0
 10
4430.1801171790966691
 20
181.2930612377707007
 30
0.0
 11
4430.0724312380971242
 21
181.2790064476706959
 31
0.0
  0
LINE
  5
1265F
  8
0
 10
4418.6275493482971797
 20
186.1529788885706864
 30
0.0
 11
4419.0842422616969998
 21
186.1529788885706864
 31
0.0
  0
LINE
  5
12660
  8
0
 10
4457.9661320254972452
 20
181.2930576289707005
 30
0.0
 11
4458.005502104297193
 21
181.2536875502707119
 31
0.0
  0
LINE
  5
12661
  8
0
 10
4458.005502104297193
 20
181.0174670777707036
 30
0.0
 11
4457.9661320254972452
 21
180.9780969990706865
 31
0.0
  0
LINE
  5
12662
  8
0
 10
4458.005502104297193
 20
181.7043802032706878
 30
0.0
 11
4458.005502104297193
 21
180.8939632116706946
 31
0.0
  0
ARC
  5
12663
  8
0
 10
4419.4149509232956916
 20
152.0076245579707006
 30
0.0
 40
29.5275590550999993
 50
88.509147717879074
 51
91.4908522828507245
  0
ARC
  5
12664
  8
0
 10
4419.4247934429959059
 20
159.7200846557707052
 30
0.0
 40
21.8237603745999991
 50
87.9064612605039883
 51
92.0613937376083697
  0
ARC
  5
12665
  8
0
 10
4419.4149509229955584
 20
202.0346112053707941
 30
0.0
 40
21.2317110569999983
 50
267.9255761434491205
 51
272.0738385827598904
  0
ARC
  5
12666
  8
0
 10
4420.5999902931962424
 20
183.4032938492707103
 30
0.0
 40
1.4960629920999999
 50
180.0000000002995932
 51
270.0000000003126956
  0
ARC
  5
12667
  8
0
 10
4420.2416367979967617
 20
181.3154570362706863
 30
0.0
 40
0.0393700787
 50
183.7828846693479079
 51
214.6766867088527988
  0
ARC
  5
12668
  8
0
 10
4420.1826674585972796
 20
180.8364822371707135
 30
0.0
 40
0.0196850394
 50
271.7584966745864108
 51
0.0
  0
ARC
  5
12669
  8
0
 10
4420.1826674585972796
 20
181.5055099101707015
 30
0.0
 40
0.0196850394
 50
0.0000000002996337
 51
88.5091477123013846
  0
ARC
  5
1266A
  8
0
 10
4418.6472343876957893
 20
180.8364822371707135
 30
0.0
 40
0.0196850394
 50
180.0
 51
267.6102399721563074
  0
ARC
  5
1266B
  8
0
 10
4418.6472343876957893
 20
181.5055099100707139
 30
0.0
 40
0.0196850394
 50
91.4908522828507245
 51
179.9999999982998986
  0
ARC
  5
1266C
  8
0
 10
4425.457865776997096
 20
180.741876526370703
 30
0.0
 40
0.0196850394
 50
179.9735609672634951
 51
270.0
  0
ARC
  5
1266D
  8
0
 10
4420.2417225766967022
 20
180.800931644470694
 30
0.0
 40
0.0196850394
 50
180.0000000002995932
 51
270.0000000009900987
  0
ARC
  5
1266E
  8
0
 10
4425.3204627341956439
 20
180.800931644470694
 30
0.0
 40
0.0196850394
 50
270.0000000005210836
 51
0.0
  0
ARC
  5
1266F
  8
0
 10
4419.0842422616969998
 20
186.1332938491707125
 30
0.0
 40
0.0196850394
 50
0.0
 51
90.0000000003126672
  0
ARC
  5
12670
  8
0
 10
4425.3204627341956439
 20
181.8875458177707003
 30
0.0
 40
0.0196850394
 50
0.0000000002996337
 51
90.0000000009900987
  0
ARC
  5
12671
  8
0
 10
4418.6511713955969753
 20
181.5134887664706866
 30
0.0
 40
0.0118110236
 50
91.4828094058046588
 51
179.9999999937996904
  0
ARC
  5
12672
  8
0
 10
4418.6511713955969753
 20
180.8284611950707017
 30
0.0
 40
0.0118110236
 50
179.9999999938997917
 51
267.937275957655288
  0
ARC
  5
12673
  8
0
 10
4418.6393603719961902
 20
180.883608809770692
 30
0.0
 40
0.0118110236
 50
90.0
 51
180.0
  0
ARC
  5
12674
  8
0
 10
4418.6393603719961902
 20
181.4544749515706883
 30
0.0
 40
0.0118110236
 50
179.9999996016003081
 51
269.9999989204849271
  0
ARC
  5
12675
  8
0
 10
4418.6393603719961902
 20
181.541525331770714
 30
0.0
 40
0.0118110236
 50
179.9999999718995127
 51
272.0613937498101222
  0
ARC
  5
12676
  8
0
 10
4430.4171329226974194
 20
178.8726752168707037
 30
0.0
 40
2.4850590974000002
 50
89.9595363424007246
 51
94.8670789080033643
  0
ARC
  5
12677
  8
0
 10
4430.4171329226974194
 20
178.8726752168707037
 30
0.0
 40
2.4614370445999998
 50
89.9592085772919035
 51
93.9946837733247946
  0
ARC
  5
12678
  8
0
 10
4430.1502025355957812
 20
181.0942387311706909
 30
0.0
 40
0.2755905512
 50
359.3456888833994753
 51
0.0
  0
ARC
  5
12679
  8
0
 10
4430.1502025355957812
 20
181.0942387311706909
 30
0.0
 40
0.2755905512
 50
333.832438508795974
 51
355.5882742077076273
  0
ARC
  5
1267A
  8
0
 10
4430.1502025355957812
 20
181.1651048728706996
 30
0.0
 40
0.2755905512
 50
0.0000000002996337
 51
37.7365185188920478
  0
ARC
  5
1267B
  8
0
 10
4430.1502025355957812
 20
181.1651048728706996
 30
0.0
 40
0.2755905512
 50
44.1021156869924127
 51
68.3062778371055686
  0
ARC
  5
1267C
  8
0
 10
4430.1502025355957812
 20
181.0942387311706909
 30
0.0
 40
0.2755905512
 50
325.6297373446146253
 51
333.832313937603999
  0
ARC
  5
1267D
  8
0
 10
4430.1387138706968472
 20
181.1060497547707087
 30
0.0
 40
0.2165354331
 50
309.3469945941905053
 51
352.3377443387847734
  0
ARC
  5
1267E
  8
0
 10
4430.1338366155960102
 20
181.2143174712707037
 30
0.0
 40
0.0787401575
 50
30.7661427833124499
 51
59.2336283341905769
  0
ARC
  5
1267F
  8
0
 10
4430.1866056194958219
 20
180.96207222377069
 30
0.0
 40
0.0590606108
 50
261.7444627974683158
 51
0.8595340846883496
  0
ARC
  5
12680
  8
0
 10
4430.1826434789963969
 20
180.9665816078706939
 30
0.0
 40
0.0197119882
 50
261.0398328145677169
 51
0.994483312312586
  0
ARC
  5
12681
  8
0
 10
4430.0606202144972485
 20
180.9689906996707123
 30
0.0
 40
0.0118110236
 50
0.0000010838996523
 51
90.0000001685765056
  0
ARC
  5
12682
  8
0
 10
4430.0120253258955927
 20
180.9703414937706896
 30
0.0
 40
0.0104616004
 50
89.0724278832807954
 51
180.9275721214926023
  0
ARC
  5
12683
  8
0
 10
4430.0094391120956061
 20
180.9335792818706921
 30
0.0
 40
0.0078740157
 50
180.0
 51
262.5644738340702133
  0
ARC
  5
12684
  8
0
 10
4430.2062895057970309
 20
181.3094036359707104
 30
0.0
 40
0.0393700787
 50
89.9999994444009559
 51
99.9364098653810942
  0
ARC
  5
12685
  8
0
 10
4430.1826478872972075
 20
181.2735184065707017
 30
0.0
 40
0.0197078264
 50
359.9938569145999168
 51
97.3784834919780593
  0
ARC
  5
12686
  8
0
 10
4430.2323623726970254
 20
181.5852331196707041
 30
0.0
 40
0.0196826359
 50
359.7124960628863732
 51
101.8283565464259937
  0
ARC
  5
12687
  8
0
 10
4430.0606202144972485
 20
181.2711195212706912
 30
0.0
 40
0.0118110236
 50
270.0000001008854156
 51
359.9999989168999264
  0
ARC
  5
12688
  8
0
 10
4430.0094391120956061
 20
181.3069101136707957
 30
0.0
 40
0.0078740157
 50
96.3576062972613272
 51
180.0
  0
ARC
  5
12689
  8
0
 10
4430.4188879309958793
 20
181.2396234582706995
 30
0.0
 40
0.1181102362
 50
270.0000000046899231
 51
89.9999999642002848
  0
ARC
  5
1268A
  8
0
 10
4430.4188879309958793
 20
181.2396234582706995
 30
0.0
 40
0.094488189
 50
269.9999999613863224
 51
90.0015775231004795
  0
ARC
  5
1268B
  8
0
 10
4430.4053498071971262
 20
181.0745536917706886
 30
0.0
 40
0.0196850394
 50
355.5882742076905743
 51
90.0
  0
ARC
  5
1268C
  8
0
 10
4430.3728251895972789
 20
181.0745536917706886
 30
0.0
 40
0.0196850394
 50
90.0
 51
172.3377443387880987
  0
ARC
  5
1268D
  8
0
 10
4430.6162157545959417
 20
181.5852326676707946
 30
0.0
 40
0.0196830879
 50
78.1717811499022304
 51
179.9922868053000968
  0
ARC
  5
1268E
  8
0
 10
4435.2618096996966415
 20
181.5882885070707005
 30
0.0
 40
0.0196913451
 50
0.0272014733999051
 51
124.596687607207997
  0
ARC
  5
1268F
  8
0
 10
4435.2618155528971329
 20
180.7418765264706906
 30
0.0
 40
0.0196850394
 50
270.0
 51
0.0
  0
ARC
  5
12690
  8
0
 10
4420.2089116530360116
 20
181.4145660769621031
 30
0.0
 40
0.0066929096391868
 50
41.267339608662347
 51
168.5261163392727894
  0
ARC
  5
12691
  8
0
 10
4425.464087984309117
 20
181.590547547895909
 30
0.0
 40
0.0260047387962267
 50
102.9363043531628961
 51
184.9629113080403044
  0
ARC
  5
12692
  8
0
 10
4430.0109112087220637
 20
181.2686934699088965
 30
0.0
 40
0.0094061446009721
 50
173.5232746515513895
 51
273.8450148928520207
  0
ENDSEC
  0
EOF
