  0
SECTION
  2
HEADER
  9
$ACADVER
  1
AC1009
  9
$INSBASE
 10
4357.9801320103078979
 20
144.9530841664004015
 30
0.0
  9
$EXTMIN
 10
4338.1548532636688833
 20
144.9506047075643949
 30
-0.0000000000000058
  9
$EXTMAX
 10
4377.7857538292992103
 20
206.2139792092173991
 30
0.0000000000000104
  9
$LIMMIN
 10
0.0
 20
0.0
  9
$LIMMAX
 10
11.6929133858000007
 20
8.2677165353999982
  9
$ORTHOMODE
 70
     0
  9
$REGENMODE
 70
     1
  9
$FILLMODE
 70
     1
  9
$QTEXTMODE
 70
     0
  9
$MIRRTEXT
 70
     0
  9
$DRAGMODE
 70
     2
  9
$LTSCALE
 40
0.6431102362
  9
$OSMODE
 70
  4095
  9
$ATTMODE
 70
     1
  9
$TEXTSIZE
 40
0.2
  9
$TRACEWID
 40
0.05
  9
$TEXTSTYLE
  7
STANDARD
  9
$CLAYER
  8
0
  9
$CELTYPE
  6
BYLAYER
  9
$CECOLOR
 62
   256
  9
$DIMSCALE
 40
1.0
  9
$DIMASZ
 40
0.1875
  9
$DIMEXO
 40
0.0625
  9
$DIMDLI
 40
0.4443307087
  9
$DIMRND
 40
0.0
  9
$DIMDLE
 40
0.0
  9
$DIMEXE
 40
0.125
  9
$DIMTP
 40
0.01
  9
$DIMTM
 40
0.01
  9
$DIMTXT
 40
2.0
  9
$DIMCEN
 40
0.1052362205
  9
$DIMTSZ
 40
0.0
  9
$DIMTOL
 70
     1
  9
$DIMLIM
 70
     0
  9
$DIMTIH
 70
     1
  9
$DIMTOH
 70
     1
  9
$DIMSE1
 70
     0
  9
$DIMSE2
 70
     0
  9
$DIMTAD
 70
     0
  9
$DIMZIN
 70
     0
  9
$DIMBLK
  1

  9
$DIMASO
 70
     1
  9
$DIMSHO
 70
     1
  9
$DIMPOST
  1
\X
  9
$DIMAPOST
  1

  9
$DIMALT
 70
     1
  9
$DIMALTD
 70
     2
  9
$DIMALTF
 40
25.3999999999999986
  9
$DIMLFAC
 40
1.0
  9
$DIMTOFL
 70
     0
  9
$DIMTVP
 40
0.0
  9
$DIMTIX
 70
     0
  9
$DIMSOXD
 70
     0
  9
$DIMSAH
 70
     0
  9
$DIMBLK1
  1

  9
$DIMBLK2
  1

  9
$DIMSTYLE
  2
STANDARD
  9
$DIMCLRD
 70
     0
  9
$DIMCLRE
 70
     0
  9
$DIMCLRT
 70
     0
  9
$DIMTFAC
 40
1.0
  9
$DIMGAP
 40
0.09
  9
$LUNITS
 70
     2
  9
$LUPREC
 70
     4
  9
$SKETCHINC
 40
0.1
  9
$FILLETRAD
 40
0.0
  9
$AUNITS
 70
     0
  9
$AUPREC
 70
     0
  9
$MENU
  1
.
  9
$ELEVATION
 40
0.0
  9
$PELEVATION
 40
0.0
  9
$THICKNESS
 40
0.0
  9
$LIMCHECK
 70
     0
  9
$BLIPMODE
 70
     0
  9
$CHAMFERA
 40
0.0
  9
$CHAMFERB
 40
0.0
  9
$SKPOLY
 70
     0
  9
$TDCREATE
 40
2458060.468368056230247
  9
$TDUPDATE
 40
2459545.8021180559881032
  9
$TDINDWG
 40
0.7574491898
  9
$TDUSRTIMER
 40
0.7574491898
  9
$USRTIMER
 70
     1
  9
$ANGBASE
 50
0.0
  9
$ANGDIR
 70
     0
  9
$PDMODE
 70
     0
  9
$PDSIZE
 40
0.3125
  9
$PLINEWID
 40
0.0
  9
$COORDS
 70
     1
  9
$SPLFRAME
 70
     0
  9
$SPLINETYPE
 70
     6
  9
$SPLINESEGS
 70
     8
  9
$ATTDIA
 70
     1
  9
$ATTREQ
 70
     1
  9
$HANDLING
 70
     1
  9
$HANDSEED
  5
1235F
  9
$SURFTAB1
 70
     6
  9
$SURFTAB2
 70
     6
  9
$SURFTYPE
 70
     6
  9
$SURFU
 70
     6
  9
$SURFV
 70
     6
  9
$UCSNAME
  2

  9
$UCSORG
 10
0.0
 20
0.0
 30
0.0
  9
$UCSXDIR
 10
1.0
 20
0.0
 30
0.0
  9
$UCSYDIR
 10
0.0
 20
1.0
 30
0.0
  9
$PUCSNAME
  2

  9
$PUCSORG
 10
0.0
 20
0.0
 30
0.0
  9
$PUCSXDIR
 10
1.0
 20
0.0
 30
0.0
  9
$PUCSYDIR
 10
0.0
 20
1.0
 30
0.0
  9
$USERI1
 70
     0
  9
$USERI2
 70
     0
  9
$USERI3
 70
     0
  9
$USERI4
 70
     0
  9
$USERI5
 70
     0
  9
$USERR1
 40
0.0
  9
$USERR2
 40
0.0
  9
$USERR3
 40
0.0
  9
$USERR4
 40
0.0
  9
$USERR5
 40
0.0
  9
$WORLDVIEW
 70
     1
  9
$SHADEDGE
 70
     3
  9
$SHADEDIF
 70
    70
  9
$TILEMODE
 70
     1
  9
$MAXACTVP
 70
    64
  9
$PLIMCHECK
 70
     0
  9
$PEXTMIN
 10
1.0000000000000000E+20
 20
1.0000000000000000E+20
 30
1.0000000000000000E+20
  9
$PEXTMAX
 10
-1.0000000000000000E+20
 20
-1.0000000000000000E+20
 30
-1.0000000000000000E+20
  9
$PLIMMIN
 10
0.0
 20
0.0
  9
$PLIMMAX
 10
12.0
 20
9.0
  9
$UNITMODE
 70
     0
  9
$VISRETAIN
 70
     1
  9
$PLINEGEN
 70
     0
  9
$PSLTSCALE
 70
     1
  0
ENDSEC
  0
SECTION
  2
TABLES
  0
TABLE
  2
VPORT
 70
     1
  0
VPORT
  2
*ACTIVE
 70
     0
 10
0.0
 20
0.0
 11
1.0
 21
1.0
 12
713.8944978824220016
 22
15.6380514585932495
 13
0.0
 23
0.0
 14
1.0
 24
1.0
 15
0.0
 25
0.0
 16
0.0
 26
0.0
 36
26.6346482412083887
 17
3644.0758056640620453
 27
159.9442404997975871
 37
0.0
 40
61.7855752084351124
 41
2.6486111111111108
 42
50.0
 43
0.0
 44
0.0
 50
0.0
 51
0.0
 71
     0
 72
   100
 73
     1
 74
     1
 75
     0
 76
     0
 77
     0
 78
     0
  0
ENDTAB
  0
TABLE
  2
LTYPE
 70
     2
  0
LTYPE
  2
CONTINUOUS
 70
     0
  3
Solid line
 72
    65
 73
     0
 40
0.0
  0
LTYPE
  2
PHANTOM2
 70
     0
  3
___ _ _ ___ _ _ ___ _ _ ___ _ _
 72
    65
 73
     6
 40
1.25
 49
0.625
 49
-0.125
 49
0.125
 49
-0.125
 49
0.125
 49
-0.125
  0
ENDTAB
  0
TABLE
  2
LAYER
 70
     2
  0
LAYER
  2
0
 70
     0
 62
   255
  6
CONTINUOUS
  0
LAYER
  2
DEFPOINTS
 70
     0
 62
     7
  6
CONTINUOUS
  0
ENDTAB
  0
TABLE
  2
STYLE
 70
     1
  0
STYLE
  2
STANDARD
 70
     0
 40
0.0
 41
0.8
 50
0.0
 71
     0
 42
0.2
  3
txt
  4

  0
ENDTAB
  0
TABLE
  2
VIEW
 70
     0
  0
ENDTAB
  0
TABLE
  2
UCS
 70
     0
  0
ENDTAB
  0
TABLE
  2
APPID
 70
    10
  0
APPID
  2
ACAD
 70
     0
  0
APPID
  2
ACAD_MLEADERVER
 70
     0
  0
APPID
  2
ACAD_EXEMPT_FROM_CAD_STANDARDS
 70
     0
  0
APPID
  2
ACAD_NAV_VCDISPLAY
 70
     0
  0
APPID
  2
ACAECLAYERSTANDARD
 70
     0
  0
APPID
  2
ACCMTRANSPARENCY
 70
     0
  0
APPID
  2
ACAD_DSTYLE_DIMJAG
 70
     0
  0
APPID
  2
ACAD_DSTYLE_DIMTALN
 70
     0
  0
APPID
  2
ACDBATTR
 70
     0
  0
APPID
  2
ACAD_PSEXT
 70
     0
  0
ENDTAB
  0
TABLE
  2
DIMSTYLE
 70
     1
  0
DIMSTYLE
  2
STANDARD
 70
     0
  3

  4

  5

  6

  7

 40
1.0
 41
0.1875
 42
0.0625
 43
0.38
 44
0.125
 45
0.0
 46
0.0
 47
0.01
 48
0.01
140
0.15625
141
0.09
142
0.0
143
25.3999999999999986
144
1.0
145
0.0
146
1.0
147
0.09
 71
     1
 72
     0
 73
     1
 74
     1
 75
     0
 76
     0
 77
     0
 78
     4
170
     0
171
     2
172
     0
173
     0
174
     0
175
     0
176
     0
177
     0
178
     0
  0
ENDTAB
  0
ENDSEC
  0
SECTION
  2
BLOCKS
  0
BLOCK
  8
0
  2
$MODEL_SPACE
 70
     0
 10
0.0
 20
0.0
 30
0.0
  3
$MODEL_SPACE
  1

  0
ENDBLK
  5
21
  8
0
  0
BLOCK
 67
     1
  8
0
  2
$PAPER_SPACE
 70
     0
 10
0.0
 20
0.0
 30
0.0
  3
$PAPER_SPACE
  1

  0
ENDBLK
  5
1D
 67
     1
  8
0
  0
ENDSEC
  0
SECTION
  2
ENTITIES
  0
ATTDEF
  5
AA11
  8
DEFPOINTS
 10
4357.9774518938902474
 20
144.9575151510979083
 30
0.0
 40
0.001
  1
K-1.1922.031
  3

  2
MODELNUMBER
 70
     0
1001
ACDBATTR
1070
     0
1070
     1
  0
ATTDEF
  5
AA12
  8
DEFPOINTS
 10
4357.9774518938902474
 20
144.9558484844313
 30
0.0
 40
0.001
  1

  3

  2
TRADENAME
 70
     0
1001
ACDBATTR
1070
     0
1070
     1
  0
ATTDEF
  5
AA13
  8
DEFPOINTS
 10
4357.9774518938902474
 20
144.9541818177646064
 30
0.0
 40
0.001
  1
SHOWER DOOR
  3

  2
PRODUCT
 70
     0
1001
ACDBATTR
1070
     0
1070
     1
  0
LINE
  5
121A1
  8
0
 10
4377.669108388308814
 20
144.9530841664004015
 30
0.0
 11
4350.3069036638089528
 21
144.9530841664004015
 31
0.0
  0
LINE
  5
121A2
  8
0
 10
4350.3069036638089528
 20
144.953453832500486
 30
0.0
 11
4350.0706831914076247
 21
144.953453832500486
 31
0.0
  0
LINE
  5
121A3
  8
0
 10
4349.4437300794088515
 20
145.0320168534005063
 30
0.0
 11
4349.9959300419332067
 21
145.0320168534005063
 31
0.0
  0
LINE
  5
121A4
  8
0
 10
4349.4437300794088515
 20
145.0320168534005063
 30
0.0
 11
4338.2911556323078912
 21
145.0320168534005063
 31
0.0
  0
LINE
  5
121A5
  8
0
 10
4339.8659587819092849
 20
145.740678270700414
 30
0.0
 11
4349.4437300794088515
 21
145.740678270700414
 31
0.0
  0
LINE
  5
121A6
  8
0
 10
4350.3069036638089528
 20
145.7996094025004936
 30
0.0
 11
4377.669108388308814
 21
145.7996094025004936
 31
0.0
  0
LINE
  5
121A7
  8
0
 10
4349.9101227623086743
 20
145.799733388800405
 30
0.0
 11
4349.4555411030078176
 21
145.799733388800405
 31
0.0
  0
LINE
  5
121A8
  8
0
 10
4350.3069036638089528
 20
145.799910525500394
 30
0.0
 11
4349.9101227623086743
 21
145.799910525500394
 31
0.0
  0
LINE
  5
121A9
  8
0
 10
4354.7478485457077113
 20
152.217056223500407
 30
0.0
 11
4350.1120217741081433
 21
152.217056223500407
 31
0.0
  0
LINE
  5
121AA
  8
0
 10
4349.9348564198089662
 20
152.217056223500407
 30
0.0
 11
4345.2990296481093537
 21
152.217056223500407
 31
0.0
  0
LINE
  5
121AB
  8
0
 10
4349.0687146875088729
 20
152.7859538613004133
 30
0.0
 11
4349.9348564198089662
 21
152.7859538613004133
 31
0.0
  0
LINE
  5
121AC
  8
0
 10
4349.196689095909278
 20
152.7879223652003873
 30
0.0
 11
4349.7279960641089929
 21
152.7879223652003873
 31
0.0
  0
LINE
  5
121AD
  8
0
 10
4349.7279960641089929
 20
152.7879223652003873
 30
0.0
 11
4349.8758013016085897
 21
152.7879223652003873
 31
0.0
  0
LINE
  5
121AE
  8
0
 10
4349.196689095909278
 20
152.7879223652003873
 30
0.0
 11
4349.0687146875088729
 21
152.7879223652003873
 31
0.0
  0
LINE
  5
121AF
  8
0
 10
4349.1395808292081711
 20
152.7938278770004104
 30
0.0
 11
4349.0687146875088729
 21
152.7938278770004104
 31
0.0
  0
LINE
  5
121B0
  8
0
 10
4350.1120217741081433
 20
152.8272924440005056
 30
0.0
 11
4349.1474548450087241
 21
152.8272924440005056
 31
0.0
  0
LINE
  5
121B1
  8
0
 10
4350.1120217741081433
 20
153.7721743337004057
 30
0.0
 11
4349.1474548450087241
 21
153.7721743337004057
 31
0.0
  0
LINE
  5
121B2
  8
0
 10
4349.0687146875088729
 20
153.8095759085005056
 30
0.0
 11
4349.1395808292081711
 21
153.8095759085005056
 31
0.0
  0
LINE
  5
121B3
  8
0
 10
4349.1966878781076957
 20
153.8115444125004103
 30
0.0
 11
4349.7281738696101456
 21
153.8115444125004103
 31
0.0
  0
LINE
  5
121B4
  8
0
 10
4349.8758013016085897
 20
153.8115444125004103
 30
0.0
 11
4349.7281738696101456
 21
153.8115444125004103
 31
0.0
  0
LINE
  5
121B5
  8
0
 10
4349.1966908648091703
 20
153.8115444125004103
 30
0.0
 11
4349.0687146875088729
 21
153.8115444125004103
 31
0.0
  0
LINE
  5
121B6
  8
0
 10
4349.9348564198089662
 20
153.8135129164004127
 30
0.0
 11
4349.0687146875088729
 21
153.8135129164004127
 31
0.0
  0
LINE
  5
121B7
  8
0
 10
4338.2911556323078912
 20
145.0320168534005063
 30
0.0
 11
4338.2911556323078912
 21
206.0556389007005009
 31
0.0
  0
LINE
  5
121B8
  8
0
 10
4338.3029666560087207
 20
205.9768987432005076
 30
0.0
 11
4338.3029666560087207
 21
206.0359538613004986
 31
0.0
  0
LINE
  5
121B9
  8
0
 10
4345.2990296481093537
 20
154.3824105542005043
 30
0.0
 11
4349.9348564198089662
 21
154.3824105542005043
 31
0.0
  0
LINE
  5
121BA
  8
0
 10
4350.1120217741081433
 20
154.3824105542005043
 30
0.0
 11
4354.7478485457077113
 21
154.3824105542005043
 31
0.0
  0
LINE
  5
121BB
  8
0
 10
4339.8659587820084198
 20
206.0359538613004986
 30
0.0
 11
4339.8659587820084198
 21
205.9768987432005076
 31
0.0
  0
LINE
  5
121BC
  8
0
 10
4339.8659587819092849
 20
205.9768987432005076
 30
0.0
 11
4339.8659587819092849
 21
145.0320168534005063
 31
0.0
  0
LINE
  5
121BD
  8
0
 10
4339.8856438213078945
 20
206.0556389006005134
 30
0.0
 11
4339.8856438213078945
 21
205.9768987432005076
 31
0.0
  0
LINE
  5
121BE
  8
0
 10
4339.8856438213078945
 20
205.374536538400406
 30
0.0
 11
4339.8856438213078945
 21
205.9768987432005076
 31
0.0
  0
LINE
  5
121BF
  8
0
 10
4345.0037540575085586
 20
205.9768987432005076
 30
0.0
 11
4345.0037540575085586
 21
205.374536538400406
 31
0.0
  0
LINE
  5
121C0
  8
0
 10
4345.1021792544088385
 20
152.4139066172004107
 30
0.0
 11
4345.1021792544088385
 21
154.1855601605003869
 31
0.0
  0
LINE
  5
121C1
  8
0
 10
4349.0687146875088729
 20
152.8135129164004127
 30
0.0
 11
4349.0687146875088729
 21
153.7898908691005033
 31
0.0
  0
LINE
  5
121C2
  8
0
 10
4349.0687146875088729
 20
153.8135129164004127
 30
0.0
 11
4349.0687146875088729
 21
152.7859538613004133
 31
0.0
  0
LINE
  5
121C3
  8
0
 10
4349.1080847662087763
 20
153.8135129164004127
 30
0.0
 11
4349.1080847662087763
 21
153.8115444125004103
 31
0.0
  0
LINE
  5
121C4
  8
0
 10
4349.1080847662087763
 20
152.7879223652003873
 30
0.0
 11
4349.1080847662087763
 21
152.7859538613004133
 31
0.0
  0
LINE
  5
121C5
  8
0
 10
4349.1395808292081711
 20
152.7938278770004104
 30
0.0
 11
4349.1395808292081711
 21
153.8095759085005056
 31
0.0
  0
LINE
  5
121C6
  8
0
 10
4349.1474548450087241
 20
152.8272924440005056
 30
0.0
 11
4349.1474548450087241
 21
153.7721743337004057
 31
0.0
  0
LINE
  5
121C7
  8
0
 10
4349.1671398843091083
 20
152.799733388800405
 30
0.0
 11
4349.1671398843091083
 21
152.8154814203005003
 31
0.0
  0
LINE
  5
121C8
  8
0
 10
4349.1671398843091083
 20
153.799733388800405
 30
0.0
 11
4349.1671398843091083
 21
153.7839853573005087
 31
0.0
  0
LINE
  5
121C9
  8
0
 10
4349.316959150409275
 20
152.7859538613004133
 30
0.0
 11
4349.316959150409275
 21
152.7879223652003873
 31
0.0
  0
LINE
  5
121CA
  8
0
 10
4349.3287701741101046
 20
152.7879223652003873
 30
0.0
 11
4349.3287701741101046
 21
152.7859538613004133
 31
0.0
  0
LINE
  5
121CB
  8
0
 10
4349.3394824434089969
 20
152.7879223652003873
 30
0.0
 11
4349.3394824434089969
 21
152.7859538613004133
 31
0.0
  0
LINE
  5
121CC
  8
0
 10
4349.3655778853089942
 20
153.8115444125004103
 30
0.0
 11
4349.3655778853089942
 21
153.8135129164004127
 31
0.0
  0
LINE
  5
121CD
  8
0
 10
4349.3773889089088698
 20
153.8135129164004127
 30
0.0
 11
4349.3773889089088698
 21
153.8115444125004103
 31
0.0
  0
LINE
  5
121CE
  8
0
 10
4349.3836753174091427
 20
153.7721743337004057
 30
0.0
 11
4349.3836753174091427
 21
152.8272924440005056
 31
0.0
  0
LINE
  5
121CF
  8
0
 10
4349.3971275853091356
 20
153.8135129164004127
 30
0.0
 11
4349.3971275853091356
 21
153.8115444125004103
 31
0.0
  0
LINE
  5
121D0
  8
0
 10
4349.4437300794088515
 20
145.0320168534005063
 30
0.0
 11
4349.4437300794088515
 21
145.787922365200501
 31
0.0
  0
LINE
  5
121D1
  8
0
 10
4349.5277033644078983
 20
153.8115444125004103
 30
0.0
 11
4349.5277033644078983
 21
153.8135129164004127
 31
0.0
  0
LINE
  5
121D2
  8
0
 10
4349.5474420408090737
 20
153.8135129164004127
 30
0.0
 11
4349.5474420408090737
 21
153.8115444125004103
 31
0.0
  0
LINE
  5
121D3
  8
0
 10
4349.5592530644080398
 20
153.8135129164004127
 30
0.0
 11
4349.5592530644080398
 21
153.8115444125004103
 31
0.0
  0
LINE
  5
121D4
  8
0
 10
4349.585348506308037
 20
152.7859538613004133
 30
0.0
 11
4349.585348506308037
 21
152.7879223652003873
 31
0.0
  0
LINE
  5
121D5
  8
0
 10
4349.5960607757078833
 20
152.7879223652003873
 30
0.0
 11
4349.5960607757078833
 21
152.7859538613004133
 31
0.0
  0
LINE
  5
121D6
  8
0
 10
4349.6078717993077589
 20
152.7879223652003873
 30
0.0
 11
4349.6078717993077589
 21
152.7859538613004133
 31
0.0
  0
LINE
  5
121D7
  8
0
 10
4349.665171380407628
 20
145.799733388800405
 30
0.0
 11
4349.665171380407628
 21
152.217056223500407
 31
0.0
  0
LINE
  5
121D8
  8
0
 10
4349.665171380407628
 20
154.3824105542005043
 30
0.0
 11
4349.665171380407628
 21
196.8556801008004982
 31
0.0
  0
LINE
  5
121D9
  8
0
 10
4349.665171380407628
 20
199.0210344315005102
 30
0.0
 11
4349.665171380407628
 21
206.2131192156005
 31
0.0
  0
LINE
  5
121DA
  8
0
 10
4349.7576910654079256
 20
152.799733388800405
 30
0.0
 11
4349.7576910654079256
 21
152.8154814203005003
 31
0.0
  0
LINE
  5
121DB
  8
0
 10
4349.7576910654079256
 20
153.799733388800405
 30
0.0
 11
4349.7576910654079256
 21
153.7839853573005087
 31
0.0
  0
LINE
  5
121DC
  8
0
 10
4349.8138088196092212
 20
145.0320168534005063
 30
0.0
 11
4349.8138088196092212
 21
145.799733388800405
 31
0.0
  0
LINE
  5
121DD
  8
0
 10
4349.8425691028087385
 20
145.799733388800405
 30
0.0
 11
4349.8425691820093562
 21
152.217056223500407
 31
0.0
  0
LINE
  5
121DE
  8
0
 10
4349.842569185208049
 20
154.3824105542005043
 30
0.0
 11
4349.842569185208049
 21
196.8556801008004982
 31
0.0
  0
LINE
  5
121DF
  8
0
 10
4349.8437028764092247
 20
152.7879223652003873
 30
0.0
 11
4349.8437028764092247
 21
152.8272924440005056
 31
0.0
  0
LINE
  5
121E0
  8
0
 10
4349.8437028764092247
 20
153.7721743337004057
 30
0.0
 11
4349.8437028764092247
 21
153.8115444125004103
 31
0.0
  0
LINE
  5
121E1
  8
0
 10
4349.8659587820093293
 20
152.7879223652003873
 30
0.0
 11
4349.8659587820093293
 21
152.8272924440005056
 31
0.0
  0
LINE
  5
121E2
  8
0
 10
4349.8659587820093293
 20
153.7721743337004057
 30
0.0
 11
4349.8659587820093293
 21
153.8115444125004103
 31
0.0
  0
LINE
  5
121E3
  8
0
 10
4349.8758013016085897
 20
153.8135129164004127
 30
0.0
 11
4349.8758013016085897
 21
153.8115444125004103
 31
0.0
  0
LINE
  5
121E4
  8
0
 10
4349.8758013016085897
 20
152.7879223652003873
 30
0.0
 11
4349.8758013016085897
 21
152.7859538613004133
 31
0.0
  0
LINE
  5
121E5
  8
0
 10
4349.9065571716100749
 20
152.7859538613004133
 30
0.0
 11
4349.9065571501078011
 21
152.8272924440005056
 31
0.0
  0
LINE
  5
121E6
  8
0
 10
4349.9092658686085997
 20
206.2131192156005
 30
0.0
 11
4349.9092658686085997
 21
199.0210344315005102
 31
0.0
  0
LINE
  5
121E7
  8
0
 10
4349.9092658686085997
 20
153.8135129164004127
 30
0.0
 11
4349.9092658686085997
 21
153.7721743337004057
 31
0.0
  0
LINE
  5
121E8
  8
0
 10
4349.9101227623086743
 20
145.1221973896005011
 30
0.0
 11
4349.9101227623086743
 21
145.799910525500394
 31
0.0
  0
LINE
  5
121E9
  8
0
 10
4349.9348564198089662
 20
152.217056223500407
 30
0.0
 11
4349.9348564198089662
 21
152.7859538613004133
 31
0.0
  0
LINE
  5
121EA
  8
0
 10
4349.9348564198089662
 20
153.8135129164004127
 30
0.0
 11
4349.9348564198089662
 21
154.3824105542005043
 31
0.0
  0
LINE
  5
121EB
  8
0
 10
4350.1100532701102566
 20
145.799910525500394
 30
0.0
 11
4350.1100532701102566
 21
152.8272924440005056
 31
0.0
  0
LINE
  5
121EC
  8
0
 10
4350.1100532701102566
 20
153.7721743337004057
 30
0.0
 11
4350.1100532701102566
 21
197.4659163213005115
 31
0.0
  0
LINE
  5
121ED
  8
0
 10
4350.1100532701102566
 20
198.4107982110004116
 30
0.0
 11
4350.1100532701102566
 21
205.701308192000397
 31
0.0
  0
LINE
  5
121EE
  8
0
 10
4350.1120217741081433
 20
154.3824105542005043
 30
0.0
 11
4350.1120217741081433
 21
153.7721743337004057
 31
0.0
  0
LINE
  5
121EF
  8
0
 10
4350.1120217741081433
 20
152.8272924440005056
 30
0.0
 11
4350.1120217741081433
 21
152.217056223500407
 31
0.0
  0
LINE
  5
121F0
  8
0
 10
4350.2006044512090739
 20
205.816144241400508
 30
0.0
 11
4350.2006044512090739
 21
206.2131192156005
 31
0.0
  0
LINE
  5
121F1
  8
0
 10
4350.3069036638089528
 20
145.7602393237004037
 30
0.0
 11
4350.3069036638089528
 21
145.1503042262004044
 31
0.0
  0
LINE
  5
121F2
  8
0
 10
4350.3069036638089528
 20
145.799910525500394
 30
0.0
 11
4350.3069036638089528
 21
144.9542309890005072
 31
0.0
  0
LINE
  5
121F3
  8
0
 10
4350.3069036638089528
 20
144.953453832500486
 30
0.0
 11
4350.3069036638089528
 21
144.9531246778005027
 31
0.0
  0
LINE
  5
121F4
  8
0
 10
4354.9446989394091361
 20
154.1855601605003869
 30
0.0
 11
4354.9446989394091361
 21
152.4139066172004107
 31
0.0
  0
LINE
  5
121F5
  8
0
 10
4377.669108388308814
 20
205.701308192000397
 30
0.0
 11
4377.669108388308814
 21
145.7996094025004936
 31
0.0
  0
LINE
  5
121F6
  8
0
 10
4377.669108388308814
 20
145.7996094025004936
 30
0.0
 11
4377.669108388308814
 21
144.9530841664004015
 31
0.0
  0
LINE
  5
121F7
  8
0
 10
4344.9250139001078423
 20
205.2957963810004003
 30
0.0
 11
4339.9643839788077457
 21
205.2957963810004003
 31
0.0
  0
LINE
  5
121F8
  8
0
 10
4350.2281635064091461
 20
205.8194184282004926
 30
0.0
 11
4377.550998152009015
 21
205.8194184282004926
 31
0.0
  0
LINE
  5
121F9
  8
0
 10
4349.665171380407628
 20
205.8194184282004926
 30
0.0
 11
4345.0037540575085586
 21
205.8194184282004926
 31
0.0
  0
LINE
  5
121FA
  8
0
 10
4339.8856438213078945
 20
205.8194184282004926
 30
0.0
 11
4339.8659587819092849
 21
205.8194184282004926
 31
0.0
  0
LINE
  5
121FB
  8
0
 10
4338.3127942929077108
 20
205.9768987432005076
 30
0.0
 11
4339.8659587820084198
 21
205.9768987432005076
 31
0.0
  0
LINE
  5
121FC
  8
0
 10
4339.8659587819092849
 20
205.9768987432005076
 30
0.0
 11
4339.8856438213078945
 21
205.9768987432005076
 31
0.0
  0
LINE
  5
121FD
  8
0
 10
4339.8659587819092849
 20
205.9768987432005076
 30
0.0
 11
4338.2911556323078912
 21
205.9768987432005076
 31
0.0
  0
LINE
  5
121FE
  8
0
 10
4338.2911556323078912
 20
206.0556389007005009
 30
0.0
 11
4344.9250139001078423
 21
206.0556389007005009
 31
0.0
  0
LINE
  5
121FF
  8
0
 10
4350.2006044512090739
 20
206.2131192156005
 30
0.0
 11
4349.665171380407628
 21
206.2131192156005
 31
0.0
  0
ARC
  5
12200
  8
0
 10
4345.2990296481093537
 20
152.4139066172004107
 30
0.0
 40
0.1968503937
 50
180.0
 51
270.0
  0
ARC
  5
12201
  8
0
 10
4345.2990296481093537
 20
154.1855601605003869
 30
0.0
 40
0.1968503937
 50
90.0
 51
180.0
  0
ARC
  5
12202
  8
0
 10
4354.7478485457077113
 20
152.4139066172004107
 30
0.0
 40
0.1968503937
 50
270.0
 51
0.0
  0
ARC
  5
12203
  8
0
 10
4354.7478485457077113
 20
154.1855601605003869
 30
0.0
 40
0.1968503937
 50
0.0
 51
90.0
  0
ARC
  5
12204
  8
0
 10
4349.74588004180805
 20
152.799733388800405
 30
0.0
 40
0.0118110236
 50
270.0
 51
0.0
  0
ARC
  5
12205
  8
0
 10
4349.1789509079089839
 20
152.8154814203005003
 30
0.0
 40
0.0118110236
 50
90.0
 51
180.0
  0
ARC
  5
12206
  8
0
 10
4349.1789509079089839
 20
152.799733388800405
 30
0.0
 40
0.0118110236
 50
180.0
 51
270.0
  0
ARC
  5
12207
  8
0
 10
4349.74588004180805
 20
152.8154814203005003
 30
0.0
 40
0.0118110236
 50
0.0
 51
90.0
  0
ARC
  5
12208
  8
0
 10
4349.1789509079089839
 20
153.799733388800405
 30
0.0
 40
0.0118110236
 50
90.0
 51
180.0
  0
ARC
  5
12209
  8
0
 10
4349.74588004180805
 20
153.7839853573005087
 30
0.0
 40
0.0118110236
 50
270.0
 51
0.0
  0
ARC
  5
1220A
  8
0
 10
4349.74588004180805
 20
153.799733388800405
 30
0.0
 40
0.0118110236
 50
0.0
 51
90.0
  0
ARC
  5
1220B
  8
0
 10
4349.1789509079089839
 20
153.7839853573005087
 30
0.0
 40
0.0118110236
 50
180.0
 51
270.0
  0
ARC
  5
1220C
  8
0
 10
4349.4555411030078176
 20
145.787922365200501
 30
0.0
 40
0.0118110236
 50
90.0
 51
180.0
  0
ARC
  5
1220D
  8
0
 10
4350.2281635064091461
 20
205.701308192000397
 30
0.0
 40
0.1181102362
 50
90.0
 51
180.0
  0
ARC
  5
1220E
  8
0
 10
4339.9643839788077457
 20
205.374536538400406
 30
0.0
 40
0.0787401575
 50
180.0
 51
270.0
  0
ARC
  5
1220F
  8
0
 10
4344.9250139001078423
 20
205.374536538400406
 30
0.0
 40
0.0787401575
 50
270.0
 51
0.0
  0
ARC
  5
12210
  8
0
 10
4339.9643839788077457
 20
205.9768987432005076
 30
0.0
 40
0.0787401575
 50
90.0
 51
180.0
  0
ARC
  5
12211
  8
0
 10
4344.9250139001078423
 20
205.9768987432005076
 30
0.0
 40
0.0787401575
 50
0.0
 51
90.0
  0
ARC
  5
12212
  8
0
 10
4339.8462737426079912
 20
206.0359538613004986
 30
0.0
 40
0.0196850394
 50
0.0
 51
90.0
  0
ARC
  5
12213
  8
0
 10
4338.322651695309105
 20
206.0359538613004986
 30
0.0
 40
0.0196850394
 50
90.0
 51
180.0
  0
ARC
  5
12214
  8
0
 10
4377.550998152009015
 20
205.701308192000397
 30
0.0
 40
0.1181102362
 50
0.0
 51
90.0
  0
LINE
  5
12215
  8
0
 10
4350.0706831914076247
 20
144.953453832500486
 30
0.0
 11
4349.9101227623086743
 21
145.1221973896005011
 31
0.0
  0
LINE
  5
12216
  8
0
 10
4354.7478485457077113
 20
196.8556801008004982
 30
0.0
 11
4350.1120217741081433
 21
196.8556801008004982
 31
0.0
  0
LINE
  5
12217
  8
0
 10
4349.9348564198089662
 20
196.8556801008004982
 30
0.0
 11
4345.2990296481093537
 21
196.8556801008004982
 31
0.0
  0
LINE
  5
12218
  8
0
 10
4349.0687146875088729
 20
197.4245777386003908
 30
0.0
 11
4349.9348564198089662
 21
197.4245777386003908
 31
0.0
  0
LINE
  5
12219
  8
0
 10
4349.196689095909278
 20
197.4265462425005069
 30
0.0
 11
4349.7279960641089929
 21
197.4265462425005069
 31
0.0
  0
LINE
  5
1221A
  8
0
 10
4349.7279960641089929
 20
197.4265462425005069
 30
0.0
 11
4349.8758013016085897
 21
197.4265462425005069
 31
0.0
  0
LINE
  5
1221B
  8
0
 10
4349.196689095909278
 20
197.4265462425005069
 30
0.0
 11
4349.0687146875088729
 21
197.4265462425005069
 31
0.0
  0
LINE
  5
1221C
  8
0
 10
4349.1395808292081711
 20
197.4324517543005015
 30
0.0
 11
4349.0687146875088729
 21
197.4324517543005015
 31
0.0
  0
LINE
  5
1221D
  8
0
 10
4350.1120217741081433
 20
197.4659163213005115
 30
0.0
 11
4349.1474548450087241
 21
197.4659163213005115
 31
0.0
  0
LINE
  5
1221E
  8
0
 10
4350.1120217741081433
 20
198.4107982110004116
 30
0.0
 11
4349.1474548450087241
 21
198.4107982110004116
 31
0.0
  0
LINE
  5
1221F
  8
0
 10
4349.0687146875088729
 20
198.4481997858003979
 30
0.0
 11
4349.1395808292081711
 21
198.4481997858003979
 31
0.0
  0
LINE
  5
12220
  8
0
 10
4349.1966878781076957
 20
198.4501682898005015
 30
0.0
 11
4349.7281738696101456
 21
198.4501682898005015
 31
0.0
  0
LINE
  5
12221
  8
0
 10
4349.8758013016085897
 20
198.4501682898005015
 30
0.0
 11
4349.7281738696101456
 21
198.4501682898005015
 31
0.0
  0
LINE
  5
12222
  8
0
 10
4349.1966908648091703
 20
198.4501682898005015
 30
0.0
 11
4349.0687146875088729
 21
198.4501682898005015
 31
0.0
  0
LINE
  5
12223
  8
0
 10
4349.9348564198089662
 20
198.4521367937005039
 30
0.0
 11
4349.0687146875088729
 21
198.4521367937005039
 31
0.0
  0
LINE
  5
12224
  8
0
 10
4345.2990296481093537
 20
199.0210344315005102
 30
0.0
 11
4349.9348564198089662
 21
199.0210344315005102
 31
0.0
  0
LINE
  5
12225
  8
0
 10
4350.1120217741081433
 20
199.0210344315005102
 30
0.0
 11
4354.7478485457077113
 21
199.0210344315005102
 31
0.0
  0
LINE
  5
12226
  8
0
 10
4345.1021792544088385
 20
197.0525304945005018
 30
0.0
 11
4345.1021792544088385
 21
198.8241840378005065
 31
0.0
  0
LINE
  5
12227
  8
0
 10
4349.0687146875088729
 20
197.4521367937003902
 30
0.0
 11
4349.0687146875088729
 21
198.4285147464005092
 31
0.0
  0
LINE
  5
12228
  8
0
 10
4349.0687146875088729
 20
198.4521367937005039
 30
0.0
 11
4349.0687146875088729
 21
197.4245777386003908
 31
0.0
  0
LINE
  5
12229
  8
0
 10
4349.1080847662087763
 20
198.4521367937005039
 30
0.0
 11
4349.1080847662087763
 21
198.4501682898005015
 31
0.0
  0
LINE
  5
1222A
  8
0
 10
4349.1080847662087763
 20
197.4265462425005069
 30
0.0
 11
4349.1080847662087763
 21
197.4245777386003908
 31
0.0
  0
LINE
  5
1222B
  8
0
 10
4349.1395808292081711
 20
197.4324517543005015
 30
0.0
 11
4349.1395808292081711
 21
198.4481997858003979
 31
0.0
  0
LINE
  5
1222C
  8
0
 10
4349.1474548450087241
 20
197.4659163213005115
 30
0.0
 11
4349.1474548450087241
 21
198.4107982110004116
 31
0.0
  0
LINE
  5
1222D
  8
0
 10
4349.1671398843091083
 20
197.4383572661004109
 30
0.0
 11
4349.1671398843091083
 21
197.4541052976005062
 31
0.0
  0
LINE
  5
1222E
  8
0
 10
4349.1671398843091083
 20
198.4383572661004109
 30
0.0
 11
4349.1671398843091083
 21
198.4226092346004862
 31
0.0
  0
LINE
  5
1222F
  8
0
 10
4349.316959150409275
 20
197.4245777386003908
 30
0.0
 11
4349.316959150409275
 21
197.4265462425005069
 31
0.0
  0
LINE
  5
12230
  8
0
 10
4349.3287701741101046
 20
197.4265462425005069
 30
0.0
 11
4349.3287701741101046
 21
197.4245777386003908
 31
0.0
  0
LINE
  5
12231
  8
0
 10
4349.3394824434089969
 20
197.4265462425005069
 30
0.0
 11
4349.3394824434089969
 21
197.4245777386003908
 31
0.0
  0
LINE
  5
12232
  8
0
 10
4349.3655778853089942
 20
198.4501682898005015
 30
0.0
 11
4349.3655778853089942
 21
198.4521367937005039
 31
0.0
  0
LINE
  5
12233
  8
0
 10
4349.3773889089088698
 20
198.4521367937005039
 30
0.0
 11
4349.3773889089088698
 21
198.4501682898005015
 31
0.0
  0
LINE
  5
12234
  8
0
 10
4349.3836753174091427
 20
198.4107982110004116
 30
0.0
 11
4349.3836753174091427
 21
197.4659163213005115
 31
0.0
  0
LINE
  5
12235
  8
0
 10
4349.3971275853091356
 20
198.4521367937005039
 30
0.0
 11
4349.3971275853091356
 21
198.4501682898005015
 31
0.0
  0
LINE
  5
12236
  8
0
 10
4349.5277033644078983
 20
198.4501682898005015
 30
0.0
 11
4349.5277033644078983
 21
198.4521367937005039
 31
0.0
  0
LINE
  5
12237
  8
0
 10
4349.5474420408090737
 20
198.4521367937005039
 30
0.0
 11
4349.5474420408090737
 21
198.4501682898005015
 31
0.0
  0
LINE
  5
12238
  8
0
 10
4349.5592530644080398
 20
198.4521367937005039
 30
0.0
 11
4349.5592530644080398
 21
198.4501682898005015
 31
0.0
  0
LINE
  5
12239
  8
0
 10
4349.585348506308037
 20
197.4245777386003908
 30
0.0
 11
4349.585348506308037
 21
197.4265462425005069
 31
0.0
  0
LINE
  5
1223A
  8
0
 10
4349.5960607757078833
 20
197.4265462425005069
 30
0.0
 11
4349.5960607757078833
 21
197.4245777386003908
 31
0.0
  0
LINE
  5
1223B
  8
0
 10
4349.6078717993077589
 20
197.4265462425005069
 30
0.0
 11
4349.6078717993077589
 21
197.4245777386003908
 31
0.0
  0
LINE
  5
1223C
  8
0
 10
4349.7576910654079256
 20
197.4383572661004109
 30
0.0
 11
4349.7576910654079256
 21
197.4541052976005062
 31
0.0
  0
LINE
  5
1223D
  8
0
 10
4349.7576910654079256
 20
198.4383572661004109
 30
0.0
 11
4349.7576910654079256
 21
198.4226092346004862
 31
0.0
  0
LINE
  5
1223E
  8
0
 10
4349.8437028764092247
 20
197.4265462425005069
 30
0.0
 11
4349.8437028764092247
 21
197.4659163213005115
 31
0.0
  0
LINE
  5
1223F
  8
0
 10
4349.8437028764092247
 20
198.4107982110004116
 30
0.0
 11
4349.8437028764092247
 21
198.4501682898005015
 31
0.0
  0
LINE
  5
12240
  8
0
 10
4349.8659587820093293
 20
197.4265462425005069
 30
0.0
 11
4349.8659587820093293
 21
197.4659163213005115
 31
0.0
  0
LINE
  5
12241
  8
0
 10
4349.8659587820093293
 20
198.4107982110004116
 30
0.0
 11
4349.8659587820093293
 21
198.4501682898005015
 31
0.0
  0
LINE
  5
12242
  8
0
 10
4349.8758013016085897
 20
198.4521367937005039
 30
0.0
 11
4349.8758013016085897
 21
198.4501682898005015
 31
0.0
  0
LINE
  5
12243
  8
0
 10
4349.8758013016085897
 20
197.4265462425005069
 30
0.0
 11
4349.8758013016085897
 21
197.4245777386003908
 31
0.0
  0
LINE
  5
12244
  8
0
 10
4349.9065571716100749
 20
197.4245777386003908
 30
0.0
 11
4349.9065571501078011
 21
197.4659163213005115
 31
0.0
  0
LINE
  5
12245
  8
0
 10
4349.9092658686085997
 20
198.4521367937005039
 30
0.0
 11
4349.9092658686085997
 21
198.4107982110004116
 31
0.0
  0
LINE
  5
12246
  8
0
 10
4349.9348564198089662
 20
196.8556801008004982
 30
0.0
 11
4349.9348564198089662
 21
197.4245777386003908
 31
0.0
  0
LINE
  5
12247
  8
0
 10
4349.9348564198089662
 20
198.4521367937005039
 30
0.0
 11
4349.9348564198089662
 21
199.0210344315005102
 31
0.0
  0
LINE
  5
12248
  8
0
 10
4350.1120217741081433
 20
199.0210344315005102
 30
0.0
 11
4350.1120217741081433
 21
198.4107982110004116
 31
0.0
  0
LINE
  5
12249
  8
0
 10
4350.1120217741081433
 20
197.4659163213005115
 30
0.0
 11
4350.1120217741081433
 21
196.8556801008004982
 31
0.0
  0
LINE
  5
1224A
  8
0
 10
4354.9446989394091361
 20
198.8241840378005065
 30
0.0
 11
4354.9446989394091361
 21
197.0525304945005018
 31
0.0
  0
ARC
  5
1224B
  8
0
 10
4345.2990296481093537
 20
197.0525304945005018
 30
0.0
 40
0.1968503937
 50
180.0
 51
270.0
  0
ARC
  5
1224C
  8
0
 10
4345.2990296481093537
 20
198.8241840378005065
 30
0.0
 40
0.1968503937
 50
90.0
 51
180.0
  0
ARC
  5
1224D
  8
0
 10
4354.7478485457077113
 20
197.0525304945005018
 30
0.0
 40
0.1968503937
 50
270.0
 51
0.0
  0
ARC
  5
1224E
  8
0
 10
4354.7478485457077113
 20
198.8241840378005065
 30
0.0
 40
0.1968503937
 50
0.0
 51
90.0
  0
ARC
  5
1224F
  8
0
 10
4349.74588004180805
 20
197.4383572661004109
 30
0.0
 40
0.0118110236
 50
270.0
 51
0.0
  0
ARC
  5
12250
  8
0
 10
4349.1789509079089839
 20
197.4541052976005062
 30
0.0
 40
0.0118110236
 50
90.0
 51
180.0
  0
ARC
  5
12251
  8
0
 10
4349.1789509079089839
 20
197.4383572661004109
 30
0.0
 40
0.0118110236
 50
180.0
 51
270.0
  0
ARC
  5
12252
  8
0
 10
4349.74588004180805
 20
197.4541052976005062
 30
0.0
 40
0.0118110236
 50
0.0
 51
90.0
  0
ARC
  5
12253
  8
0
 10
4349.1789509079089839
 20
198.4383572661004109
 30
0.0
 40
0.0118110236
 50
90.0
 51
180.0
  0
ARC
  5
12254
  8
0
 10
4349.74588004180805
 20
198.4226092346004862
 30
0.0
 40
0.0118110236
 50
270.0
 51
0.0
  0
ARC
  5
12255
  8
0
 10
4349.74588004180805
 20
198.4383572661004109
 30
0.0
 40
0.0118110236
 50
0.0
 51
90.0
  0
ARC
  5
12256
  8
0
 10
4349.1789509079089839
 20
198.4226092346004862
 30
0.0
 40
0.0118110236
 50
180.0
 51
270.0
  0
LINE
  5
12257
  8
0
 10
4377.669108388308814
 20
148.5473032386115051
 30
0.0
 11
4338.2911556323078912
 21
148.5473032386115051
 31
0.0
  0
ENDSEC
  0
EOF
