  0
SECTION
  2
HEADER
  9
$ACADVER
  1
AC1009
  9
$INSBASE
 10
4309.5648867107420301
 20
156.4029340328293074
 30
0.0
  9
$EXTMIN
 10
4292.4960815036538406
 20
156.0036237776562871
 30
-0.0000000000112498
  9
$EXTMAX
 10
4326.8265381410783448
 20
157.3602185989705049
 30
0.0000000000002956
  9
$LIMMIN
 10
0.0
 20
0.0
  9
$LIMMAX
 10
11.6929133858000007
 20
8.2677165353999982
  9
$ORTHOMODE
 70
     0
  9
$REGENMODE
 70
     1
  9
$FILLMODE
 70
     1
  9
$QTEXTMODE
 70
     0
  9
$MIRRTEXT
 70
     0
  9
$DRAGMODE
 70
     2
  9
$LTSCALE
 40
0.6431102362
  9
$OSMODE
 70
  4095
  9
$ATTMODE
 70
     1
  9
$TEXTSIZE
 40
0.2
  9
$TRACEWID
 40
0.05
  9
$TEXTSTYLE
  7
STANDARD
  9
$CLAYER
  8
0
  9
$CELTYPE
  6
BYLAYER
  9
$CECOLOR
 62
   256
  9
$DIMSCALE
 40
1.0
  9
$DIMASZ
 40
0.1875
  9
$DIMEXO
 40
0.0625
  9
$DIMDLI
 40
0.4443307087
  9
$DIMRND
 40
0.0
  9
$DIMDLE
 40
0.0
  9
$DIMEXE
 40
0.125
  9
$DIMTP
 40
0.01
  9
$DIMTM
 40
0.01
  9
$DIMTXT
 40
2.0
  9
$DIMCEN
 40
0.1052362205
  9
$DIMTSZ
 40
0.0
  9
$DIMTOL
 70
     1
  9
$DIMLIM
 70
     0
  9
$DIMTIH
 70
     1
  9
$DIMTOH
 70
     1
  9
$DIMSE1
 70
     0
  9
$DIMSE2
 70
     0
  9
$DIMTAD
 70
     0
  9
$DIMZIN
 70
     0
  9
$DIMBLK
  1

  9
$DIMASO
 70
     1
  9
$DIMSHO
 70
     1
  9
$DIMPOST
  1
\X
  9
$DIMAPOST
  1

  9
$DIMALT
 70
     1
  9
$DIMALTD
 70
     2
  9
$DIMALTF
 40
25.3999999999999986
  9
$DIMLFAC
 40
1.0
  9
$DIMTOFL
 70
     0
  9
$DIMTVP
 40
0.0
  9
$DIMTIX
 70
     0
  9
$DIMSOXD
 70
     0
  9
$DIMSAH
 70
     0
  9
$DIMBLK1
  1

  9
$DIMBLK2
  1

  9
$DIMSTYLE
  2
STANDARD
  9
$DIMCLRD
 70
     0
  9
$DIMCLRE
 70
     0
  9
$DIMCLRT
 70
     0
  9
$DIMTFAC
 40
1.0
  9
$DIMGAP
 40
0.09
  9
$LUNITS
 70
     2
  9
$LUPREC
 70
     4
  9
$SKETCHINC
 40
0.1
  9
$FILLETRAD
 40
0.0
  9
$AUNITS
 70
     0
  9
$AUPREC
 70
     0
  9
$MENU
  1
.
  9
$ELEVATION
 40
0.0
  9
$PELEVATION
 40
0.0
  9
$THICKNESS
 40
0.0
  9
$LIMCHECK
 70
     0
  9
$BLIPMODE
 70
     0
  9
$CHAMFERA
 40
0.0
  9
$CHAMFERB
 40
0.0
  9
$SKPOLY
 70
     0
  9
$TDCREATE
 40
2458060.468368056230247
  9
$TDUPDATE
 40
2459545.6312731481157243
  9
$TDINDWG
 40
0.7548681712999999
  9
$TDUSRTIMER
 40
0.7548681712999999
  9
$USRTIMER
 70
     1
  9
$ANGBASE
 50
0.0
  9
$ANGDIR
 70
     0
  9
$PDMODE
 70
     0
  9
$PDSIZE
 40
0.3125
  9
$PLINEWID
 40
0.0
  9
$COORDS
 70
     1
  9
$SPLFRAME
 70
     0
  9
$SPLINETYPE
 70
     6
  9
$SPLINESEGS
 70
     8
  9
$ATTDIA
 70
     1
  9
$ATTREQ
 70
     1
  9
$HANDLING
 70
     1
  9
$HANDSEED
  5
12357
  9
$SURFTAB1
 70
     6
  9
$SURFTAB2
 70
     6
  9
$SURFTYPE
 70
     6
  9
$SURFU
 70
     6
  9
$SURFV
 70
     6
  9
$UCSNAME
  2

  9
$UCSORG
 10
0.0
 20
0.0
 30
0.0
  9
$UCSXDIR
 10
1.0
 20
0.0
 30
0.0
  9
$UCSYDIR
 10
0.0
 20
1.0
 30
0.0
  9
$PUCSNAME
  2

  9
$PUCSORG
 10
0.0
 20
0.0
 30
0.0
  9
$PUCSXDIR
 10
1.0
 20
0.0
 30
0.0
  9
$PUCSYDIR
 10
0.0
 20
1.0
 30
0.0
  9
$USERI1
 70
     0
  9
$USERI2
 70
     0
  9
$USERI3
 70
     0
  9
$USERI4
 70
     0
  9
$USERI5
 70
     0
  9
$USERR1
 40
0.0
  9
$USERR2
 40
0.0
  9
$USERR3
 40
0.0
  9
$USERR4
 40
0.0
  9
$USERR5
 40
0.0
  9
$WORLDVIEW
 70
     1
  9
$SHADEDGE
 70
     3
  9
$SHADEDIF
 70
    70
  9
$TILEMODE
 70
     1
  9
$MAXACTVP
 70
    64
  9
$PLIMCHECK
 70
     0
  9
$PEXTMIN
 10
1.0000000000000000E+20
 20
1.0000000000000000E+20
 30
1.0000000000000000E+20
  9
$PEXTMAX
 10
-1.0000000000000000E+20
 20
-1.0000000000000000E+20
 30
-1.0000000000000000E+20
  9
$PLIMMIN
 10
0.0
 20
0.0
  9
$PLIMMAX
 10
12.0
 20
9.0
  9
$UNITMODE
 70
     0
  9
$VISRETAIN
 70
     1
  9
$PLINEGEN
 70
     0
  9
$PSLTSCALE
 70
     1
  0
ENDSEC
  0
SECTION
  2
TABLES
  0
TABLE
  2
VPORT
 70
     1
  0
VPORT
  2
*ACTIVE
 70
     0
 10
0.0
 20
0.0
 11
1.0
 21
1.0
 12
665.5855041583035927
 22
-3.2623193114842191
 13
0.0
 23
0.0
 14
1.0
 24
1.0
 15
0.0
 25
0.0
 16
0.0
 26
0.0
 36
26.6346482412083887
 17
3644.0758056640620453
 27
159.9442404997975871
 37
0.0
 40
13.0056146759790501
 41
2.6486111111111108
 42
50.0
 43
0.0
 44
0.0
 50
0.0
 51
0.0
 71
     0
 72
   100
 73
     1
 74
     1
 75
     0
 76
     0
 77
     0
 78
     0
  0
ENDTAB
  0
TABLE
  2
LTYPE
 70
     2
  0
LTYPE
  2
CONTINUOUS
 70
     0
  3
Solid line
 72
    65
 73
     0
 40
0.0
  0
LTYPE
  2
PHANTOM2
 70
     0
  3
___ _ _ ___ _ _ ___ _ _ ___ _ _
 72
    65
 73
     6
 40
1.25
 49
0.625
 49
-0.125
 49
0.125
 49
-0.125
 49
0.125
 49
-0.125
  0
ENDTAB
  0
TABLE
  2
LAYER
 70
     2
  0
LAYER
  2
0
 70
     0
 62
   255
  6
CONTINUOUS
  0
LAYER
  2
DEFPOINTS
 70
     0
 62
     7
  6
CONTINUOUS
  0
ENDTAB
  0
TABLE
  2
STYLE
 70
     1
  0
STYLE
  2
STANDARD
 70
     0
 40
0.0
 41
0.8
 50
0.0
 71
     0
 42
0.2
  3
txt
  4

  0
ENDTAB
  0
TABLE
  2
VIEW
 70
     0
  0
ENDTAB
  0
TABLE
  2
UCS
 70
     0
  0
ENDTAB
  0
TABLE
  2
APPID
 70
    10
  0
APPID
  2
ACAD
 70
     0
  0
APPID
  2
ACAD_MLEADERVER
 70
     0
  0
APPID
  2
ACAD_EXEMPT_FROM_CAD_STANDARDS
 70
     0
  0
APPID
  2
ACAD_NAV_VCDISPLAY
 70
     0
  0
APPID
  2
ACAECLAYERSTANDARD
 70
     0
  0
APPID
  2
ACCMTRANSPARENCY
 70
     0
  0
APPID
  2
ACAD_DSTYLE_DIMJAG
 70
     0
  0
APPID
  2
ACAD_DSTYLE_DIMTALN
 70
     0
  0
APPID
  2
ACDBATTR
 70
     0
  0
APPID
  2
ACAD_PSEXT
 70
     0
  0
ENDTAB
  0
TABLE
  2
DIMSTYLE
 70
     1
  0
DIMSTYLE
  2
STANDARD
 70
     0
  3

  4

  5

  6

  7

 40
1.0
 41
0.1875
 42
0.0625
 43
0.38
 44
0.125
 45
0.0
 46
0.0
 47
0.01
 48
0.01
140
0.15625
141
0.09
142
0.0
143
25.3999999999999986
144
1.0
145
0.0
146
1.0
147
0.09
 71
     1
 72
     0
 73
     1
 74
     1
 75
     0
 76
     0
 77
     0
 78
     4
170
     0
171
     2
172
     0
173
     0
174
     0
175
     0
176
     0
177
     0
178
     0
  0
ENDTAB
  0
ENDSEC
  0
SECTION
  2
BLOCKS
  0
BLOCK
  8
0
  2
$MODEL_SPACE
 70
     0
 10
0.0
 20
0.0
 30
0.0
  3
$MODEL_SPACE
  1

  0
ENDBLK
  5
21
  8
0
  0
BLOCK
 67
     1
  8
0
  2
$PAPER_SPACE
 70
     0
 10
0.0
 20
0.0
 30
0.0
  3
$PAPER_SPACE
  1

  0
ENDBLK
  5
1D
 67
     1
  8
0
  0
ENDSEC
  0
SECTION
  2
ENTITIES
  0
ATTDEF
  5
AA11
  8
DEFPOINTS
 10
4309.5607698614458059
 20
156.4002294233769135
 30
0.0
 40
0.001
  1
K-1.1922.025
  3

  2
MODELNUMBER
 70
     0
1001
ACDBATTR
1070
     0
1070
     1
  0
ATTDEF
  5
AA12
  8
DEFPOINTS
 10
4309.5607698614458059
 20
156.3985627567103052
 30
0.0
 40
0.001
  1

  3

  2
TRADENAME
 70
     0
1001
ACDBATTR
1070
     0
1070
     1
  0
ATTDEF
  5
AA13
  8
DEFPOINTS
 10
4309.5607698614458059
 20
156.3968960900436116
 30
0.0
 40
0.001
  1
SHOWER DOOR
  3

  2
PRODUCT
 70
     0
1001
ACDBATTR
1070
     0
1070
     1
  0
LINE
  5
12147
  8
0
 10
4292.751598954390829
 20
156.1646412572792997
 30
0.0
 11
4292.751598954390829
 21
157.333932595879304
 31
0.0
  0
LINE
  5
12148
  8
0
 10
4292.8618333920921941
 20
156.0721215721792987
 30
0.0
 11
4292.8618333920921941
 21
156.1705467690792943
 31
0.0
  0
LINE
  5
12149
  8
0
 10
4292.9445123401910678
 20
156.2355073989793084
 30
0.0
 11
4292.9445123401910678
 21
156.5071547219793047
 31
0.0
  0
LINE
  5
1214A
  8
0
 10
4292.952977616591852
 20
156.1705467690792943
 30
0.0
 11
4292.952977616591852
 21
156.6744837768792991
 31
0.0
  0
LINE
  5
1214B
  8
0
 10
4292.9543556873913985
 20
156.6817194993793123
 30
0.0
 11
4292.9543556873913985
 21
157.087189870779298
 31
0.0
  0
LINE
  5
1214C
  8
0
 10
4292.9681352149918894
 20
157.100743208079308
 30
0.0
 11
4292.9681352149918894
 21
157.1272396824793134
 31
0.0
  0
LINE
  5
1214D
  8
0
 10
4293.2555367897921315
 20
157.1272396824793134
 30
0.0
 11
4293.2555367897921315
 21
157.1095231469793134
 31
0.0
  0
LINE
  5
1214E
  8
0
 10
4293.2771903330922214
 20
157.0878696036793087
 30
0.0
 11
4293.2771903330922214
 21
156.6941688162793014
 31
0.0
  0
LINE
  5
1214F
  8
0
 10
4293.6419539944918142
 20
156.5445625170792994
 30
0.0
 11
4293.6419539944918142
 21
156.6941688162793014
 31
0.0
  0
LINE
  5
12150
  8
0
 10
4293.6458910023920907
 20
156.6941688162793014
 30
0.0
 11
4293.6458910023920907
 21
156.5642475564793017
 31
0.0
  0
LINE
  5
12151
  8
0
 10
4294.3519010946920389
 20
157.1816005032792987
 30
0.0
 11
4294.3477166052907705
 21
157.224907589879308
 31
0.0
  0
LINE
  5
12152
  8
0
 10
4294.4149591047907961
 20
157.2227946056792973
 30
0.0
 11
4294.4345203746916013
 21
157.0047736591793068
 31
0.0
  0
LINE
  5
12153
  8
0
 10
4294.3932791482920948
 20
157.0188966854792909
 30
0.0
 11
4294.3796244801924331
 21
157.1744837769792866
 31
0.0
  0
LINE
  5
12154
  8
0
 10
4293.8309303724918209
 20
156.5445625170792994
 30
0.0
 11
4293.8309303724918209
 21
156.5642475564793017
 31
0.0
  0
LINE
  5
12155
  8
0
 10
4293.8703004511917243
 20
156.5642475564793017
 30
0.0
 11
4293.8703004511917243
 21
156.5445625170792994
 31
0.0
  0
LINE
  5
12156
  8
0
 10
4293.972071395292005
 20
157.1861410486793034
 30
0.0
 11
4293.972071395292005
 21
156.6941688162793014
 31
0.0
  0
LINE
  5
12157
  8
0
 10
4293.972071395292005
 20
156.0524365327792964
 30
0.0
 11
4293.972071395292005
 21
156.026845981679287
 31
0.0
  0
LINE
  5
12158
  8
0
 10
4294.0254992022919396
 20
156.9977372017793016
 30
0.0
 11
4294.0254992022919396
 21
156.8201530682792963
 31
0.0
  0
LINE
  5
12159
  8
0
 10
4294.0451842416905492
 20
156.9618853517793013
 30
0.0
 11
4294.0451842416905492
 21
156.8201530682792963
 31
0.0
  0
LINE
  5
1215A
  8
0
 10
4294.2010091125921463
 20
156.5445625170792994
 30
0.0
 11
4294.2010091125921463
 21
156.5642475564793017
 31
0.0
  0
LINE
  5
1215B
  8
0
 10
4294.2403791913920941
 20
156.5642475564793017
 30
0.0
 11
4294.2403791913920941
 21
156.5445625170792994
 31
0.0
  0
LINE
  5
1215C
  8
0
 10
4294.3601448715917286
 20
156.8201530682792963
 30
0.0
 11
4294.3601448715917286
 21
156.9618853517793013
 31
0.0
  0
LINE
  5
1215D
  8
0
 10
4294.3798299109921572
 20
156.8201530682792963
 30
0.0
 11
4294.3798299109921572
 21
156.9618853517793013
 31
0.0
  0
LINE
  5
1215E
  8
0
 10
4294.4254185614909147
 20
156.5642475564793017
 30
0.0
 11
4294.4254185614909147
 21
156.6941688162793014
 31
0.0
  0
LINE
  5
1215F
  8
0
 10
4294.4293555692920563
 20
156.6941688162793014
 30
0.0
 11
4294.4293555692920563
 21
156.5445625170792994
 31
0.0
  0
LINE
  5
12160
  8
0
 10
4294.4838824189919251
 20
156.7944440611792913
 30
0.0
 11
4294.4838824189919251
 21
156.8667982601793085
 31
0.0
  0
LINE
  5
12161
  8
0
 10
4294.4838824189919251
 20
156.926114807579296
 30
0.0
 11
4294.4838824189919251
 21
157.1861410486793034
 31
0.0
  0
LINE
  5
12162
  8
0
 10
4294.7397879307918629
 20
157.333932595779288
 30
0.0
 11
4294.7397879307918629
 21
156.7040113360793043
 31
0.0
  0
LINE
  5
12163
  8
0
 10
4294.0803950967911078
 20
157.1744837769792866
 30
0.0
 11
4294.0667404285923112
 21
157.0188966854792909
 31
0.0
  0
LINE
  5
12164
  8
0
 10
4294.0254992022919396
 20
157.0047736591793068
 30
0.0
 11
4294.0450604720908814
 21
157.2227946056792973
 31
0.0
  0
LINE
  5
12165
  8
0
 10
4294.1123029716918609
 20
157.224907589879308
 30
0.0
 11
4294.1081184822905925
 21
157.1816005032792987
 31
0.0
  0
LINE
  5
12166
  8
0
 10
4294.7941194669920151
 20
156.6941688162793014
 30
0.0
 11
4294.7941194669920151
 21
157.0878696036793087
 31
0.0
  0
LINE
  5
12167
  8
0
 10
4294.815773010292105
 20
157.1095231469793134
 30
0.0
 11
4294.815773010292105
 21
157.1272396824793134
 31
0.0
  0
LINE
  5
12168
  8
0
 10
4295.1031745850914376
 20
157.1272396824793134
 30
0.0
 11
4295.1031745850914376
 21
157.101649131279288
 31
0.0
  0
LINE
  5
12169
  8
0
 10
4295.116954112591884
 20
157.0878696036793087
 30
0.0
 11
4295.116954112591884
 21
156.6817189016792895
 31
0.0
  0
LINE
  5
1216A
  8
0
 10
4295.118331947292063
 20
156.6744837768792991
 30
0.0
 11
4295.118331947292063
 21
156.1705467690792943
 31
0.0
  0
LINE
  5
1216B
  8
0
 10
4295.2094761724920318
 20
156.1705467690792943
 30
0.0
 11
4295.2094761724920318
 21
156.0721215721792987
 31
0.0
  0
LINE
  5
1216C
  8
0
 10
4294.5270184800911011
 20
157.3091125147792866
 30
0.0
 11
4294.5508019479921131
 21
157.3388418496793122
 31
0.0
  0
LINE
  5
1216D
  8
0
 10
4292.9681352149918894
 20
157.1272396824793134
 30
0.0
 11
4293.0075052936917928
 21
157.166609761179302
 31
0.0
  0
LINE
  5
1216E
  8
0
 10
4292.9543556873913985
 20
157.087189870779298
 30
0.0
 11
4292.9950738863908555
 21
157.1272396824793134
 31
0.0
  0
LINE
  5
1216F
  8
0
 10
4293.2378202543914085
 20
157.1272396824793134
 30
0.0
 11
4293.2771903330922214
 21
157.0878696036793087
 31
0.0
  0
LINE
  5
12170
  8
0
 10
4293.2161667110913186
 20
157.166609761179302
 30
0.0
 11
4293.2555367897921315
 21
157.1272396824793134
 31
0.0
  0
LINE
  5
12171
  8
0
 10
4293.9289353341919195
 20
157.3091125147792866
 30
0.0
 11
4293.905151866291817
 21
157.3388418496793122
 31
0.0
  0
LINE
  5
12172
  8
0
 10
4294.4986797159908747
 20
156.8479581406793102
 30
0.0
 11
4294.4076427966911069
 21
156.963867581879299
 31
0.0
  0
LINE
  5
12173
  8
0
 10
4294.815773010292105
 20
157.1272396824793134
 30
0.0
 11
4294.8551430889920084
 21
157.166609761179302
 31
0.0
  0
LINE
  5
12174
  8
0
 10
4294.7941194669920151
 20
157.0878696036793087
 30
0.0
 11
4294.833489545691009
 21
157.1272396824793134
 31
0.0
  0
LINE
  5
12175
  8
0
 10
4295.0775840338919807
 20
157.1272396824793134
 30
0.0
 11
4295.116954112591884
 21
157.0878696036793087
 31
0.0
  0
LINE
  5
12176
  8
0
 10
4295.0638045062905803
 20
157.166609761179302
 30
0.0
 11
4295.1031745850914376
 21
157.1272396824793134
 31
0.0
  0
LINE
  5
12177
  8
0
 10
4293.9523863559916208
 20
156.0071609422793131
 30
0.0
 11
4292.9090792694905758
 21
156.0071609422793131
 31
0.0
  0
LINE
  5
12178
  8
0
 10
4295.1897911330916031
 20
156.0524365327792964
 30
0.0
 11
4292.8815184313916689
 21
156.0524365327792964
 31
0.0
  0
LINE
  5
12179
  8
0
 10
4325.0356547819910702
 20
156.125271178479295
 30
0.0
 11
4295.2094761724920318
 21
156.125271178479295
 31
0.0
  0
LINE
  5
1217B
  8
0
 10
4295.2094761724920318
 20
156.1705467690792943
 30
0.0
 11
4295.118331947292063
 21
156.1705467690792943
 31
0.0
  0
LINE
  5
1217C
  8
0
 10
4292.952977616591852
 20
156.1705467690792943
 30
0.0
 11
4292.8618333920921941
 21
156.1705467690792943
 31
0.0
  0
LINE
  5
1217D
  8
0
 10
4325.0356547819910702
 20
156.1981058241792937
 30
0.0
 11
4295.118331947292063
 21
156.1981058241792937
 31
0.0
  0
LINE
  5
1217E
  8
0
 10
4325.0356547819910702
 20
156.2099168477793114
 30
0.0
 11
4295.118331947292063
 21
156.2099168477793114
 31
0.0
  0
LINE
  5
1217F
  8
0
 10
4295.118331947292063
 20
156.2492869265792876
 30
0.0
 11
4325.0356547819910702
 21
156.2492869265792876
 31
0.0
  0
LINE
  5
12180
  8
0
 10
4295.118331947292063
 20
156.4855073989793084
 30
0.0
 11
4325.0356547819910702
 21
156.4855073989793084
 31
0.0
  0
LINE
  5
12181
  8
0
 10
4295.118331947292063
 20
156.524877477679297
 30
0.0
 11
4325.0356547819910702
 21
156.524877477679297
 31
0.0
  0
LINE
  5
12182
  8
0
 10
4292.7516756031918703
 20
156.5307829522793099
 30
0.0
 11
4292.9445123401910678
 21
156.5307829895793077
 31
0.0
  0
LINE
  5
12183
  8
0
 10
4294.4293555692920563
 20
156.5445625170792994
 30
0.0
 11
4293.6419539944918142
 21
156.5445625170792994
 31
0.0
  0
LINE
  5
12184
  8
0
 10
4293.6419539944918142
 20
156.5642475564793017
 30
0.0
 11
4294.4293555692920563
 21
156.5642475564793017
 31
0.0
  0
LINE
  5
12185
  8
0
 10
4325.0356547819910702
 20
156.591806611579301
 30
0.0
 11
4295.118331947292063
 21
156.591806611579301
 31
0.0
  0
LINE
  5
12186
  8
0
 10
4295.118331947292063
 20
156.6036176351792903
 30
0.0
 11
4325.0356547819910702
 21
156.6036176351792903
 31
0.0
  0
LINE
  5
12187
  8
0
 10
4325.0356547819910702
 20
156.6685782650793044
 30
0.0
 11
4295.118331947292063
 21
156.6685782650793044
 31
0.0
  0
LINE
  5
12188
  8
0
 10
4294.4254185614909147
 20
156.6744837768792991
 30
0.0
 11
4293.6458910023920907
 21
156.6744837768792991
 31
0.0
  0
LINE
  5
12189
  8
0
 10
4295.118331947292063
 20
156.676452280879289
 30
0.0
 11
4325.0356547819910702
 21
156.676452280879289
 31
0.0
  0
LINE
  5
1218A
  8
0
 10
4292.9726626558922362
 20
156.6941688162793014
 30
0.0
 11
4293.6419539944918142
 21
156.6941688162793014
 31
0.0
  0
LINE
  5
1218B
  8
0
 10
4295.0986469078916343
 20
156.6941688162793014
 30
0.0
 11
4293.6419539944918142
 21
156.6941688162793014
 31
0.0
  0
LINE
  5
1218C
  8
0
 10
4293.972071395292005
 20
156.7550739824793027
 30
0.0
 11
4294.0379005358918221
 21
156.7550739824793027
 31
0.0
  0
LINE
  5
1218D
  8
0
 10
4294.0592632353918816
 20
156.7550739824793027
 30
0.0
 11
4294.3460644876913648
 21
156.7550739824793027
 31
0.0
  0
LINE
  5
1218E
  8
0
 10
4294.3674287684916635
 20
156.7550739824793027
 30
0.0
 11
4294.4445123401910678
 21
156.7550739824793027
 31
0.0
  0
LINE
  5
1218F
  8
0
 10
4293.972071395292005
 20
156.7910127327793077
 30
0.0
 11
4294.0279320038907827
 21
156.7910127327793077
 31
0.0
  0
LINE
  5
12190
  8
0
 10
4294.3798299109921572
 20
156.9618853517793013
 30
0.0
 11
4294.3953078107906549
 21
156.9618853517793013
 31
0.0
  0
LINE
  5
12191
  8
0
 10
4294.3601448715917286
 20
156.9618853517793013
 30
0.0
 11
4294.0451842416905492
 21
156.9618853517793013
 31
0.0
  0
LINE
  5
12192
  8
0
 10
4294.373685361591015
 20
156.9973184225792977
 30
0.0
 11
4294.0863342153916165
 21
156.9973184225792977
 31
0.0
  0
LINE
  5
12193
  8
0
 10
4293.0075052936917928
 20
157.166609761179302
 30
0.0
 11
4293.2161667110913186
 21
157.166609761179302
 31
0.0
  0
LINE
  5
12194
  8
0
 10
4294.8551430889920084
 20
157.166609761179302
 30
0.0
 11
4295.0638045062905803
 21
157.166609761179302
 31
0.0
  0
LINE
  5
12195
  8
0
 10
4294.0803950967911078
 20
157.1744837769792866
 30
0.0
 11
4294.1002809675919707
 21
157.1744837769792866
 31
0.0
  0
LINE
  5
12196
  8
0
 10
4294.3597386093915702
 20
157.1744837769792866
 30
0.0
 11
4294.3796244801924331
 21
157.1744837769792866
 31
0.0
  0
LINE
  5
12197
  8
0
 10
4294.4031963463921784
 20
157.233538895079306
 30
0.0
 11
4294.3555541199921208
 21
157.233538895079306
 31
0.0
  0
LINE
  5
12198
  8
0
 10
4294.1044654569914201
 20
157.233538895079306
 30
0.0
 11
4294.0568232304913181
 21
157.233538895079306
 31
0.0
  0
LINE
  5
12199
  8
0
 10
4294.7201028913923437
 20
157.3536176351792903
 30
0.0
 11
4292.7712839937930767
 21
157.3536176351792903
 31
0.0
  0
LINE
  5
1219A
  8
0
 10
4325.0356547819910702
 20
156.7374478692792934
 30
0.0
 11
4325.0356547819910702
 21
156.068420196379293
 31
0.0
  0
LINE
  5
1219B
  8
0
 10
4326.6104579315906449
 20
156.068420196379293
 30
0.0
 11
4326.6104579315906449
 21
156.7374478692792934
 31
0.0
  0
ARC
  5
1219C
  8
0
 10
4292.7030965915910201
 20
155.6790178596793055
 30
0.0
 40
2.174050638999999
 50
33.064996359812433
 51
37.2312823406067608
  0
ARC
  5
1219D
  8
0
 10
4293.8390591223906085
 20
156.4179559167793059
 30
0.0
 40
0.8188976377999999
 50
19.71243095888995
 51
33.1000654098923874
  0
ARC
  5
1219E
  8
0
 10
4293.8390591223906085
 20
156.4179559167793059
 30
0.0
 40
0.7874015748000001
 50
20.5357011843044717
 51
33.1000590429127683
  0
ARC
  5
1219F
  8
0
 10
4292.9090792693914409
 20
156.1646412572792997
 30
0.0
 40
0.157480315
 50
180.0
 51
270.0000000452836844
  0
ARC
  5
121A0
  8
0
 10
4292.9641973795924059
 20
156.2355073989793084
 30
0.0
 40
0.0196850394
 50
180.0000000000993055
 51
235.2182966565881088
  0
ARC
  5
121A1
  8
0
 10
4292.8815184313916689
 20
156.0721215721792987
 30
0.0
 40
0.0196850394
 50
180.0
 51
270.0
  0
ARC
  5
121A2
  8
0
 10
4293.7752210015905803
 20
157.1861410486793034
 30
0.0
 40
0.1968503937
 50
0.0
 51
38.6598082772978273
  0
CIRCLE
  5
121A3
  8
0
 10
4293.1393950574920382
 20
156.9697593674792984
 30
0.0
 40
0.062992126
  0
ARC
  5
121A4
  8
0
 10
4293.8744089997917399
 20
157.3142475564793017
 30
0.0
 40
0.0393700787
 50
38.6598082573866506
 51
89.999999999687347
  0
ARC
  5
121A5
  8
0
 10
4292.7712839937930767
 20
157.333932595879304
 30
0.0
 40
0.0196850394
 50
90.0
 51
180.0
  0
ARC
  5
121A6
  8
0
 10
4292.9641973795924059
 20
156.5071609422793131
 30
0.0
 40
0.0196850394
 50
124.7950747735820016
 51
180.0181020605996878
  0
ARC
  5
121A7
  8
0
 10
4292.9726626558922362
 20
156.6744837768792991
 30
0.0
 40
0.0196850394
 50
90.0
 51
180.0
  0
ARC
  5
121A8
  8
0
 10
4293.9523863559916208
 20
156.026845981679287
 30
0.0
 40
0.0196850394
 50
270.0
 51
0.0
  0
ARC
  5
121A9
  8
0
 10
4295.1897911330916031
 20
156.0721215721792987
 30
0.0
 40
0.0196850394
 50
270.0
 51
0.0
  0
ARC
  5
121AA
  8
0
 10
4294.6807328126906214
 20
157.1861410486793034
 30
0.0
 40
0.1968503937
 50
141.3401917458957939
 51
180.0
  0
ARC
  5
121AB
  8
0
 10
4294.2026645565920262
 20
156.8201530682792963
 30
0.0
 40
0.1771653543
 50
180.0
 51
225.3313074524959916
  0
ARC
  5
121AC
  8
0
 10
4294.2026645565920262
 20
156.8201530682792963
 30
0.0
 40
0.1771653543
 50
314.6685502770174025
 51
0.0
  0
ARC
  5
121AD
  8
0
 10
4294.2026645565920262
 20
156.8201530682792963
 30
0.0
 40
0.157480315
 50
306.8603574604878759
 51
0.0
  0
ARC
  5
121AE
  8
0
 10
4294.2026645565920262
 20
156.8201530682792963
 30
0.0
 40
0.157480315
 50
180.0
 51
233.1391399804003868
  0
CIRCLE
  5
121AF
  8
0
 10
4294.9319147425912888
 20
156.9697593674792984
 30
0.0
 40
0.062992126
  0
ARC
  5
121B0
  8
0
 10
4294.0647117661919765
 20
157.00125543047929
 30
0.0
 40
0.0393700787
 50
174.8730375197986859
 51
185.1269624803001932
  0
ARC
  5
121B1
  8
0
 10
4294.3953078107906549
 20
157.00125543047929
 30
0.0
 40
0.0393700787
 50
270.0
 51
288.2587383387747764
  0
ARC
  5
121B2
  8
0
 10
4294.3953078107906549
 20
157.00125543047929
 30
0.0
 40
0.0393700787
 50
349.9605990104964803
 51
5.1269624811986363
  0
ARC
  5
121B3
  8
0
 10
4294.4445123401910678
 20
156.7944440611792913
 30
0.0
 40
0.0393700787
 50
270.0
 51
0.0
  0
ARC
  5
121B4
  8
0
 10
4294.5815448144921902
 20
157.3142475564793017
 30
0.0
 40
0.0393700787
 50
90.0
 51
141.3401917458957939
  0
ARC
  5
121B5
  8
0
 10
4294.373685361591015
 20
157.0170034619793
 30
0.0
 40
0.0196850394
 50
269.9999999995831104
 51
5.5189954007979951
  0
ARC
  5
121B6
  8
0
 10
4294.0863342153916165
 20
157.0170034619793
 30
0.0
 40
0.0196850394
 50
174.4810045993010021
 51
270.0
  0
ARC
  5
121B7
  8
0
 10
4294.7201028913923437
 20
156.7040113359792883
 30
0.0
 40
0.0196850394
 50
329.9999999511950932
 51
0.0000002141990096
  0
ARC
  5
121B8
  8
0
 10
4294.7201028913923437
 20
157.333932595879304
 30
0.0
 40
0.0196850394
 50
0.0
 51
89.9999999388225973
  0
ARC
  5
121B9
  8
0
 10
4295.0986469078916343
 20
156.6744837768792991
 30
0.0
 40
0.0196850394
 50
0.0
 51
90.0
  0
ARC
  5
121BA
  8
0
 10
4294.4031963463921784
 20
157.2217278713793007
 30
0.0
 40
0.0118110236
 50
5.1818320908985607
 51
90.0000000001042082
  0
ARC
  5
121BB
  8
0
 10
4294.0568232304913181
 20
157.2217278713793007
 30
0.0
 40
0.0118110236
 50
90.0
 51
174.8181679353982929
  0
ARC
  5
121BC
  8
0
 10
4294.3555541199921208
 20
157.225664879279293
 30
0.0
 40
0.0078740157
 50
90.0000000002084306
 51
185.518995402497012
  0
ARC
  5
121BD
  8
0
 10
4294.3597386093915702
 20
157.1823577926793121
 30
0.0
 40
0.0078740157
 50
185.5189953995995893
 51
269.9999999986973194
  0
ARC
  5
121BE
  8
0
 10
4294.1002809675919707
 20
157.1823577926793121
 30
0.0
 40
0.0078740157
 50
270.0000000027097258
 51
354.4810046010990163
  0
ARC
  5
121BF
  8
0
 10
4294.1044654569914201
 20
157.225664879279293
 30
0.0
 40
0.0078740157
 50
354.4810045987999843
 51
90.0000000015111965
  0
ARC
  5
121C0
  8
0
 10
4325.8230563567913123
 20
127.2395625170793068
 30
0.0
 40
29.5275590550999993
 50
88.5091477156897071
 51
91.4908522841018055
  0
ARC
  5
121C1
  8
0
 10
4325.8230563567913123
 20
177.2665491644793008
 30
0.0
 40
21.2317110569999983
 50
267.926161397477415
 51
272.0738386036176735
  0
ARC
  5
121C2
  8
0
 10
4325.0553398213924083
 20
156.7374478692792934
 30
0.0
 40
0.0196850394
 50
91.4908547569950485
 51
179.9999999985001864
  0
ARC
  5
121C3
  8
0
 10
4325.0553398213924083
 20
156.068420196379293
 30
0.0
 40
0.0196850394
 50
179.9999999998989892
 51
268.2414816559129918
  0
ARC
  5
121C4
  8
0
 10
4326.5907728921920352
 20
156.068420196379293
 30
0.0
 40
0.0196850394
 50
271.7585197009984199
 51
359.9999999997996838
  0
ARC
  5
121C5
  8
0
 10
4326.5907728921920352
 20
156.7374478692792934
 30
0.0
 40
0.0196850394
 50
0.0
 51
88.5091452435784163
  0
LINE
  5
121C6
  8
0
 10
4292.9445090746921778
 20
156.5071547219793047
 30
0.0
 11
4292.9445123401910678
 21
156.5307829895793077
 31
0.0
  0
LINE
  5
121C8
  8
0
 10
4292.9543556873913985
 20
157.087189870779298
 30
0.0
 11
4293.2771903330922214
 21
157.087189870779298
 31
0.0
  0
LINE
  5
121C9
  8
0
 10
4292.9681352149918894
 20
157.1272396824793134
 30
0.0
 11
4293.2555367897921315
 21
157.1272396824793134
 31
0.0
  0
LINE
  5
121CA
  8
0
 10
4294.7941194669920151
 20
157.0878696036793087
 30
0.0
 11
4295.116954112591884
 21
157.0878696036793087
 31
0.0
  0
LINE
  5
121CB
  8
0
 10
4294.815773010292105
 20
157.1272396824793134
 30
0.0
 11
4295.1031745850914376
 21
157.1272396824793134
 31
0.0
  0
ENDSEC
  0
EOF
