  0
SECTION
  2
HEADER
  9
$ACADVER
  1
AC1009
  9
$INSBASE
 10
4298.361808412548271
 20
164.9390345925565953
 30
0.0
  9
$EXTMIN
 10
4281.3837799985349193
 20
164.926796544054298
 30
-0.0000000349181948
  9
$EXTMAX
 10
4315.625362848370969
 20
243.7582564845093032
 30
0.0000000814935746
  9
$LIMMIN
 10
0.0
 20
0.0
  9
$LIMMAX
 10
11.6929133858000007
 20
8.2677165353999982
  9
$ORTHOMODE
 70
     0
  9
$REGENMODE
 70
     1
  9
$FILLMODE
 70
     1
  9
$QTEXTMODE
 70
     0
  9
$MIRRTEXT
 70
     0
  9
$DRAGMODE
 70
     2
  9
$LTSCALE
 40
0.6431102362
  9
$OSMODE
 70
  4095
  9
$ATTMODE
 70
     1
  9
$TEXTSIZE
 40
0.2
  9
$TRACEWID
 40
0.05
  9
$TEXTSTYLE
  7
STANDARD
  9
$CLAYER
  8
0
  9
$CELTYPE
  6
BYLAYER
  9
$CECOLOR
 62
   256
  9
$DIMSCALE
 40
1.0
  9
$DIMASZ
 40
0.1875
  9
$DIMEXO
 40
0.0625
  9
$DIMDLI
 40
0.4443307087
  9
$DIMRND
 40
0.0
  9
$DIMDLE
 40
0.0
  9
$DIMEXE
 40
0.125
  9
$DIMTP
 40
0.01
  9
$DIMTM
 40
0.01
  9
$DIMTXT
 40
2.0
  9
$DIMCEN
 40
0.1052362205
  9
$DIMTSZ
 40
0.0
  9
$DIMTOL
 70
     1
  9
$DIMLIM
 70
     0
  9
$DIMTIH
 70
     1
  9
$DIMTOH
 70
     1
  9
$DIMSE1
 70
     0
  9
$DIMSE2
 70
     0
  9
$DIMTAD
 70
     0
  9
$DIMZIN
 70
     0
  9
$DIMBLK
  1

  9
$DIMASO
 70
     1
  9
$DIMSHO
 70
     1
  9
$DIMPOST
  1
\X
  9
$DIMAPOST
  1

  9
$DIMALT
 70
     1
  9
$DIMALTD
 70
     2
  9
$DIMALTF
 40
25.3999999999999986
  9
$DIMLFAC
 40
1.0
  9
$DIMTOFL
 70
     0
  9
$DIMTVP
 40
0.0
  9
$DIMTIX
 70
     0
  9
$DIMSOXD
 70
     0
  9
$DIMSAH
 70
     0
  9
$DIMBLK1
  1

  9
$DIMBLK2
  1

  9
$DIMSTYLE
  2
STANDARD
  9
$DIMCLRD
 70
     0
  9
$DIMCLRE
 70
     0
  9
$DIMCLRT
 70
     0
  9
$DIMTFAC
 40
1.0
  9
$DIMGAP
 40
0.09
  9
$LUNITS
 70
     2
  9
$LUPREC
 70
     4
  9
$SKETCHINC
 40
0.1
  9
$FILLETRAD
 40
0.0
  9
$AUNITS
 70
     0
  9
$AUPREC
 70
     0
  9
$MENU
  1
.
  9
$ELEVATION
 40
0.0
  9
$PELEVATION
 40
0.0
  9
$THICKNESS
 40
0.0
  9
$LIMCHECK
 70
     0
  9
$BLIPMODE
 70
     0
  9
$CHAMFERA
 40
0.0
  9
$CHAMFERB
 40
0.0
  9
$SKPOLY
 70
     0
  9
$TDCREATE
 40
2458060.468368056230247
  9
$TDUPDATE
 40
2459545.6312152780592442
  9
$TDINDWG
 40
0.7551228008999999
  9
$TDUSRTIMER
 40
0.7551228008999999
  9
$USRTIMER
 70
     1
  9
$ANGBASE
 50
0.0
  9
$ANGDIR
 70
     0
  9
$PDMODE
 70
     0
  9
$PDSIZE
 40
0.3125
  9
$PLINEWID
 40
0.0
  9
$COORDS
 70
     1
  9
$SPLFRAME
 70
     0
  9
$SPLINETYPE
 70
     6
  9
$SPLINESEGS
 70
     8
  9
$ATTDIA
 70
     1
  9
$ATTREQ
 70
     1
  9
$HANDLING
 70
     1
  9
$HANDSEED
  5
1207C
  9
$SURFTAB1
 70
     6
  9
$SURFTAB2
 70
     6
  9
$SURFTYPE
 70
     6
  9
$SURFU
 70
     6
  9
$SURFV
 70
     6
  9
$UCSNAME
  2

  9
$UCSORG
 10
0.0
 20
0.0
 30
0.0
  9
$UCSXDIR
 10
1.0
 20
0.0
 30
0.0
  9
$UCSYDIR
 10
0.0
 20
1.0
 30
0.0
  9
$PUCSNAME
  2

  9
$PUCSORG
 10
0.0
 20
0.0
 30
0.0
  9
$PUCSXDIR
 10
1.0
 20
0.0
 30
0.0
  9
$PUCSYDIR
 10
0.0
 20
1.0
 30
0.0
  9
$USERI1
 70
     0
  9
$USERI2
 70
     0
  9
$USERI3
 70
     0
  9
$USERI4
 70
     0
  9
$USERI5
 70
     0
  9
$USERR1
 40
0.0
  9
$USERR2
 40
0.0
  9
$USERR3
 40
0.0
  9
$USERR4
 40
0.0
  9
$USERR5
 40
0.0
  9
$WORLDVIEW
 70
     1
  9
$SHADEDGE
 70
     3
  9
$SHADEDIF
 70
    70
  9
$TILEMODE
 70
     1
  9
$MAXACTVP
 70
    64
  9
$PLIMCHECK
 70
     0
  9
$PEXTMIN
 10
1.0000000000000000E+20
 20
1.0000000000000000E+20
 30
1.0000000000000000E+20
  9
$PEXTMAX
 10
-1.0000000000000000E+20
 20
-1.0000000000000000E+20
 30
-1.0000000000000000E+20
  9
$PLIMMIN
 10
0.0
 20
0.0
  9
$PLIMMAX
 10
12.0
 20
9.0
  9
$UNITMODE
 70
     0
  9
$VISRETAIN
 70
     1
  9
$PLINEGEN
 70
     0
  9
$PSLTSCALE
 70
     1
  0
ENDSEC
  0
SECTION
  2
TABLES
  0
TABLE
  2
VPORT
 70
     1
  0
VPORT
  2
*ACTIVE
 70
     0
 10
0.0
 20
0.0
 11
1.0
 21
1.0
 12
654.4287657593913536
 22
44.3982860144841709
 13
0.0
 23
0.0
 14
1.0
 24
1.0
 15
0.0
 25
0.0
 16
0.0
 26
0.0
 36
26.6346482412083887
 17
3644.0758056640620453
 27
159.9442404997975871
 37
0.0
 40
79.6210576658108522
 41
2.6486111111111108
 42
50.0
 43
0.0
 44
0.0
 50
0.0
 51
0.0
 71
     0
 72
   100
 73
     1
 74
     1
 75
     0
 76
     0
 77
     0
 78
     0
  0
ENDTAB
  0
TABLE
  2
LTYPE
 70
     2
  0
LTYPE
  2
CONTINUOUS
 70
     0
  3
Solid line
 72
    65
 73
     0
 40
0.0
  0
LTYPE
  2
PHANTOM2
 70
     0
  3
___ _ _ ___ _ _ ___ _ _ ___ _ _
 72
    65
 73
     6
 40
1.25
 49
0.625
 49
-0.125
 49
0.125
 49
-0.125
 49
0.125
 49
-0.125
  0
ENDTAB
  0
TABLE
  2
LAYER
 70
     2
  0
LAYER
  2
0
 70
     0
 62
   255
  6
CONTINUOUS
  0
LAYER
  2
DEFPOINTS
 70
     0
 62
     7
  6
CONTINUOUS
  0
ENDTAB
  0
TABLE
  2
STYLE
 70
     1
  0
STYLE
  2
STANDARD
 70
     0
 40
0.0
 41
0.8
 50
0.0
 71
     0
 42
0.2
  3
txt
  4

  0
ENDTAB
  0
TABLE
  2
VIEW
 70
     0
  0
ENDTAB
  0
TABLE
  2
UCS
 70
     0
  0
ENDTAB
  0
TABLE
  2
APPID
 70
    10
  0
APPID
  2
ACAD
 70
     0
  0
APPID
  2
ACAD_MLEADERVER
 70
     0
  0
APPID
  2
ACAD_EXEMPT_FROM_CAD_STANDARDS
 70
     0
  0
APPID
  2
ACAD_NAV_VCDISPLAY
 70
     0
  0
APPID
  2
ACAECLAYERSTANDARD
 70
     0
  0
APPID
  2
ACCMTRANSPARENCY
 70
     0
  0
APPID
  2
ACAD_DSTYLE_DIMJAG
 70
     0
  0
APPID
  2
ACAD_DSTYLE_DIMTALN
 70
     0
  0
APPID
  2
ACDBATTR
 70
     0
  0
APPID
  2
ACAD_PSEXT
 70
     0
  0
ENDTAB
  0
TABLE
  2
DIMSTYLE
 70
     1
  0
DIMSTYLE
  2
STANDARD
 70
     0
  3

  4

  5

  6

  7

 40
1.0
 41
0.1875
 42
0.0625
 43
0.38
 44
0.125
 45
0.0
 46
0.0
 47
0.01
 48
0.01
140
0.15625
141
0.09
142
0.0
143
25.3999999999999986
144
1.0
145
0.0
146
1.0
147
0.09
 71
     1
 72
     0
 73
     1
 74
     1
 75
     0
 76
     0
 77
     0
 78
     4
170
     0
171
     2
172
     0
173
     0
174
     0
175
     0
176
     0
177
     0
178
     0
  0
ENDTAB
  0
ENDSEC
  0
SECTION
  2
BLOCKS
  0
BLOCK
  8
0
  2
$MODEL_SPACE
 70
     0
 10
0.0
 20
0.0
 30
0.0
  3
$MODEL_SPACE
  1

  0
ENDBLK
  5
21
  8
0
  0
BLOCK
 67
     1
  8
0
  2
$PAPER_SPACE
 70
     0
 10
0.0
 20
0.0
 30
0.0
  3
$PAPER_SPACE
  1

  0
ENDBLK
  5
1D
 67
     1
  8
0
  0
ENDSEC
  0
SECTION
  2
ENTITIES
  0
ATTDEF
  5
AA11
  8
DEFPOINTS
 10
4298.3578804496828525
 20
164.9435533049920934
 30
0.0
 40
0.001
  1
K-1.1922.025
  3

  2
MODELNUMBER
 70
     0
1001
ACDBATTR
1070
     0
1070
     1
  0
ATTDEF
  5
AA12
  8
DEFPOINTS
 10
4298.3578804496828525
 20
164.9418866383253999
 30
0.0
 40
0.001
  1

  3

  2
TRADENAME
 70
     0
1001
ACDBATTR
1070
     0
1070
     1
  0
ATTDEF
  5
AA13
  8
DEFPOINTS
 10
4298.3578804496828525
 20
164.9402199716587063
 30
0.0
 40
0.001
  1
SHOWER DOOR
  3

  2
PRODUCT
 70
     0
1001
ACDBATTR
1070
     0
1070
     1
  0
LINE
  5
11E76
  8
0
 10
4315.1750961688985626
 20
164.9390345925565953
 30
0.0
 11
4281.5485206561979794
 21
164.9390345925565953
 31
0.0
  0
LINE
  5
11E77
  8
0
 10
4282.7689930970982459
 20
165.5413967972565956
 30
0.0
 11
4315.1750961688985626
 21
165.5413967972565956
 31
0.0
  0
LINE
  5
11E78
  8
0
 10
4315.0003826908978226
 20
165.6083259311565996
 30
0.0
 11
4315.1750961687994277
 21
165.6083259311565996
 31
0.0
  0
LINE
  5
11E79
  8
0
 10
4282.7493080577969522
 20
165.718562151556597
 30
0.0
 11
4281.5682056955984081
 21
165.718562151556597
 31
0.0
  0
LINE
  5
11E7A
  8
0
 10
4315.0003826908978226
 20
165.72643616735661
 30
0.0
 11
4315.1750961687994277
 21
165.72643616735661
 31
0.0
  0
LINE
  5
11E7B
  8
0
 10
4281.5485206561979794
 20
164.9390345925565953
 30
0.0
 11
4281.5485206561979794
 21
165.6988771122566106
 31
0.0
  0
LINE
  5
11E7C
  8
0
 10
4281.658755093898435
 20
242.7539952224566946
 30
0.0
 11
4281.658755093898435
 21
243.6595070334566913
 31
0.0
  0
LINE
  5
11E7D
  8
0
 10
4281.7498993183980929
 20
165.718562151556597
 30
0.0
 11
4281.7498993183980929
 21
242.7343101830566923
 31
0.0
  0
LINE
  5
11E7E
  8
0
 10
4282.7689930970982459
 20
165.6988771122566106
 30
0.0
 11
4282.7689930970982459
 21
164.9390345925565953
 31
0.0
  0
LINE
  5
11E7F
  8
0
 10
4284.0063978742982727
 20
243.6595070334566913
 30
0.0
 11
4284.0063978742982727
 21
242.7539952224566946
 31
0.0
  0
LINE
  5
11E80
  8
0
 10
4314.7157927176976955
 20
242.1437590019567097
 30
0.0
 11
4314.7341512869970757
 21
242.1831290807566006
 31
0.0
  0
LINE
  5
11E81
  8
0
 10
4315.2932064050983172
 20
242.1831290807566006
 30
0.0
 11
4315.274847835797118
 21
242.1437590019567097
 31
0.0
  0
LINE
  5
11E82
  8
0
 10
4314.8560640677969786
 20
243.0022770597566932
 30
0.0
 11
4314.8559824192980159
 21
243.0335227814566963
 31
0.0
  0
LINE
  5
11E83
  8
0
 10
4314.8953526324994527
 20
243.0335227814566963
 30
0.0
 11
4314.8954340121981659
 21
243.0023799377567002
 31
0.0
  0
LINE
  5
11E84
  8
0
 10
4313.8325764837982206
 20
242.7343101830566923
 30
0.0
 11
4313.8325764837982206
 21
243.7303731752566023
 31
0.0
  0
LINE
  5
11E85
  8
0
 10
4313.934938688497823
 20
242.7343101830566923
 30
0.0
 11
4313.934938688497823
 21
243.0295857736566916
 31
0.0
  0
LINE
  5
11E86
  8
0
 10
4313.9585607357976187
 20
243.0295857736566916
 30
0.0
 11
4313.9585607357976187
 21
242.7343101830566923
 31
0.0
  0
LINE
  5
11E87
  8
0
 10
4314.0530489246975776
 20
243.1083259311565996
 30
0.0
 11
4314.0530489246975776
 21
243.6595070334566913
 31
0.0
  0
LINE
  5
11E88
  8
0
 10
4314.0766709719982828
 20
243.1083259311565996
 30
0.0
 11
4314.0766709719982828
 21
243.6398219940566889
 31
0.0
  0
LINE
  5
11E89
  8
0
 10
4314.2370390854975994
 20
242.7343101830566923
 30
0.0
 11
4314.2370390854975994
 21
242.1794295640324037
 31
0.0
  0
LINE
  5
11E8A
  8
0
 10
4314.5412379010986115
 20
243.6398219940566889
 30
0.0
 11
4314.5412379010986115
 21
243.6791920728566936
 31
0.0
  0
LINE
  5
11E8B
  8
0
 10
4314.6987182160983139
 20
243.6398219940566889
 30
0.0
 11
4314.6987182160983139
 21
243.6791920728566936
 31
0.0
  0
LINE
  5
11E8C
  8
0
 10
4314.7341512869970757
 20
242.7343101830566923
 30
0.0
 11
4314.7341512869970757
 21
242.1831290807566006
 31
0.0
  0
LINE
  5
11E8D
  8
0
 10
4314.7616969944983794
 20
165.7444895717565885
 30
0.0
 11
4314.7616969677983434
 21
165.5902832834566141
 31
0.0
  0
LINE
  5
11E8E
  8
0
 10
4314.769584357797612
 20
243.0335227814566963
 30
0.0
 11
4314.769584357797612
 21
243.0321163659565968
 31
0.0
  0
LINE
  5
11E8F
  8
0
 10
4314.769584357797612
 20
242.8698326641566041
 30
0.0
 11
4314.769584357797612
 21
242.8681684507567127
 31
0.0
  0
LINE
  5
11E90
  8
0
 10
4314.7774583735981651
 20
242.1831290807566006
 30
0.0
 11
4314.7774583735981651
 21
242.7343101830566923
 31
0.0
  0
LINE
  5
11E91
  8
0
 10
4314.8227355861981778
 20
165.7944978870565933
 30
0.0
 11
4314.8227355423978224
 21
165.5413967716565935
 31
0.0
  0
LINE
  5
11E92
  8
0
 10
4314.8320261741982904
 20
165.5413967700567071
 30
0.0
 11
4314.8320262186980472
 21
165.7979905309566107
 31
0.0
  0
LINE
  5
11E93
  8
0
 10
4314.8640725467976154
 20
243.0335227814566963
 30
0.0
 11
4314.8640725467976154
 21
243.0276172696567016
 31
0.0
  0
LINE
  5
11E94
  8
0
 10
4314.9322647902981771
 20
165.793100731256601
 30
0.0
 11
4314.9322647466979106
 21
165.5413967526567092
 31
0.0
  0
LINE
  5
11E95
  8
0
 10
4314.9415552197979196
 20
165.5462591791566069
 30
0.0
 11
4314.9415552617992944
 21
165.7885148722565987
 31
0.0
  0
LINE
  5
11E96
  8
0
 10
4314.9771401681982752
 20
165.760832916556609
 30
0.0
 11
4314.9771401357984359
 21
165.5739412592565998
 31
0.0
  0
LINE
  5
11E97
  8
0
 10
4314.9900567987970135
 20
243.0279602106566017
 30
0.0
 11
4314.9900567987970135
 21
243.021711757856707
 31
0.0
  0
LINE
  5
11E98
  8
0
 10
4314.9900567987970135
 20
242.8799794744566896
 30
0.0
 11
4314.9900567987970135
 21
242.8737281832567021
 31
0.0
  0
LINE
  5
11E99
  8
0
 10
4315.0215528617982272
 20
243.0065067684566884
 30
0.0
 11
4315.0215528617982272
 21
243.0004390324567112
 31
0.0
  0
LINE
  5
11E9A
  8
0
 10
4315.0215528617982272
 20
242.9020134995566877
 30
0.0
 11
4315.0215528617982272
 21
242.8951844635566033
 31
0.0
  0
LINE
  5
11E9B
  8
0
 10
4315.0569725818968436
 20
165.72643616735661
 30
0.0
 11
4315.0569725613977425
 21
165.6083259311565996
 31
0.0
  0
LINE
  5
11E9C
  8
0
 10
4315.1750961687994277
 20
242.1437590019567097
 30
0.0
 11
4315.1750961687994277
 21
165.72643616735661
 31
0.0
  0
LINE
  5
11E9D
  8
0
 10
4315.1750961687994277
 20
165.6083259311565996
 30
0.0
 11
4315.1750961687994277
 21
165.5413967972565956
 31
0.0
  0
LINE
  5
11E9E
  8
0
 10
4315.1750961688985626
 20
165.5413967972565956
 30
0.0
 11
4315.1750961688985626
 21
164.9390345925565953
 31
0.0
  0
LINE
  5
11E9F
  8
0
 10
4315.1790331766978852
 20
243.1083259311565996
 30
0.0
 11
4315.1790331766978852
 21
243.6398219940566889
 31
0.0
  0
LINE
  5
11EA0
  8
0
 10
4315.1869071924984382
 20
243.1083259311565996
 30
0.0
 11
4315.1869071924984382
 21
243.6595070334566913
 31
0.0
  0
LINE
  5
11EA1
  8
0
 10
4315.2105292396981895
 20
243.0722645412566862
 30
0.0
 11
4315.2105292396981895
 21
243.0697792803566983
 31
0.0
  0
LINE
  5
11EA2
  8
0
 10
4315.2932064050983172
 20
243.0467467930565988
 30
0.0
 11
4315.2932064050983172
 21
242.1831290807566006
 31
0.0
  0
LINE
  5
11EA3
  8
0
 10
4315.3050174286972833
 20
242.7343101830566923
 30
0.0
 11
4315.3050174286972833
 21
243.0295857736566916
 31
0.0
  0
LINE
  5
11EA4
  8
0
 10
4315.4073796333977953
 20
242.7343101830566923
 30
0.0
 11
4315.4073796333977953
 21
243.7303731752566023
 31
0.0
  0
LINE
  5
11EA5
  8
0
 10
4314.7775535219980156
 20
242.1829250341565967
 30
0.0
 11
4314.7958169427984103
 21
242.1437590019567097
 31
0.0
  0
LINE
  5
11EA6
  8
0
 10
4314.9883437715980108
 20
242.9019267205567019
 30
0.0
 11
4315.0271753785982582
 21
242.9020281918566866
 31
0.0
  0
LINE
  5
11EA7
  8
0
 10
4315.0265693531982834
 20
243.0004521410565985
 30
0.0
 11
4314.9880865956993148
 21
243.0003515814566981
 31
0.0
  0
LINE
  5
11EA8
  8
0
 10
4314.2492977950987552
 20
242.1437590019567097
 30
0.0
 11
4314.7157927176976955
 21
242.1437590019567097
 31
0.0
  0
LINE
  5
11EA9
  8
0
 10
4314.7958169427984103
 20
242.1437590019567097
 30
0.0
 11
4315.274847835797118
 21
242.1437590019567097
 31
0.0
  0
LINE
  5
11EAA
  8
0
 10
4283.986712834897844
 20
242.7343101830566923
 30
0.0
 11
4281.6784401331970003
 21
242.7343101830566923
 31
0.0
  0
LINE
  5
11EAB
  8
0
 10
4313.8325764837982206
 20
242.7343101830566923
 30
0.0
 11
4313.934938688497823
 21
242.7343101830566923
 31
0.0
  0
LINE
  5
11EAC
  8
0
 10
4313.9585607357976187
 20
242.7343101830566923
 30
0.0
 11
4314.2370390854975994
 21
242.7343101830566923
 31
0.0
  0
LINE
  5
11EAD
  8
0
 10
4314.7341512869970757
 20
242.7343101830566923
 30
0.0
 11
4314.7774583735981651
 21
242.7343101830566923
 31
0.0
  0
LINE
  5
11EAE
  8
0
 10
4315.3050174286972833
 20
242.7343101830566923
 30
0.0
 11
4315.4073796333977953
 21
242.7343101830566923
 31
0.0
  0
LINE
  5
11EAF
  8
0
 10
4315.2932064050983172
 20
242.7343101830566923
 30
0.0
 11
4315.3050174286972833
 21
242.7343101830566923
 31
0.0
  0
LINE
  5
11EB0
  8
0
 10
4314.9605292396981895
 20
242.8681684507567127
 30
0.0
 11
4314.1258835703984005
 21
242.8681684507567127
 31
0.0
  0
LINE
  5
11EB1
  8
0
 10
4314.7664509466976597
 20
242.8740739625567073
 30
0.0
 11
4314.7614785716978076
 21
242.8740739625567073
 31
0.0
  0
LINE
  5
11EB2
  8
0
 10
4315.0003826908978226
 20
242.8917904980567073
 30
0.0
 11
4315.0183416674981345
 21
242.8917904980567073
 31
0.0
  0
LINE
  5
11EB3
  8
0
 10
4315.0003826908978226
 20
243.0099007342566892
 30
0.0
 11
4315.0183415196979695
 21
243.0099007342566892
 31
0.0
  0
LINE
  5
11EB4
  8
0
 10
4314.7614745967994168
 20
243.0276172696567016
 30
0.0
 11
4314.7664122654969105
 21
243.0276172696567016
 31
0.0
  0
LINE
  5
11EB5
  8
0
 10
4314.855997851099346
 20
243.0276172696567016
 30
0.0
 11
4314.8955686097979196
 21
243.0276172696567016
 31
0.0
  0
LINE
  5
11EB6
  8
0
 10
4314.1258835703984005
 20
243.0335227814566963
 30
0.0
 11
4314.9605292396981895
 21
243.0335227814566963
 31
0.0
  0
LINE
  5
11EB7
  8
0
 10
4315.2656473498991545
 20
243.0689558523567086
 30
0.0
 11
4315.2262772711983416
 21
243.0689558523567086
 31
0.0
  0
LINE
  5
11EB8
  8
0
 10
4314.0373008932983794
 20
243.0689558523567086
 30
0.0
 11
4313.9743087672968613
 21
243.0689558523567086
 31
0.0
  0
LINE
  5
11EB9
  8
0
 10
4315.1869071924984382
 20
243.1280109704566996
 30
0.0
 11
4315.1790331766978852
 21
243.1280109704566996
 31
0.0
  0
LINE
  5
11EBA
  8
0
 10
4314.0766709719982828
 20
243.4626566397566876
 30
0.0
 11
4314.0530489246975776
 21
243.4626566397566876
 31
0.0
  0
LINE
  5
11EBB
  8
0
 10
4284.0063978742982727
 20
243.5020267185566922
 30
0.0
 11
4313.8325764837982206
 21
243.5020267185566922
 31
0.0
  0
LINE
  5
11EBC
  8
0
 10
4314.0530489246975776
 20
243.5020267185566922
 30
0.0
 11
4314.0766709719982828
 21
243.5020267185566922
 31
0.0
  0
LINE
  5
11EBD
  8
0
 10
4315.1869071924984382
 20
243.521711757856707
 30
0.0
 11
4315.1790331766978852
 21
243.521711757856707
 31
0.0
  0
LINE
  5
11EBE
  8
0
 10
4314.0766709719982828
 20
243.521711757856707
 30
0.0
 11
4314.0530489246975776
 21
243.521711757856707
 31
0.0
  0
LINE
  5
11EBF
  8
0
 10
4314.0530489246975776
 20
243.6398219940566889
 30
0.0
 11
4315.1869071924984382
 21
243.6398219940566889
 31
0.0
  0
LINE
  5
11EC0
  8
0
 10
4281.6784401331970003
 20
243.6791920728566936
 30
0.0
 11
4283.986712834897844
 21
243.6791920728566936
 31
0.0
  0
LINE
  5
11EC1
  8
0
 10
4313.8325764837982206
 20
243.6791920728566936
 30
0.0
 11
4315.4073796333977953
 21
243.6791920728566936
 31
0.0
  0
LINE
  5
11EC2
  8
0
 10
4315.3876945939982761
 20
243.7500582145567023
 30
0.0
 11
4313.8522615231977397
 21
243.7500582145567023
 31
0.0
  0
ARC
  5
11EC3
  8
0
 10
4282.7493080577969522
 20
165.6988771122566106
 30
0.0
 40
0.0196850394
 50
0.0
 51
90.0
  0
ARC
  5
11EC4
  8
0
 10
4281.5682056955984081
 20
165.6988771122566106
 30
0.0
 40
0.0196850394
 50
90.0
 51
180.0
  0
ARC
  5
11EC5
  8
0
 10
4283.986712834897844
 20
242.7539952224566946
 30
0.0
 40
0.0196850394
 50
270.0
 51
0.0
  0
ARC
  5
11EC6
  8
0
 10
4281.6784401331970003
 20
243.6595070334566913
 30
0.0
 40
0.0196850394
 50
90.0
 51
180.0
  0
ARC
  5
11EC7
  8
0
 10
4281.6784401331970003
 20
242.7539952224566946
 30
0.0
 40
0.0196850394
 50
180.0
 51
270.0
  0
ARC
  5
11EC8
  8
0
 10
4283.986712834897844
 20
243.6595070334566913
 30
0.0
 40
0.0196850394
 50
0.0
 51
90.0
  0
ARC
  5
11EC9
  8
0
 10
4314.1258835703984005
 20
242.9508456161566983
 30
0.0
 40
0.0826771654
 50
90.0
 51
270.0
  0
ARC
  5
11ECA
  8
0
 10
4313.9743087672968613
 20
243.0295857736566916
 30
0.0
 40
0.0393700787
 50
89.9999999995831246
 51
179.9999999985001864
  0
ARC
  5
11ECB
  8
0
 10
4314.0136788459976742
 20
243.1083259311565996
 30
0.0
 40
0.0393700787
 50
270.0000000005210836
 51
359.9999999985996055
  0
ARC
  5
11ECC
  8
0
 10
4313.9979308144984316
 20
243.0295857736566916
 30
0.0
 40
0.0393700787
 50
90.0
 51
180.0
  0
ARC
  5
11ECD
  8
0
 10
4314.0373008932983794
 20
243.1083259311565996
 30
0.0
 40
0.0393700787
 50
270.0
 51
0.0
  0
ARC
  5
11ECE
  8
0
 10
4313.8522615231977397
 20
243.7303731752566023
 30
0.0
 40
0.0196850394
 50
90.0
 51
180.0
  0
ARC
  5
11ECF
  8
0
 10
4314.0727339640980063
 20
243.6595070334566913
 30
0.0
 40
0.0196850394
 50
89.999999999687347
 51
179.9999999987998081
  0
ARC
  5
11ED1
  8
0
 10
4314.8758835703984005
 20
165.6673810492567043
 30
0.0
 40
0.1377952756
 50
25.3769335252099992
 51
246.117226943992307
  0
ARC
  5
11ED2
  8
0
 10
4314.8758835703984005
 20
165.6673810492567043
 30
0.0
 40
0.1377952756
 50
293.8826288035829748
 51
334.6230664747899937
  0
ARC
  5
11ED3
  8
0
 10
4314.8758835703984005
 20
242.9508456161566983
 30
0.0
 40
0.1377952756
 50
25.3769335252099992
 51
34.0726010147945928
  0
ARC
  5
11ED4
  8
0
 10
4314.8758835703984005
 20
242.9508456161566983
 30
0.0
 40
0.1377952756
 50
143.1249281314042037
 51
216.872344216701606
  0
ARC
  5
11ED5
  8
0
 10
4314.8758835703984005
 20
242.9508456161566983
 30
0.0
 40
0.1377952756
 50
325.928600496392221
 51
334.6230664747899937
  0
ARC
  5
11ED6
  8
0
 10
4314.8758835703984005
 20
242.9508456161566983
 30
0.0
 40
0.1338582677
 50
21.7202981225009886
 51
36.4121177209064868
  0
ARC
  5
11ED7
  8
0
 10
4314.8758835703984005
 20
242.9508456161566983
 30
0.0
 40
0.1338582677
 50
141.8462862094106924
 51
218.1970774337032992
  0
ARC
  5
11ED8
  8
0
 10
4314.8758835703984005
 20
242.9508456161566983
 30
0.0
 40
0.1338582677
 50
323.5706071194854871
 51
338.5791415192982186
  0
ARC
  5
11ED9
  8
0
 10
4314.8758835703984005
 20
242.9508456161566983
 30
0.0
 40
0.1220472441
 50
23.1443968288010993
 51
42.3834590241881699
  0
ARC
  5
11EDA
  8
0
 10
4314.8758835703984005
 20
242.9508456161566983
 30
0.0
 40
0.1220472441
 50
317.415497084394076
 51
337.1550428130071282
  0
ARC
  5
11EDB
  8
0
 10
4314.9605292396981895
 20
242.9508456161566983
 30
0.0
 40
0.0826771654
 50
270.0
 51
90.0
  0
ARC
  5
11EDC
  8
0
 10
4314.9605292396981895
 20
242.9508456161566983
 30
0.0
 40
0.0767716535
 50
309.7239996248104035
 51
320.4832487308037798
  0
ARC
  5
11EDD
  8
0
 10
4314.9605292396981895
 20
242.9508456161566983
 30
0.0
 40
0.0767716535
 50
291.9487465583140988
 51
297.178438221398892
  0
ARC
  5
11EDE
  8
0
 10
4314.9605292396981895
 20
242.9508456161566983
 30
0.0
 40
0.0767716535
 50
62.8205168287855216
 51
68.0583617047129934
  0
ARC
  5
11EDF
  8
0
 10
4314.9605292396981895
 20
242.9508456161566983
 30
0.0
 40
0.0767716535
 50
40.2351134144942577
 51
50.2760181919109712
  0
ARC
  5
11EE0
  8
0
 10
4314.8758835703984005
 20
242.9508456161566983
 30
0.0
 40
0.0551181102
 50
111.0745522486109991
 51
69.2248873932797579
  0
ARC
  5
11EE1
  8
0
 10
4315.2656473498991545
 20
243.0295857736566916
 30
0.0
 40
0.0393700787
 50
0.0000000014997969
 51
90.0000000004168754
  0
ARC
  5
11EE2
  8
0
 10
4315.2262772711983416
 20
243.1083259311565996
 30
0.0
 40
0.0393700787
 50
180.0000000015990906
 51
269.9999999994789164
  0
ARC
  5
11EE3
  8
0
 10
4315.218403255497833
 20
243.1083259311565996
 30
0.0
 40
0.0393700787
 50
180.0
 51
270.0
  0
ARC
  5
11EE4
  8
0
 10
4315.2577733341977364
 20
243.0295857736566916
 30
0.0
 40
0.0393700787
 50
25.8419327628923696
 51
76.6985759475113014
  0
ARC
  5
11EE5
  8
0
 10
4315.3876945939982761
 20
243.7303731752566023
 30
0.0
 40
0.0196850394
 50
0.0
 51
90.0
  0
ARC
  5
11EE6
  8
0
 10
4315.1672221530980096
 20
243.6595070334566913
 30
0.0
 40
0.0196850394
 50
0.0000000012994983
 51
90.0000000003126672
  0
LINE
  5
11EE9
  8
0
 10
4314.9880865956993148
 20
243.0003515814566981
 30
0.0
 11
4314.9881081118983275
 21
242.9988162538566883
 31
0.0
  0
LINE
  5
11EEA
  8
0
 10
4314.988357282598372
 20
242.9034621395566944
 30
0.0
 11
4314.9883437715980108
 21
242.9019267205567019
 31
0.0
  0
ARC
  5
11EEB
  8
0
 10
4314.403582975439349
 20
242.2167230807351075
 30
0.0
 40
0.1706683147642763
 50
192.6218026499279858
 51
205.3102612237580047
  0
LINE
  5
11EED
  8
0
 10
4315.1396630979979818
 20
242.1437590019567097
 30
0.0
 11
4315.1396630979979818
 21
165.72643616735661
 31
0.0
  0
LINE
  5
11EEE
  8
0
 10
4314.7341512869970757
 20
242.1831290807566006
 30
0.0
 11
4314.2370390854975994
 21
242.1831290807566006
 31
0.0
  0
LINE
  5
11EEF
  8
0
 10
4314.7774583735981651
 20
242.1831290807566006
 30
0.0
 11
4315.2932064050983172
 21
242.1831290807566006
 31
0.0
  0
LINE
  5
11EF0
  8
0
 10
4315.1396630979979818
 20
165.6083259311565996
 30
0.0
 11
4315.1396630979979818
 21
165.5413967972565956
 31
0.0
  0
ENDSEC
  0
EOF
