  0
SECTION
  2
HEADER
  9
$ACADVER
  1
AC1009
  9
$INSBASE
 10
4173.3516406043399911
 20
165.7670321452106066
 30
0.0
  9
$EXTMIN
 10
4172.9578217067410151
 20
165.7670321452106066
 30
0.0
  9
$EXTMAX
 10
4174.3042783997407241
 20
244.5780557672105999
 30
0.0
  9
$LIMMIN
 10
0.0
 20
0.0
  9
$LIMMAX
 10
11.6929133858000007
 20
8.2677165353999982
  9
$ORTHOMODE
 70
     0
  9
$REGENMODE
 70
     1
  9
$FILLMODE
 70
     1
  9
$QTEXTMODE
 70
     0
  9
$MIRRTEXT
 70
     0
  9
$DRAGMODE
 70
     2
  9
$LTSCALE
 40
0.6431102362
  9
$OSMODE
 70
  4095
  9
$ATTMODE
 70
     1
  9
$TEXTSIZE
 40
0.2
  9
$TRACEWID
 40
0.05
  9
$TEXTSTYLE
  7
STANDARD
  9
$CLAYER
  8
0
  9
$CELTYPE
  6
BYLAYER
  9
$CECOLOR
 62
   256
  9
$DIMSCALE
 40
1.0
  9
$DIMASZ
 40
0.1875
  9
$DIMEXO
 40
0.0625
  9
$DIMDLI
 40
0.4443307087
  9
$DIMRND
 40
0.0
  9
$DIMDLE
 40
0.0
  9
$DIMEXE
 40
0.125
  9
$DIMTP
 40
0.01
  9
$DIMTM
 40
0.01
  9
$DIMTXT
 40
2.0
  9
$DIMCEN
 40
0.1052362205
  9
$DIMTSZ
 40
0.0
  9
$DIMTOL
 70
     1
  9
$DIMLIM
 70
     0
  9
$DIMTIH
 70
     1
  9
$DIMTOH
 70
     1
  9
$DIMSE1
 70
     0
  9
$DIMSE2
 70
     0
  9
$DIMTAD
 70
     0
  9
$DIMZIN
 70
     0
  9
$DIMBLK
  1

  9
$DIMASO
 70
     1
  9
$DIMSHO
 70
     1
  9
$DIMPOST
  1
\X
  9
$DIMAPOST
  1

  9
$DIMALT
 70
     1
  9
$DIMALTD
 70
     2
  9
$DIMALTF
 40
25.3999999999999986
  9
$DIMLFAC
 40
1.0
  9
$DIMTOFL
 70
     0
  9
$DIMTVP
 40
0.0
  9
$DIMTIX
 70
     0
  9
$DIMSOXD
 70
     0
  9
$DIMSAH
 70
     0
  9
$DIMBLK1
  1

  9
$DIMBLK2
  1

  9
$DIMSTYLE
  2
STANDARD
  9
$DIMCLRD
 70
     0
  9
$DIMCLRE
 70
     0
  9
$DIMCLRT
 70
     0
  9
$DIMTFAC
 40
1.0
  9
$DIMGAP
 40
0.09
  9
$LUNITS
 70
     2
  9
$LUPREC
 70
     4
  9
$SKETCHINC
 40
0.1
  9
$FILLETRAD
 40
0.0
  9
$AUNITS
 70
     0
  9
$AUPREC
 70
     0
  9
$MENU
  1
.
  9
$ELEVATION
 40
0.0
  9
$PELEVATION
 40
0.0
  9
$THICKNESS
 40
0.0
  9
$LIMCHECK
 70
     0
  9
$BLIPMODE
 70
     0
  9
$CHAMFERA
 40
0.0
  9
$CHAMFERB
 40
0.0
  9
$SKPOLY
 70
     0
  9
$TDCREATE
 40
2458060.468368056230247
  9
$TDUPDATE
 40
2459534.8034490738064051
  9
$TDINDWG
 40
0.7503774306
  9
$TDUSRTIMER
 40
0.7503774306
  9
$USRTIMER
 70
     1
  9
$ANGBASE
 50
0.0
  9
$ANGDIR
 70
     0
  9
$PDMODE
 70
     0
  9
$PDSIZE
 40
0.3125
  9
$PLINEWID
 40
0.0
  9
$COORDS
 70
     1
  9
$SPLFRAME
 70
     0
  9
$SPLINETYPE
 70
     6
  9
$SPLINESEGS
 70
     8
  9
$ATTDIA
 70
     1
  9
$ATTREQ
 70
     1
  9
$HANDLING
 70
     1
  9
$HANDSEED
  5
11D8D
  9
$SURFTAB1
 70
     6
  9
$SURFTAB2
 70
     6
  9
$SURFTYPE
 70
     6
  9
$SURFU
 70
     6
  9
$SURFV
 70
     6
  9
$UCSNAME
  2

  9
$UCSORG
 10
0.0
 20
0.0
 30
0.0
  9
$UCSXDIR
 10
1.0
 20
0.0
 30
0.0
  9
$UCSYDIR
 10
0.0
 20
1.0
 30
0.0
  9
$PUCSNAME
  2

  9
$PUCSORG
 10
0.0
 20
0.0
 30
0.0
  9
$PUCSXDIR
 10
1.0
 20
0.0
 30
0.0
  9
$PUCSYDIR
 10
0.0
 20
1.0
 30
0.0
  9
$USERI1
 70
     0
  9
$USERI2
 70
     0
  9
$USERI3
 70
     0
  9
$USERI4
 70
     0
  9
$USERI5
 70
     0
  9
$USERR1
 40
0.0
  9
$USERR2
 40
0.0
  9
$USERR3
 40
0.0
  9
$USERR4
 40
0.0
  9
$USERR5
 40
0.0
  9
$WORLDVIEW
 70
     1
  9
$SHADEDGE
 70
     3
  9
$SHADEDIF
 70
    70
  9
$TILEMODE
 70
     1
  9
$MAXACTVP
 70
    64
  9
$PLIMCHECK
 70
     0
  9
$PEXTMIN
 10
1.0000000000000000E+20
 20
1.0000000000000000E+20
 30
1.0000000000000000E+20
  9
$PEXTMAX
 10
-1.0000000000000000E+20
 20
-1.0000000000000000E+20
 30
-1.0000000000000000E+20
  9
$PLIMMIN
 10
0.0
 20
0.0
  9
$PLIMMAX
 10
12.0
 20
9.0
  9
$UNITMODE
 70
     0
  9
$VISRETAIN
 70
     1
  9
$PLINEGEN
 70
     0
  9
$PSLTSCALE
 70
     1
  0
ENDSEC
  0
SECTION
  2
TABLES
  0
TABLE
  2
VPORT
 70
     1
  0
VPORT
  2
*ACTIVE
 70
     0
 10
0.0
 20
0.0
 11
1.0
 21
1.0
 12
529.5552443891788243
 22
45.2283034564129309
 13
0.0
 23
0.0
 14
1.0
 24
1.0
 15
0.0
 25
0.0
 16
0.0
 26
0.0
 36
26.6346482412083887
 17
3644.0758056640620453
 27
159.9442404997975871
 37
0.0
 40
79.4668712526962508
 41
2.6486111111111108
 42
50.0
 43
0.0
 44
0.0
 50
0.0
 51
0.0
 71
     0
 72
   100
 73
     1
 74
     1
 75
     0
 76
     0
 77
     0
 78
     0
  0
ENDTAB
  0
TABLE
  2
LTYPE
 70
     2
  0
LTYPE
  2
CONTINUOUS
 70
     0
  3
Solid line
 72
    65
 73
     0
 40
0.0
  0
LTYPE
  2
PHANTOM2
 70
     0
  3
___ _ _ ___ _ _ ___ _ _ ___ _ _
 72
    65
 73
     6
 40
1.25
 49
0.625
 49
-0.125
 49
0.125
 49
-0.125
 49
0.125
 49
-0.125
  0
ENDTAB
  0
TABLE
  2
LAYER
 70
     2
  0
LAYER
  2
0
 70
     0
 62
   255
  6
CONTINUOUS
  0
LAYER
  2
DEFPOINTS
 70
     0
 62
     7
  6
CONTINUOUS
  0
ENDTAB
  0
TABLE
  2
STYLE
 70
     1
  0
STYLE
  2
STANDARD
 70
     0
 40
0.0
 41
0.8
 50
0.0
 71
     0
 42
0.2
  3
txt
  4

  0
ENDTAB
  0
TABLE
  2
VIEW
 70
     0
  0
ENDTAB
  0
TABLE
  2
UCS
 70
     0
  0
ENDTAB
  0
TABLE
  2
APPID
 70
    10
  0
APPID
  2
ACAD
 70
     0
  0
APPID
  2
ACAD_MLEADERVER
 70
     0
  0
APPID
  2
ACAD_EXEMPT_FROM_CAD_STANDARDS
 70
     0
  0
APPID
  2
ACAD_NAV_VCDISPLAY
 70
     0
  0
APPID
  2
ACAECLAYERSTANDARD
 70
     0
  0
APPID
  2
ACCMTRANSPARENCY
 70
     0
  0
APPID
  2
ACAD_DSTYLE_DIMJAG
 70
     0
  0
APPID
  2
ACAD_DSTYLE_DIMTALN
 70
     0
  0
APPID
  2
ACDBATTR
 70
     0
  0
APPID
  2
ACAD_PSEXT
 70
     0
  0
ENDTAB
  0
TABLE
  2
DIMSTYLE
 70
     1
  0
DIMSTYLE
  2
STANDARD
 70
     0
  3

  4

  5

  6

  7

 40
1.0
 41
0.1875
 42
0.0625
 43
0.38
 44
0.125
 45
0.0
 46
0.0
 47
0.01
 48
0.01
140
0.15625
141
0.09
142
0.0
143
25.3999999999999986
144
1.0
145
0.0
146
1.0
147
0.09
 71
     1
 72
     0
 73
     1
 74
     1
 75
     0
 76
     0
 77
     0
 78
     4
170
     0
171
     2
172
     0
173
     0
174
     0
175
     0
176
     0
177
     0
178
     0
  0
ENDTAB
  0
ENDSEC
  0
SECTION
  2
BLOCKS
  0
BLOCK
  8
0
  2
$MODEL_SPACE
 70
     0
 10
0.0
 20
0.0
 30
0.0
  3
$MODEL_SPACE
  1

  0
ENDBLK
  5
21
  8
0
  0
BLOCK
 67
     1
  8
0
  2
$PAPER_SPACE
 70
     0
 10
0.0
 20
0.0
 30
0.0
  3
$PAPER_SPACE
  1

  0
ENDBLK
  5
1D
 67
     1
  8
0
  0
ENDSEC
  0
SECTION
  2
ENTITIES
  0
ATTDEF
  5
AA11
  8
DEFPOINTS
 10
4173.3479810546232329
 20
165.7715430585789136
 30
0.0
 40
0.001
  1
K-1.1922.023
  3

  2
MODELNUMBER
 70
     0
1001
ACDBATTR
1070
     0
1070
     1
  0
ATTDEF
  5
AA12
  8
DEFPOINTS
 10
4173.3479810546232329
 20
165.7698763919121916
 30
0.0
 40
0.001
  1

  3

  2
TRADENAME
 70
     0
1001
ACDBATTR
1070
     0
1070
     1
  0
ATTDEF
  5
AA13
  8
DEFPOINTS
 10
4173.3479810546232329
 20
165.7682097252456117
 30
0.0
 40
0.001
  1
SHOWER DOOR
  3

  2
PRODUCT
 70
     0
1001
ACDBATTR
1070
     0
1070
     1
  0
LINE
  5
11C56
  8
0
 10
4172.9578217067410151
 20
165.7670321452106066
 30
0.0
 11
4174.3042783996406797
 21
165.7670321452106066
 31
0.0
  0
LINE
  5
11C57
  8
0
 10
4173.5719949351414471
 20
165.8457723027105999
 30
0.0
 11
4173.1310500532408696
 21
165.8457723027105999
 31
0.0
  0
LINE
  5
11C58
  8
0
 10
4173.1271130453424121
 20
165.9048274208105909
 30
0.0
 11
4173.5759319429407697
 21
165.9048274208105909
 31
0.0
  0
LINE
  5
11C59
  8
0
 10
4173.4361681634409251
 20
165.9441974995106079
 30
0.0
 11
4173.199947691041416
 21
165.9441974995106079
 31
0.0
  0
LINE
  5
11C5A
  8
0
 10
4173.4401051713412016
 20
165.9796305704105919
 30
0.0
 11
4173.1960106831411395
 21
165.9796305704105919
 31
0.0
  0
LINE
  5
11C5B
  8
0
 10
4173.5759319429407697
 20
166.318213247510613
 30
0.0
 11
4173.5542783996406797
 21
166.318213247510613
 31
0.0
  0
LINE
  5
11C5C
  8
0
 10
4173.1271130453424121
 20
166.318213247510613
 30
0.0
 11
4173.1487665886397735
 21
166.318213247510613
 31
0.0
  0
LINE
  5
11C5D
  8
0
 10
4173.0838059587413227
 20
166.3693943499104932
 30
0.0
 11
4173.1487665886397735
 21
166.3693943499104932
 31
0.0
  0
LINE
  5
11C5E
  8
0
 10
4173.4755382421408285
 20
166.3693943012106047
 30
0.0
 11
4173.5424673138422804
 21
166.3693942890105859
 31
0.0
  0
LINE
  5
11C5F
  8
0
 10
4173.5542783996406797
 20
166.3693943499104932
 30
0.0
 11
4173.6192390295400401
 21
166.3693943499104932
 31
0.0
  0
LINE
  5
11C60
  8
0
 10
4173.5426550364409195
 20
166.3693943245106084
 30
0.0
 11
4173.5542783996406797
 21
166.3693943296105999
 31
0.0
  0
LINE
  5
11C61
  8
0
 10
4173.6546721005406653
 20
166.3693943499104932
 30
0.0
 11
4174.2845933602411606
 21
166.3693943499104932
 31
0.0
  0
LINE
  5
11C62
  8
0
 10
4173.6349870610411017
 20
166.3772683657105915
 30
0.0
 11
4173.6021961178412312
 21
166.3772683657105915
 31
0.0
  0
LINE
  5
11C63
  8
0
 10
4173.1605776122405587
 20
166.3772683657105915
 30
0.0
 11
4173.0759319429407697
 21
166.3772683657105915
 31
0.0
  0
LINE
  5
11C64
  8
0
 10
4173.6021961178412312
 20
166.3890793893106093
 30
0.0
 11
4174.1841996595412638
 21
166.3890793893106093
 31
0.0
  0
LINE
  5
11C65
  8
0
 10
4173.4755382421408285
 20
166.4363234838106109
 30
0.0
 11
4173.1605776122405587
 21
166.4363234838106109
 31
0.0
  0
LINE
  5
11C66
  8
0
 10
4174.28457839964085
 20
166.546210103910596
 30
0.0
 11
4174.1841996595412638
 21
166.546210103910596
 31
0.0
  0
LINE
  5
11C67
  8
0
 10
4172.9775067461423532
 20
166.5465597042104946
 30
0.0
 11
4173.1605776122405587
 21
166.5465597042104946
 31
0.0
  0
LINE
  5
11C68
  8
0
 10
4173.1605776122405587
 20
166.5544337200105929
 30
0.0
 11
4173.4755382421408285
 21
166.5544337200105929
 31
0.0
  0
LINE
  5
11C69
  8
0
 10
4173.182231155640693
 20
244.3123077358106059
 30
0.0
 11
4173.1626642263408939
 21
244.2927408065106079
 31
0.0
  0
LINE
  5
11C6A
  8
0
 10
4174.0779004469413849
 20
244.1351374148106004
 30
0.0
 11
4174.0385303681414371
 21
244.0957673360105957
 31
0.0
  0
LINE
  5
11C6B
  8
0
 10
4174.1172705256403788
 20
243.9186019817105944
 30
0.0
 11
4174.0779004469413849
 21
243.8792319030106057
 31
0.0
  0
LINE
  5
11C6C
  8
0
 10
4173.1605776122405587
 20
165.9835675782105966
 30
0.0
 11
4173.199947691041416
 21
165.9441974995106079
 31
0.0
  0
LINE
  5
11C6D
  8
0
 10
4173.4558532028413538
 20
165.9638825389106103
 30
0.0
 11
4173.4401051713412016
 21
165.9796305704105919
 31
0.0
  0
LINE
  5
11C6E
  8
0
 10
4173.6231760375412705
 20
243.0111266334106119
 30
0.0
 11
4173.6048174683410252
 21
242.9717565546106073
 31
0.0
  0
LINE
  5
11C6F
  8
0
 10
4172.9578217067410151
 20
165.7670321452106066
 30
0.0
 11
4172.9578217067410151
 21
166.5268746649105935
 31
0.0
  0
LINE
  5
11C70
  8
0
 10
4172.9854988720408073
 20
244.5477458125303087
 30
0.0
 11
4172.9854988720408073
 21
244.5071896255105912
 31
0.0
  0
LINE
  5
11C71
  8
0
 10
4173.0030972973409007
 20
243.5819927751105922
 30
0.0
 11
4173.0030972973409007
 21
244.4875045861105889
 31
0.0
  0
LINE
  5
11C72
  8
0
 10
4173.0701445412405519
 20
244.5071896255105912
 30
0.0
 11
4173.0701445412405519
 21
243.5623077357105899
 31
0.0
  0
LINE
  5
11C73
  8
0
 10
4173.0759319429407697
 20
166.3772683657105915
 30
0.0
 11
4173.0759319429407697
 21
165.7749061609106036
 31
0.0
  0
LINE
  5
11C74
  8
0
 10
4173.0759319429407697
 20
165.7749061609106036
 30
0.0
 11
4173.0759319429407697
 21
165.7670321452106066
 31
0.0
  0
LINE
  5
11C75
  8
0
 10
4173.0838059587413227
 20
243.0026836926105887
 30
0.0
 11
4173.0838059587413227
 21
243.5623077357105899
 31
0.0
  0
LINE
  5
11C76
  8
0
 10
4173.1192390295409496
 20
166.3103392318105875
 30
0.0
 11
4173.1192390295409496
 21
165.9127014365105879
 31
0.0
  0
LINE
  5
11C77
  8
0
 10
4173.1231760374412261
 20
165.7749061609106036
 30
0.0
 11
4173.1231760374412261
 21
165.8378982869105869
 31
0.0
  0
LINE
  5
11C78
  8
0
 10
4173.1605776122405587
 20
166.3300242712105899
 30
0.0
 11
4173.1605776122405587
 21
166.3575833263105892
 31
0.0
  0
LINE
  5
11C79
  8
0
 10
4173.1605776122405587
 20
242.9717565546106073
 30
0.0
 11
4173.1605776122405587
 21
166.3575833263105892
 31
0.0
  0
LINE
  5
11C7A
  8
0
 10
4173.1605776122405587
 20
166.3300242712105899
 30
0.0
 11
4173.1605776122405587
 21
165.9835675782105966
 31
0.0
  0
LINE
  5
11C7B
  8
0
 10
4173.1626642263408939
 20
244.318213247510613
 30
0.0
 11
4173.1626642263408939
 21
243.5623077357105899
 31
0.0
  0
LINE
  5
11C7C
  8
0
 10
4173.182231155640693
 20
243.5623077357105899
 30
0.0
 11
4173.182231155640693
 21
244.3473246971105937
 31
0.0
  0
LINE
  5
11C7D
  8
0
 10
4173.1960106831411395
 20
242.9717565546106073
 30
0.0
 11
4173.1960106831411395
 21
166.5544337200105929
 31
0.0
  0
LINE
  5
11C7E
  8
0
 10
4173.1960106831411395
 20
166.4363234838106109
 30
0.0
 11
4173.1960106831411395
 21
165.9796305704105919
 31
0.0
  0
LINE
  5
11C7F
  8
0
 10
4173.4401051713412016
 20
165.9796305704105919
 30
0.0
 11
4173.4401051713412016
 21
166.4363234838106109
 31
0.0
  0
LINE
  5
11C80
  8
0
 10
4173.4401051713412016
 20
166.5544337200105929
 30
0.0
 11
4173.4401051713412016
 21
242.9717565546106073
 31
0.0
  0
LINE
  5
11C81
  8
0
 10
4173.4445571231408394
 20
166.4363234838106109
 30
0.0
 11
4173.4445571231408394
 21
166.5544337200105929
 31
0.0
  0
LINE
  5
11C82
  8
0
 10
4173.4755382421408285
 20
165.9835675782105966
 30
0.0
 11
4173.4755382421408285
 21
166.4363234838106109
 31
0.0
  0
LINE
  5
11C83
  8
0
 10
4173.4755382421408285
 20
166.5544337200105929
 30
0.0
 11
4173.4755382421408285
 21
242.9717565546106073
 31
0.0
  0
LINE
  5
11C84
  8
0
 10
4173.4776248562411638
 20
243.5623077357105899
 30
0.0
 11
4173.4776248562411638
 21
244.318213247510613
 31
0.0
  0
LINE
  5
11C85
  8
0
 10
4173.4971917235397996
 20
166.3693942857105981
 30
0.0
 11
4173.4971917235397996
 21
242.9717565546106073
 31
0.0
  0
LINE
  5
11C86
  8
0
 10
4173.509002747339764
 20
242.9717565546106073
 30
0.0
 11
4173.509002747339764
 21
166.3693942837105908
 31
0.0
  0
LINE
  5
11C87
  8
0
 10
4173.5424673138422804
 20
166.3693942890105859
 30
0.0
 11
4173.5424673138422804
 21
242.9717565546106073
 31
0.0
  0
LINE
  5
11C88
  8
0
 10
4173.5424673760398946
 20
166.3575833263105892
 30
0.0
 11
4173.5424673760398946
 21
166.3300242712105899
 31
0.0
  0
LINE
  5
11C89
  8
0
 10
4173.5620273647409704
 20
166.3693943330106038
 30
0.0
 11
4173.5620273647409704
 21
242.9717565546106073
 31
0.0
  0
LINE
  5
11C8A
  8
0
 10
4173.5798689508410462
 20
165.7749061609106036
 30
0.0
 11
4173.5798689508410462
 21
165.8378982869105869
 31
0.0
  0
LINE
  5
11C8B
  8
0
 10
4173.5838059587413227
 20
165.9127014365105879
 30
0.0
 11
4173.5838059587413227
 21
166.3103392318105875
 31
0.0
  0
LINE
  5
11C8C
  8
0
 10
4173.6021961178412312
 20
166.3693943533106108
 30
0.0
 11
4173.6021961178412312
 21
242.9717565546106073
 31
0.0
  0
LINE
  5
11C8D
  8
0
 10
4173.6231760375412705
 20
243.5623077357105899
 30
0.0
 11
4173.6231760375412705
 21
243.0111266334106119
 31
0.0
  0
LINE
  5
11C8E
  8
0
 10
4173.6271130453405931
 20
166.3615203342106099
 30
0.0
 11
4173.6271130453405931
 21
165.7749061609106036
 31
0.0
  0
LINE
  5
11C8F
  8
0
 10
4173.6349870610411017
 20
165.7670321452106066
 30
0.0
 11
4173.6349870610411017
 21
166.3772683657105915
 31
0.0
  0
LINE
  5
11C90
  8
0
 10
4173.7057347469408342
 20
166.3890793893106093
 30
0.0
 11
4173.7057347469408342
 21
166.3693943499104932
 31
0.0
  0
LINE
  5
11C91
  8
0
 10
4173.7177823367410383
 20
244.5477458125241981
 30
0.0
 11
4173.7177823367410383
 21
243.5623077357105899
 31
0.0
  0
LINE
  5
11C92
  8
0
 10
4173.9450529915402512
 20
243.5150636412105882
 30
0.0
 11
4173.9450529915402512
 21
166.3890793893106093
 31
0.0
  0
LINE
  5
11C93
  8
0
 10
4174.0779004469413849
 20
244.2808067061106101
 30
0.0
 11
4174.0779004469413849
 21
244.1351374148106004
 31
0.0
  0
LINE
  5
11C94
  8
0
 10
4174.1172705256403788
 20
243.9186019817105944
 30
0.0
 11
4174.1172705256403788
 21
243.9776570998106138
 31
0.0
  0
LINE
  5
11C95
  8
0
 10
4174.1841996595412638
 20
243.5150636412105882
 30
0.0
 11
4174.1841996595412638
 21
166.3890793893106093
 31
0.0
  0
LINE
  5
11C96
  8
0
 10
4174.3042783996406797
 20
166.5265101039105957
 30
0.0
 11
4174.3042783996406797
 21
165.7670321452106066
 31
0.0
  0
ARC
  5
11C97
  8
0
 10
4174.28457839964085
 20
166.5265101039105957
 30
0.0
 40
0.0197
 50
0.0
 51
90.0
  0
LINE
  5
11C98
  8
0
 10
4173.0982275200412914
 20
242.9717565546106073
 30
0.0
 11
4173.0838059587413227
 21
243.0026836926105887
 31
0.0
  0
LINE
  5
11C99
  8
0
 10
4173.1802626516409873
 20
165.9638825389106103
 30
0.0
 11
4173.1960106831411395
 21
165.9796305704105919
 31
0.0
  0
LINE
  5
11C9A
  8
0
 10
4173.4361681634409251
 20
165.9441974995106079
 30
0.0
 11
4173.4755382421408285
 21
165.9835675782105966
 31
0.0
  0
LINE
  5
11C9B
  8
0
 10
4173.1802626516409873
 20
244.3103392318105875
 30
0.0
 11
4173.182231155640693
 21
244.3083707278105976
 31
0.0
  0
LINE
  5
11C9C
  8
0
 10
4174.0779004469413849
 20
244.0170271785106024
 30
0.0
 11
4174.1172705256403788
 21
243.9776570998106138
 31
0.0
  0
LINE
  5
11C9D
  8
0
 10
4174.0385303681414371
 20
244.3201767848105987
 30
0.0
 11
4174.0779004469413849
 21
244.2808067061106101
 31
0.0
  0
LINE
  5
11C9E
  8
0
 10
4173.0982275200412914
 20
242.9717565546106073
 30
0.0
 11
4173.6048174683410252
 21
242.9717565546106073
 31
0.0
  0
LINE
  5
11C9F
  8
0
 10
4174.1841996595412638
 20
243.5150636412105882
 30
0.0
 11
4173.6231760375412705
 21
243.5150636412105882
 31
0.0
  0
LINE
  5
11CA0
  8
0
 10
4173.0227823366412849
 20
243.5623077357105899
 30
0.0
 11
4173.1626642263408939
 21
243.5623077357105899
 31
0.0
  0
LINE
  5
11CA1
  8
0
 10
4173.182231155640693
 20
243.5623077357105899
 30
0.0
 11
4173.7177823367410383
 21
243.5623077357105899
 31
0.0
  0
LINE
  5
11CA2
  8
0
 10
4173.182231155640693
 20
243.8747443457106101
 30
0.0
 11
4173.1626642263408939
 21
243.8747443457106101
 31
0.0
  0
LINE
  5
11CA3
  8
0
 10
4174.0779004469413849
 20
243.8792319030106057
 30
0.0
 11
4173.7177823367410383
 21
243.8792319030106057
 31
0.0
  0
LINE
  5
11CA4
  8
0
 10
4173.1626642263408939
 20
243.8969534050106063
 30
0.0
 11
4173.182231155640693
 21
243.8969534050106063
 31
0.0
  0
LINE
  5
11CA5
  8
0
 10
4173.7177823367410383
 20
244.0170271785106024
 30
0.0
 11
4174.0779004469413849
 21
244.0170271785106024
 31
0.0
  0
LINE
  5
11CA6
  8
0
 10
4174.0385303681414371
 20
244.0957673360105957
 30
0.0
 11
4173.7177823367410383
 21
244.0957673360105957
 31
0.0
  0
LINE
  5
11CA7
  8
0
 10
4173.7177823367410383
 20
244.3201767848105987
 30
0.0
 11
4174.0385303681414371
 21
244.3201767848105987
 31
0.0
  0
LINE
  5
11CA8
  8
0
 10
4173.4461287932408595
 20
244.3497093105106046
 30
0.0
 11
4173.1941602893411982
 21
244.3497093105106046
 31
0.0
  0
LINE
  5
11CA9
  8
0
 10
4172.9854988720408073
 20
244.5071896255105912
 30
0.0
 11
4173.0701445412405519
 21
244.5071896255105912
 31
0.0
  0
ARC
  5
11CAA
  8
0
 10
4172.9775067461423532
 20
166.5268746649105935
 30
0.0
 40
0.0196850394
 50
90.0
 51
180.0
  0
ARC
  5
11CAB
  8
0
 10
4173.1487665886397735
 20
166.3300242712105899
 30
0.0
 40
0.0118110236
 50
270.0
 51
0.0
  0
ARC
  5
11CAC
  8
0
 10
4173.5542783996406797
 20
166.3300242712105899
 30
0.0
 40
0.0118110236
 50
180.0
 51
270.0
  0
ARC
  5
11CAD
  8
0
 10
4173.5542783996406797
 20
166.3575833263105892
 30
0.0
 40
0.0118110236
 50
90.0
 51
180.0
  0
ARC
  5
11CAE
  8
0
 10
4173.1487665886397735
 20
166.3575833263105892
 30
0.0
 40
0.0118110236
 50
0.0
 51
90.0
  0
ARC
  5
11CAF
  8
0
 10
4173.1271130453424121
 20
166.3103392318105875
 30
0.0
 40
0.0078740157
 50
90.0
 51
180.0
  0
ARC
  5
11CB0
  8
0
 10
4173.1271130453424121
 20
165.9127014365105879
 30
0.0
 40
0.0078740157
 50
180.0
 51
270.0
  0
ARC
  5
11CB1
  8
0
 10
4173.5759319429407697
 20
165.9127014365105879
 30
0.0
 40
0.0078740157
 50
270.0
 51
0.0
  0
ARC
  5
11CB2
  8
0
 10
4173.5759319429407697
 20
166.3103392318105875
 30
0.0
 40
0.0078740157
 50
0.0
 51
90.0
  0
ARC
  5
11CB3
  8
0
 10
4173.6192390295400401
 20
166.3615203342106099
 30
0.0
 40
0.0078740157
 50
0.0
 51
90.0
  0
ARC
  5
11CB4
  8
0
 10
4173.6192390295400401
 20
165.7749061609106036
 30
0.0
 40
0.0078740157
 50
270.0
 51
0.0
  0
ARC
  5
11CB5
  8
0
 10
4173.5877429665406453
 20
165.7749061609106036
 30
0.0
 40
0.0078740157
 50
180.0
 51
270.0
  0
ARC
  5
11CB6
  8
0
 10
4173.5719949351414471
 20
165.8378982869105869
 30
0.0
 40
0.0078740157
 50
0.0
 51
90.0
  0
ARC
  5
11CB7
  8
0
 10
4173.1310500532408696
 20
165.8378982869105869
 30
0.0
 40
0.0078740157
 50
90.0
 51
180.0
  0
ARC
  5
11CB8
  8
0
 10
4173.1153020217407175
 20
165.7749061609106036
 30
0.0
 40
0.0078740157
 50
270.0
 51
0.0
  0
ARC
  5
11CB9
  8
0
 10
4173.0838059587413227
 20
165.7749061609106036
 30
0.0
 40
0.0078740157
 50
180.0
 51
270.0
  0
ARC
  5
11CBA
  8
0
 10
4173.0838059587413227
 20
166.3615203342106099
 30
0.0
 40
0.0078740157
 50
90.0
 51
180.0
  0
ARC
  5
11CBB
  8
0
 10
4173.3516406043399911
 20
238.8969534032106026
 30
0.0
 40
5.681102364
 50
86.4916716526061151
 51
93.508328346349856
  0
ARC
  5
11CBC
  8
0
 10
4173.6980823367402991
 20
244.5477458125241981
 30
0.0
 40
0.0197
 50
0.0
 51
86.4916716526061151
  0
ARC
  5
11CBD
  8
0
 10
4173.0051988720397276
 20
244.5477458125303087
 30
0.0
 40
0.0197
 50
93.5083283463497565
 51
180.0
  0
ARC
  5
11CBE
  8
0
 10
4173.4461287932408595
 20
244.318213247510613
 30
0.0
 40
0.031496063
 50
0.0
 51
90.0
  0
ARC
  5
11CBF
  8
0
 10
4173.1941602893411982
 20
244.318213247510613
 30
0.0
 40
0.031496063
 50
90.0
 51
180.0
  0
ARC
  5
11CC0
  8
0
 10
4173.0227823366412849
 20
243.5819927751105922
 30
0.0
 40
0.0196850394
 50
180.0
 51
270.0
  0
ARC
  5
11CC1
  8
0
 10
4173.0227823366412849
 20
244.4875045861105889
 30
0.0
 40
0.0196850394
 50
90.0
 51
180.0
  0
ARC
  5
11CC2
  8
0
 10
4174.284593360341205
 20
166.3497093105106046
 30
0.0
 40
0.0196850394
 50
0.0
 51
90.000000023918588
  0
ARC
  5
11CC3
  8
0
 10
4173.6546721004406209
 20
166.3497093105106046
 30
0.0
 40
0.0196850394
 50
89.9999999413760037
 51
180.0
  0
LINE
  5
11CC4
  8
0
 10
4174.0385303681414371
 20
244.0957673360105957
 30
0.0
 11
4174.0385303681414371
 21
244.3201767848105987
 31
0.0
  0
LINE
  5
11CC5
  8
0
 10
4174.0779004469413849
 20
243.8792319030106057
 30
0.0
 11
4174.0779004469413849
 21
244.0170271785106024
 31
0.0
  0
LINE
  5
11CC7
  8
0
 10
4173.6231760375412705
 20
243.0111266334106119
 30
0.0
 11
4173.0838059587413227
 21
243.0111266334106119
 31
0.0
  0
ENDSEC
  0
EOF
