  0
SECTION
  2
HEADER
  9
$ACADVER
  1
AC1009
  9
$INSBASE
 10
3946.7995748515941159
 20
231.8092545790806014
 30
0.0
  9
$EXTMIN
 10
3915.6973031979441657
 20
229.4507388337806049
 30
0.0
  9
$EXTMAX
 10
3977.9018465051440216
 20
233.7814474951806005
 30
0.0
  9
$LIMMIN
 10
0.0
 20
0.0
  9
$LIMMAX
 10
11.6929133858000007
 20
8.2677165353999982
  9
$ORTHOMODE
 70
     0
  9
$REGENMODE
 70
     1
  9
$FILLMODE
 70
     1
  9
$QTEXTMODE
 70
     0
  9
$MIRRTEXT
 70
     0
  9
$DRAGMODE
 70
     2
  9
$LTSCALE
 40
0.6431102362
  9
$OSMODE
 70
  4095
  9
$ATTMODE
 70
     1
  9
$TEXTSIZE
 40
0.2
  9
$TRACEWID
 40
0.05
  9
$TEXTSTYLE
  7
STANDARD
  9
$CLAYER
  8
0
  9
$CELTYPE
  6
BYLAYER
  9
$CECOLOR
 62
   256
  9
$DIMSCALE
 40
1.0
  9
$DIMASZ
 40
0.1875
  9
$DIMEXO
 40
0.0625
  9
$DIMDLI
 40
0.4443307087
  9
$DIMRND
 40
0.0
  9
$DIMDLE
 40
0.0
  9
$DIMEXE
 40
0.125
  9
$DIMTP
 40
0.01
  9
$DIMTM
 40
0.01
  9
$DIMTXT
 40
2.0
  9
$DIMCEN
 40
0.1052362205
  9
$DIMTSZ
 40
0.0
  9
$DIMTOL
 70
     1
  9
$DIMLIM
 70
     0
  9
$DIMTIH
 70
     1
  9
$DIMTOH
 70
     1
  9
$DIMSE1
 70
     0
  9
$DIMSE2
 70
     0
  9
$DIMTAD
 70
     0
  9
$DIMZIN
 70
     0
  9
$DIMBLK
  1

  9
$DIMASO
 70
     1
  9
$DIMSHO
 70
     1
  9
$DIMPOST
  1
\X
  9
$DIMAPOST
  1

  9
$DIMALT
 70
     1
  9
$DIMALTD
 70
     2
  9
$DIMALTF
 40
25.3999999999999986
  9
$DIMLFAC
 40
1.0
  9
$DIMTOFL
 70
     0
  9
$DIMTVP
 40
0.0
  9
$DIMTIX
 70
     0
  9
$DIMSOXD
 70
     0
  9
$DIMSAH
 70
     0
  9
$DIMBLK1
  1

  9
$DIMBLK2
  1

  9
$DIMSTYLE
  2
STANDARD
  9
$DIMCLRD
 70
     0
  9
$DIMCLRE
 70
     0
  9
$DIMCLRT
 70
     0
  9
$DIMTFAC
 40
1.0
  9
$DIMGAP
 40
0.09
  9
$LUNITS
 70
     2
  9
$LUPREC
 70
     4
  9
$SKETCHINC
 40
0.1
  9
$FILLETRAD
 40
0.0
  9
$AUNITS
 70
     0
  9
$AUPREC
 70
     0
  9
$MENU
  1
.
  9
$ELEVATION
 40
0.0
  9
$PELEVATION
 40
0.0
  9
$THICKNESS
 40
0.0
  9
$LIMCHECK
 70
     0
  9
$BLIPMODE
 70
     0
  9
$CHAMFERA
 40
0.0
  9
$CHAMFERB
 40
0.0
  9
$SKPOLY
 70
     0
  9
$TDCREATE
 40
2458060.468368056230247
  9
$TDUPDATE
 40
2459506.7605787040665746
  9
$TDINDWG
 40
0.7293357639
  9
$TDUSRTIMER
 40
0.7293357639
  9
$USRTIMER
 70
     1
  9
$ANGBASE
 50
0.0
  9
$ANGDIR
 70
     0
  9
$PDMODE
 70
     0
  9
$PDSIZE
 40
0.3125
  9
$PLINEWID
 40
0.0
  9
$COORDS
 70
     1
  9
$SPLFRAME
 70
     0
  9
$SPLINETYPE
 70
     6
  9
$SPLINESEGS
 70
     8
  9
$ATTDIA
 70
     1
  9
$ATTREQ
 70
     1
  9
$HANDLING
 70
     1
  9
$HANDSEED
  5
110B9
  9
$SURFTAB1
 70
     6
  9
$SURFTAB2
 70
     6
  9
$SURFTYPE
 70
     6
  9
$SURFU
 70
     6
  9
$SURFV
 70
     6
  9
$UCSNAME
  2

  9
$UCSORG
 10
0.0
 20
0.0
 30
0.0
  9
$UCSXDIR
 10
1.0
 20
0.0
 30
0.0
  9
$UCSYDIR
 10
0.0
 20
1.0
 30
0.0
  9
$PUCSNAME
  2

  9
$PUCSORG
 10
0.0
 20
0.0
 30
0.0
  9
$PUCSXDIR
 10
1.0
 20
0.0
 30
0.0
  9
$PUCSYDIR
 10
0.0
 20
1.0
 30
0.0
  9
$USERI1
 70
     0
  9
$USERI2
 70
     0
  9
$USERI3
 70
     0
  9
$USERI4
 70
     0
  9
$USERI5
 70
     0
  9
$USERR1
 40
0.0
  9
$USERR2
 40
0.0
  9
$USERR3
 40
0.0
  9
$USERR4
 40
0.0
  9
$USERR5
 40
0.0
  9
$WORLDVIEW
 70
     1
  9
$SHADEDGE
 70
     3
  9
$SHADEDIF
 70
    70
  9
$TILEMODE
 70
     1
  9
$MAXACTVP
 70
    64
  9
$PLIMCHECK
 70
     0
  9
$PEXTMIN
 10
1.0000000000000000E+20
 20
1.0000000000000000E+20
 30
1.0000000000000000E+20
  9
$PEXTMAX
 10
-1.0000000000000000E+20
 20
-1.0000000000000000E+20
 30
-1.0000000000000000E+20
  9
$PLIMMIN
 10
0.0
 20
0.0
  9
$PLIMMAX
 10
12.0
 20
9.0
  9
$UNITMODE
 70
     0
  9
$VISRETAIN
 70
     1
  9
$PLINEGEN
 70
     0
  9
$PSLTSCALE
 70
     1
  0
ENDSEC
  0
SECTION
  2
TABLES
  0
TABLE
  2
VPORT
 70
     1
  0
VPORT
  2
*ACTIVE
 70
     0
 10
0.0
 20
0.0
 11
1.0
 21
1.0
 12
302.6837132514111204
 22
71.697090253706989
 13
0.0
 23
0.0
 14
1.0
 24
1.0
 15
0.0
 25
0.0
 16
0.0
 26
0.0
 36
26.6346482412083887
 17
3644.0758056640620453
 27
159.9442404997975871
 37
0.0
 40
22.0769736678122115
 41
2.8393393393393391
 42
50.0
 43
0.0
 44
0.0
 50
0.0
 51
0.0
 71
     0
 72
   100
 73
     1
 74
     1
 75
     0
 76
     0
 77
     0
 78
     0
  0
ENDTAB
  0
TABLE
  2
LTYPE
 70
     2
  0
LTYPE
  2
CONTINUOUS
 70
     0
  3
Solid line
 72
    65
 73
     0
 40
0.0
  0
LTYPE
  2
PHANTOM2
 70
     0
  3
___ _ _ ___ _ _ ___ _ _ ___ _ _
 72
    65
 73
     6
 40
1.25
 49
0.625
 49
-0.125
 49
0.125
 49
-0.125
 49
0.125
 49
-0.125
  0
ENDTAB
  0
TABLE
  2
LAYER
 70
     2
  0
LAYER
  2
0
 70
     0
 62
   255
  6
CONTINUOUS
  0
LAYER
  2
DEFPOINTS
 70
     0
 62
     7
  6
CONTINUOUS
  0
ENDTAB
  0
TABLE
  2
STYLE
 70
     1
  0
STYLE
  2
STANDARD
 70
     0
 40
0.0
 41
0.8
 50
0.0
 71
     0
 42
0.2
  3
txt
  4

  0
ENDTAB
  0
TABLE
  2
VIEW
 70
     0
  0
ENDTAB
  0
TABLE
  2
UCS
 70
     0
  0
ENDTAB
  0
TABLE
  2
APPID
 70
    10
  0
APPID
  2
ACAD
 70
     0
  0
APPID
  2
ACAD_MLEADERVER
 70
     0
  0
APPID
  2
ACAD_EXEMPT_FROM_CAD_STANDARDS
 70
     0
  0
APPID
  2
ACAD_NAV_VCDISPLAY
 70
     0
  0
APPID
  2
ACAECLAYERSTANDARD
 70
     0
  0
APPID
  2
ACCMTRANSPARENCY
 70
     0
  0
APPID
  2
ACAD_DSTYLE_DIMJAG
 70
     0
  0
APPID
  2
ACAD_DSTYLE_DIMTALN
 70
     0
  0
APPID
  2
ACDBATTR
 70
     0
  0
APPID
  2
ACAD_PSEXT
 70
     0
  0
ENDTAB
  0
TABLE
  2
DIMSTYLE
 70
     1
  0
DIMSTYLE
  2
STANDARD
 70
     0
  3

  4

  5

  6

  7

 40
1.0
 41
0.1875
 42
0.0625
 43
0.38
 44
0.125
 45
0.0
 46
0.0
 47
0.01
 48
0.01
140
0.15625
141
0.09
142
0.0
143
25.3999999999999986
144
1.0
145
0.0
146
1.0
147
0.09
 71
     1
 72
     0
 73
     1
 74
     1
 75
     0
 76
     0
 77
     0
 78
     4
170
     0
171
     2
172
     0
173
     0
174
     0
175
     0
176
     0
177
     0
178
     0
  0
ENDTAB
  0
ENDSEC
  0
SECTION
  2
BLOCKS
  0
BLOCK
  8
0
  2
$MODEL_SPACE
 70
     0
 10
0.0
 20
0.0
 30
0.0
  3
$MODEL_SPACE
  1

  0
ENDBLK
  5
21
  8
0
  0
BLOCK
 67
     1
  8
0
  2
$PAPER_SPACE
 70
     0
 10
0.0
 20
0.0
 30
0.0
  3
$PAPER_SPACE
  1

  0
ENDBLK
  5
1D
 67
     1
  8
0
  0
ENDSEC
  0
SECTION
  2
ENTITIES
  0
ATTDEF
  5
AA11
  8
DEFPOINTS
 10
3946.7955425176050994
 20
231.8064461442396862
 30
0.0
 40
0.001
  1
K-1.1922.021
  3

  2
MODELNUMBER
 70
     0
1001
ACDBATTR
1070
     0
1070
     1
  0
ATTDEF
  5
AA12
  8
DEFPOINTS
 10
3946.7955425176050994
 20
231.8047794775729926
 30
0.0
 40
0.001
  1

  3

  2
TRADENAME
 70
     0
1001
ACDBATTR
1070
     0
1070
     1
  0
ATTDEF
  5
AA13
  8
DEFPOINTS
 10
3946.7955425176050994
 20
231.8031128109064127
 30
0.0
 40
0.001
  1
SHOWER DOOR
  3

  2
PRODUCT
 70
     0
1001
ACDBATTR
1070
     0
1070
     1
  0
LINE
  5
10F77
  8
0
 10
3915.6973031980442101
 20
233.0332118630805951
 30
0.0
 11
3915.6973031980442101
 21
233.0135278844805953
 31
0.0
  0
LINE
  5
10F78
  8
0
 10
3915.6973031979441657
 20
230.6049812736806075
 30
0.0
 11
3915.6973031980442101
 21
233.0135278844805953
 31
0.0
  0
LINE
  5
10F79
  8
0
 10
3917.2721063476437848
 20
233.0135278844805953
 30
0.0
 11
3917.2721063476437848
 21
230.6049812736806075
 31
0.0
  0
LINE
  5
10F7A
  8
0
 10
3917.2721063476437848
 20
233.0135278844805953
 30
0.0
 11
3917.2721063476437848
 21
233.0332118630805951
 31
0.0
  0
LINE
  5
10F7B
  8
0
 10
3917.3193504420441968
 20
232.9841185690806071
 30
0.0
 11
3917.3193504420441968
 21
232.9896184918806057
 31
0.0
  0
LINE
  5
10F7C
  8
0
 10
3917.5870654481441306
 20
232.9841185690806071
 30
0.0
 11
3917.5870661954431853
 21
233.0292694567806109
 31
0.0
  0
LINE
  5
10F7D
  8
0
 10
3918.8270827255441873
 20
230.1462055604806096
 30
0.0
 11
3918.8270827255441873
 21
230.6443513522806086
 31
0.0
  0
LINE
  5
10F7E
  8
0
 10
3918.8270827255441873
 20
232.9841185690806071
 30
0.0
 11
3918.8270827255441873
 21
233.0859807684805958
 31
0.0
  0
LINE
  5
10F7F
  8
0
 10
3919.4176339066439141
 20
233.0859807684805958
 30
0.0
 11
3919.4176339066439141
 21
232.9841185690806071
 31
0.0
  0
LINE
  5
10F80
  8
0
 10
3919.4176339066439141
 20
230.6443513522806086
 30
0.0
 11
3919.4176339066439141
 21
230.1462055604806096
 31
0.0
  0
LINE
  5
10F81
  8
0
 10
3977.8624764263440738
 20
230.5656111948806029
 30
0.0
 11
3976.3664134342438956
 21
230.5656111948806029
 31
0.0
  0
LINE
  5
10F82
  8
0
 10
3917.232736268843837
 20
230.5656111949805904
 30
0.0
 11
3915.736673276743204
 21
230.5656111949805904
 31
0.0
  0
LINE
  5
10F83
  8
0
 10
3976.3270433554439478
 20
230.6443513523805962
 30
0.0
 11
3917.2721063476437848
 21
230.6443513522806086
 31
0.0
  0
LINE
  5
10F84
  8
0
 10
3917.2721063476437848
 20
231.0330874260806127
 30
0.0
 11
3976.3270433554439478
 21
231.0330874261806002
 31
0.0
  0
LINE
  5
10F85
  8
0
 10
3917.2721063476437848
 20
231.1436881884806098
 30
0.0
 11
3976.3270433554439478
 21
231.1436881885805974
 31
0.0
  0
LINE
  5
10F86
  8
0
 10
3976.3270433554439478
 20
232.8975026131805919
 30
0.0
 11
3917.2721063476437848
 21
232.8975026130806043
 31
0.0
  0
LINE
  5
10F87
  8
0
 10
3917.2721063476437848
 20
232.9841185690806071
 30
0.0
 11
3976.3270433554439478
 21
232.9841185691805094
 31
0.0
  0
LINE
  5
10F88
  8
0
 10
3917.2917916406440781
 20
233.0489595564806109
 30
0.0
 11
3917.5673814912438502
 21
233.0489548219806011
 31
0.0
  0
LINE
  5
10F89
  8
0
 10
3948.3976774273442061
 20
233.0044789780806127
 30
0.0
 11
3948.5536864638438601
 21
232.9841185690806071
 31
0.0
  0
LINE
  5
10F8A
  8
0
 10
3976.3270433554439478
 20
230.6049812736806075
 30
0.0
 11
3976.3270433554439478
 21
233.0135278843806077
 31
0.0
  0
LINE
  5
10F8B
  8
0
 10
3976.3270433555439922
 20
233.0135278843806077
 30
0.0
 11
3976.3270433555439922
 21
233.0332118628805915
 31
0.0
  0
LINE
  5
10F8C
  8
0
 10
3977.9018465051440216
 20
233.0332118628805915
 30
0.0
 11
3977.9018465051440216
 21
233.0135278844805953
 31
0.0
  0
LINE
  5
10F8D
  8
0
 10
3977.9018465050430677
 20
233.0135278844805953
 30
0.0
 11
3977.9018465050430677
 21
230.6049812736806075
 31
0.0
  0
ARC
  5
10F8E
  8
0
 10
3916.4847047727439531
 20
211.8350828948805997
 30
0.0
 40
21.2317110569999983
 50
87.9261613965909135
 51
92.0738386028094453
  0
ARC
  5
10F8F
  8
0
 10
3916.4847047727439531
 20
211.8160454215806112
 30
0.0
 40
21.2310652737000005
 50
87.9258055735971453
 51
92.0741944260899885
  0
ARC
  5
10F90
  8
0
 10
3919.1223583161440729
 20
229.8444396211806122
 30
0.0
 40
0.3937007874
 50
143.8710725278968141
 51
36.128927471703193
  0
ARC
  5
10F91
  8
0
 10
3919.5357441429441678
 20
230.1462055604806096
 30
0.0
 40
0.1181102362
 50
179.9999999997997122
 51
216.1289274717032072
  0
ARC
  5
10F92
  8
0
 10
3918.7089724893430684
 20
230.1462055604806096
 30
0.0
 40
0.1181102362
 50
323.8710725278967857
 51
359.9999999997996838
  0
ARC
  5
10F93
  8
0
 10
3915.736673276743204
 20
230.6049812736806075
 30
0.0
 40
0.0393700787
 50
179.9999999998989892
 51
269.999999999895806
  0
ARC
  5
10F94
  8
0
 10
3917.232736268843837
 20
230.6049812736806075
 30
0.0
 40
0.0393700787
 50
269.999999999895806
 51
359.9999999998991029
  0
ARC
  5
10F95
  8
0
 10
3919.1223583161440729
 20
233.3877467077805932
 30
0.0
 40
0.3937007874
 50
323.8710725278967857
 51
216.1289274717032072
  0
ARC
  5
10F96
  8
0
 10
3918.7089724893430684
 20
233.0859807684805958
 30
0.0
 40
0.1181102362
 50
0.0
 51
36.128927471703193
  0
ARC
  5
10F97
  8
0
 10
3919.5357441429441678
 20
233.0859807684805958
 30
0.0
 40
0.1181102362
 50
143.8710725278968141
 51
179.9999999997997122
  0
ARC
  5
10F98
  8
0
 10
3917.2799803633429292
 20
232.9896184918806057
 30
0.0
 40
0.0393700787
 50
0.0000008978002582
 51
81.7867892864042147
  0
ARC
  5
10F99
  8
0
 10
3917.5673811561441653
 20
233.0292697826805863
 30
0.0
 40
0.0196850394
 50
359.9990456211991727
 51
89.9990201747050236
  0
ARC
  5
10F9A
  8
0
 10
3917.2917913869441691
 20
233.0292745170806086
 30
0.0
 40
0.0196850394
 50
89.9991387416082347
 51
180.0
  0
ARC
  5
10F9B
  8
0
 10
3915.7169882373441396
 20
233.0332118630805951
 30
0.0
 40
0.0196850394
 50
91.7585190217867392
 51
179.9999999909001929
  0
ARC
  5
10F9C
  8
0
 10
3917.2524213082438109
 20
233.0332118630805951
 30
0.0
 40
0.0196850394
 50
0.0000000017000955
 51
88.2414809637980397
  0
ARC
  5
10F9D
  8
0
 10
3915.7169882373441396
 20
233.0135278844805953
 30
0.0
 40
0.0196850394
 50
92.0741944272110544
 51
179.9999999998989892
  0
ARC
  5
10F9E
  8
0
 10
3917.2524213082438109
 20
233.0135278844805953
 30
0.0
 40
0.0196850394
 50
0.0000000267993029
 51
87.9258055705988966
  0
ARC
  5
10F9F
  8
0
 10
3917.2839173712441152
 20
233.0168948825806012
 30
0.0
 40
0.0118110236
 50
81.7867893842018958
 51
179.9999987573995099
  0
CIRCLE
  5
10FA0
  8
0
 10
3945.0120827255441327
 20
232.2242742666805952
 30
0.0
 40
0.2279928541
  0
CIRCLE
  5
10FA1
  8
0
 10
3945.0120827255441327
 20
232.2242742666805952
 30
0.0
 40
0.2175463467
  0
CIRCLE
  5
10FA2
  8
0
 10
3945.0120827255441327
 20
232.7006522193806006
 30
0.0
 40
0.1673228346
  0
CIRCLE
  5
10FA3
  8
0
 10
3945.0120827255441327
 20
232.7006522193806006
 30
0.0
 40
0.0984251969
  0
ARC
  5
10FA4
  8
0
 10
3977.1144449302441899
 20
211.8350828946805962
 30
0.0
 40
21.2317110569999983
 50
87.9261613966951927
 51
92.0738386028094453
  0
ARC
  5
10FA5
  8
0
 10
3977.1144449303437796
 20
211.8160454214805952
 30
0.0
 40
21.2310652737000005
 50
87.9258055738057465
 51
92.0741944264028547
  0
CIRCLE
  5
10FA6
  8
0
 10
3974.7561772137441949
 20
232.7006522194805882
 30
0.0
 40
0.1673228346
  0
CIRCLE
  5
10FA7
  8
0
 10
3974.7561772137441949
 20
232.7006522194805882
 30
0.0
 40
0.0984251969
  0
ARC
  5
10FA8
  8
0
 10
3948.3900343284440169
 20
232.9459211061806059
 30
0.0
 40
0.0590606108
 50
82.5688918555059814
 51
139.6920981618044095
  0
ARC
  5
10FA9
  8
0
 10
3977.8624764263440738
 20
230.6049812736806075
 30
0.0
 40
0.0393700787
 50
270.0000000071912041
 51
0.0
  0
ARC
  5
10FAA
  8
0
 10
3976.3664134342438956
 20
230.6049812735805915
 30
0.0
 40
0.0393700787
 50
179.9999999982998986
 51
270.000000000104194
  0
ARC
  5
10FAB
  8
0
 10
3977.8821614657440477
 20
233.0332118628805915
 30
0.0
 40
0.0196850394
 50
0.0000000077009117
 51
88.2414809618951068
  0
ARC
  5
10FAC
  8
0
 10
3976.3467283948439217
 20
233.0332118628805915
 30
0.0
 40
0.0196850394
 50
91.7585190259053434
 51
179.9999999977005984
  0
ARC
  5
10FAD
  8
0
 10
3977.8821614657440477
 20
233.0135278843806077
 30
0.0
 40
0.0196850394
 50
0.0000000000993351
 51
87.9258055727106722
  0
ARC
  5
10FAE
  8
0
 10
3976.3467283948439217
 20
233.0135278843806077
 30
0.0
 40
0.0196850394
 50
92.0741944292968242
 51
179.9999999978992946
  0
ENDSEC
  0
EOF
