  0
SECTION
  2
HEADER
  9
$ACADVER
  1
AC1009
  9
$INSBASE
 10
3828.2247559964298489
 20
159.1438645482114111
 30
0.0
  9
$EXTMIN
 10
3797.1224843427798987
 20
159.1438645482112975
 30
0.0
  9
$EXTMAX
 10
3859.3270276499802094
 20
237.9627732689114055
 30
0.0
  9
$LIMMIN
 10
0.0
 20
0.0
  9
$LIMMAX
 10
11.6929133858000007
 20
8.2677165353999982
  9
$ORTHOMODE
 70
     0
  9
$REGENMODE
 70
     1
  9
$FILLMODE
 70
     1
  9
$QTEXTMODE
 70
     0
  9
$MIRRTEXT
 70
     0
  9
$DRAGMODE
 70
     2
  9
$LTSCALE
 40
0.6431102362
  9
$OSMODE
 70
  4095
  9
$ATTMODE
 70
     1
  9
$TEXTSIZE
 40
0.2
  9
$TRACEWID
 40
0.05
  9
$TEXTSTYLE
  7
STANDARD
  9
$CLAYER
  8
0
  9
$CELTYPE
  6
BYLAYER
  9
$CECOLOR
 62
   256
  9
$DIMSCALE
 40
1.0
  9
$DIMASZ
 40
0.1875
  9
$DIMEXO
 40
0.0625
  9
$DIMDLI
 40
0.4443307087
  9
$DIMRND
 40
0.0
  9
$DIMDLE
 40
0.0
  9
$DIMEXE
 40
0.125
  9
$DIMTP
 40
0.01
  9
$DIMTM
 40
0.01
  9
$DIMTXT
 40
2.0
  9
$DIMCEN
 40
0.1052362205
  9
$DIMTSZ
 40
0.0
  9
$DIMTOL
 70
     1
  9
$DIMLIM
 70
     0
  9
$DIMTIH
 70
     1
  9
$DIMTOH
 70
     1
  9
$DIMSE1
 70
     0
  9
$DIMSE2
 70
     0
  9
$DIMTAD
 70
     0
  9
$DIMZIN
 70
     0
  9
$DIMBLK
  1

  9
$DIMASO
 70
     1
  9
$DIMSHO
 70
     1
  9
$DIMPOST
  1
\X
  9
$DIMAPOST
  1

  9
$DIMALT
 70
     1
  9
$DIMALTD
 70
     2
  9
$DIMALTF
 40
25.3999999999999986
  9
$DIMLFAC
 40
1.0
  9
$DIMTOFL
 70
     0
  9
$DIMTVP
 40
0.0
  9
$DIMTIX
 70
     0
  9
$DIMSOXD
 70
     0
  9
$DIMSAH
 70
     0
  9
$DIMBLK1
  1

  9
$DIMBLK2
  1

  9
$DIMSTYLE
  2
STANDARD
  9
$DIMCLRD
 70
     0
  9
$DIMCLRE
 70
     0
  9
$DIMCLRT
 70
     0
  9
$DIMTFAC
 40
1.0
  9
$DIMGAP
 40
0.09
  9
$LUNITS
 70
     2
  9
$LUPREC
 70
     4
  9
$SKETCHINC
 40
0.1
  9
$FILLETRAD
 40
0.0
  9
$AUNITS
 70
     0
  9
$AUPREC
 70
     0
  9
$MENU
  1
.
  9
$ELEVATION
 40
0.0
  9
$PELEVATION
 40
0.0
  9
$THICKNESS
 40
0.0
  9
$LIMCHECK
 70
     0
  9
$BLIPMODE
 70
     0
  9
$CHAMFERA
 40
0.0
  9
$CHAMFERB
 40
0.0
  9
$SKPOLY
 70
     0
  9
$TDCREATE
 40
2458060.468368056230247
  9
$TDUPDATE
 40
2459506.7604513890109956
  9
$TDINDWG
 40
0.7313380787
  9
$TDUSRTIMER
 40
0.7313380787
  9
$USRTIMER
 70
     1
  9
$ANGBASE
 50
0.0
  9
$ANGDIR
 70
     0
  9
$PDMODE
 70
     0
  9
$PDSIZE
 40
0.3125
  9
$PLINEWID
 40
0.0
  9
$COORDS
 70
     1
  9
$SPLFRAME
 70
     0
  9
$SPLINETYPE
 70
     6
  9
$SPLINESEGS
 70
     8
  9
$ATTDIA
 70
     1
  9
$ATTREQ
 70
     1
  9
$HANDLING
 70
     1
  9
$HANDSEED
  5
10E0A
  9
$SURFTAB1
 70
     6
  9
$SURFTAB2
 70
     6
  9
$SURFTYPE
 70
     6
  9
$SURFU
 70
     6
  9
$SURFV
 70
     6
  9
$UCSNAME
  2

  9
$UCSORG
 10
0.0
 20
0.0
 30
0.0
  9
$UCSXDIR
 10
1.0
 20
0.0
 30
0.0
  9
$UCSYDIR
 10
0.0
 20
1.0
 30
0.0
  9
$PUCSNAME
  2

  9
$PUCSORG
 10
0.0
 20
0.0
 30
0.0
  9
$PUCSXDIR
 10
1.0
 20
0.0
 30
0.0
  9
$PUCSYDIR
 10
0.0
 20
1.0
 30
0.0
  9
$USERI1
 70
     0
  9
$USERI2
 70
     0
  9
$USERI3
 70
     0
  9
$USERI4
 70
     0
  9
$USERI5
 70
     0
  9
$USERR1
 40
0.0
  9
$USERR2
 40
0.0
  9
$USERR3
 40
0.0
  9
$USERR4
 40
0.0
  9
$USERR5
 40
0.0
  9
$WORLDVIEW
 70
     1
  9
$SHADEDGE
 70
     3
  9
$SHADEDIF
 70
    70
  9
$TILEMODE
 70
     1
  9
$MAXACTVP
 70
    64
  9
$PLIMCHECK
 70
     0
  9
$PEXTMIN
 10
1.0000000000000000E+20
 20
1.0000000000000000E+20
 30
1.0000000000000000E+20
  9
$PEXTMAX
 10
-1.0000000000000000E+20
 20
-1.0000000000000000E+20
 30
-1.0000000000000000E+20
  9
$PLIMMIN
 10
0.0
 20
0.0
  9
$PLIMMAX
 10
12.0
 20
9.0
  9
$UNITMODE
 70
     0
  9
$VISRETAIN
 70
     1
  9
$PLINEGEN
 70
     0
  9
$PSLTSCALE
 70
     1
  0
ENDSEC
  0
SECTION
  2
TABLES
  0
TABLE
  2
VPORT
 70
     1
  0
VPORT
  2
*ACTIVE
 70
     0
 10
0.0
 20
0.0
 11
1.0
 21
1.0
 12
184.1553409362140883
 22
38.67668838210232
 13
0.0
 23
0.0
 14
1.0
 24
1.0
 15
0.0
 25
0.0
 16
0.0
 26
0.0
 36
26.6346482412083887
 17
3644.0758056640620453
 27
159.9442404997975871
 37
0.0
 40
79.7743697960361544
 41
2.8393393393393391
 42
50.0
 43
0.0
 44
0.0
 50
0.0
 51
0.0
 71
     0
 72
   100
 73
     1
 74
     1
 75
     0
 76
     0
 77
     0
 78
     0
  0
ENDTAB
  0
TABLE
  2
LTYPE
 70
     2
  0
LTYPE
  2
CONTINUOUS
 70
     0
  3
Solid line
 72
    65
 73
     0
 40
0.0
  0
LTYPE
  2
PHANTOM2
 70
     0
  3
___ _ _ ___ _ _ ___ _ _ ___ _ _
 72
    65
 73
     6
 40
1.25
 49
0.625
 49
-0.125
 49
0.125
 49
-0.125
 49
0.125
 49
-0.125
  0
ENDTAB
  0
TABLE
  2
LAYER
 70
     2
  0
LAYER
  2
0
 70
     0
 62
   255
  6
CONTINUOUS
  0
LAYER
  2
DEFPOINTS
 70
     0
 62
     7
  6
CONTINUOUS
  0
ENDTAB
  0
TABLE
  2
STYLE
 70
     1
  0
STYLE
  2
STANDARD
 70
     0
 40
0.0
 41
0.8
 50
0.0
 71
     0
 42
0.2
  3
txt
  4

  0
ENDTAB
  0
TABLE
  2
VIEW
 70
     0
  0
ENDTAB
  0
TABLE
  2
UCS
 70
     0
  0
ENDTAB
  0
TABLE
  2
APPID
 70
    10
  0
APPID
  2
ACAD
 70
     0
  0
APPID
  2
ACAD_MLEADERVER
 70
     0
  0
APPID
  2
ACAD_EXEMPT_FROM_CAD_STANDARDS
 70
     0
  0
APPID
  2
ACAD_NAV_VCDISPLAY
 70
     0
  0
APPID
  2
ACAECLAYERSTANDARD
 70
     0
  0
APPID
  2
ACCMTRANSPARENCY
 70
     0
  0
APPID
  2
ACAD_DSTYLE_DIMJAG
 70
     0
  0
APPID
  2
ACAD_DSTYLE_DIMTALN
 70
     0
  0
APPID
  2
ACDBATTR
 70
     0
  0
APPID
  2
ACAD_PSEXT
 70
     0
  0
ENDTAB
  0
TABLE
  2
DIMSTYLE
 70
     1
  0
DIMSTYLE
  2
STANDARD
 70
     0
  3

  4

  5

  6

  7

 40
1.0
 41
0.1875
 42
0.0625
 43
0.38
 44
0.125
 45
0.0
 46
0.0
 47
0.01
 48
0.01
140
0.15625
141
0.09
142
0.0
143
25.3999999999999986
144
1.0
145
0.0
146
1.0
147
0.09
 71
     1
 72
     0
 73
     1
 74
     1
 75
     0
 76
     0
 77
     0
 78
     4
170
     0
171
     2
172
     0
173
     0
174
     0
175
     0
176
     0
177
     0
178
     0
  0
ENDTAB
  0
ENDSEC
  0
SECTION
  2
BLOCKS
  0
BLOCK
  8
0
  2
$MODEL_SPACE
 70
     0
 10
0.0
 20
0.0
 30
0.0
  3
$MODEL_SPACE
  1

  0
ENDBLK
  5
21
  8
0
  0
BLOCK
 67
     1
  8
0
  2
$PAPER_SPACE
 70
     0
 10
0.0
 20
0.0
 30
0.0
  3
$PAPER_SPACE
  1

  0
ENDBLK
  5
1D
 67
     1
  8
0
  0
ENDSEC
  0
SECTION
  2
ENTITIES
  0
ATTDEF
  5
AA11
  8
DEFPOINTS
 10
3828.2211469487920112
 20
159.1495030449887906
 30
0.0
 40
0.001
  1
K-1.1922.021
  3

  2
MODELNUMBER
 70
     0
1001
ACDBATTR
1070
     0
1070
     1
  0
ATTDEF
  5
AA12
  8
DEFPOINTS
 10
3828.2211469487920112
 20
159.1478363783222107
 30
0.0
 40
0.001
  1

  3

  2
TRADENAME
 70
     0
1001
ACDBATTR
1070
     0
1070
     1
  0
ATTDEF
  5
AA13
  8
DEFPOINTS
 10
3828.2211469487920112
 20
159.1461697116554888
 30
0.0
 40
0.001
  1
SHOWER DOOR
  3

  2
PRODUCT
 70
     0
1001
ACDBATTR
1070
     0
1070
     1
  0
LINE
  5
10C70
  8
0
 10
3798.027854421579832
 20
159.5102897451114075
 30
0.0
 11
3797.9884843428799286
 21
159.5496598238113961
 31
0.0
  0
LINE
  5
10C71
  8
0
 10
3797.1224843428799431
 20
159.1438645482114111
 30
0.0
 11
3859.3270276499802094
 21
159.1438645482114111
 31
0.0
  0
LINE
  5
10C72
  8
0
 10
3827.4967520593800145
 20
159.1438645482114111
 30
0.0
 11
3828.3628937916801078
 21
159.1438645482114111
 31
0.0
  0
LINE
  5
10C73
  8
0
 10
3821.0396260751799673
 20
159.2226047057114044
 30
0.0
 11
3821.5908071774802011
 21
159.2226047057114044
 31
0.0
  0
LINE
  5
10C74
  8
0
 10
3821.0396260751799673
 20
159.2816598238113954
 30
0.0
 11
3821.5908071774802011
 21
159.2816598238113954
 31
0.0
  0
LINE
  5
10C75
  8
0
 10
3830.0317914294801085
 20
159.5101716348113996
 30
0.0
 11
3830.275890348179928
 21
159.5101716348113996
 31
0.0
  0
LINE
  5
10C76
  8
0
 10
3798.027854421579832
 20
159.5102897451114075
 30
0.0
 11
3798.2248241270808649
 21
159.5102897451114075
 31
0.0
  0
LINE
  5
10C77
  8
0
 10
3799.0122181800797989
 20
159.5102897451114075
 30
0.0
 11
3827.4967520593800145
 21
159.5102897451114075
 31
0.0
  0
LINE
  5
10C78
  8
0
 10
3828.3628937916801078
 20
159.5102897451114075
 30
0.0
 11
3830.0317914294801085
 21
159.5102897451114075
 31
0.0
  0
LINE
  5
10C79
  8
0
 10
3830.0317914294801085
 20
159.5496598238113961
 30
0.0
 11
3828.3628937916801078
 21
159.5496598238113961
 31
0.0
  0
LINE
  5
10C7A
  8
0
 10
3827.4967520593800145
 20
159.5496598238113961
 30
0.0
 11
3799.0122181307801839
 21
159.5496598238113961
 31
0.0
  0
LINE
  5
10C7B
  8
0
 10
3798.2248241270808649
 20
159.5496598238113961
 30
0.0
 11
3798.027854421579832
 21
159.5496598238113961
 31
0.0
  0
LINE
  5
10C7C
  8
0
 10
3798.2445241270797851
 20
159.7462267529114115
 30
0.0
 11
3798.9925176192959952
 21
159.7462267529114115
 31
0.0
  0
ARC
  5
10C7D
  8
0
 10
3798.2445241270797851
 20
159.7265267529114112
 30
0.0
 40
0.0197
 50
90.0
 51
180.0
  0
LINE
  5
10C7E
  8
0
 10
3830.2758859176801707
 20
159.7462267529114115
 30
0.0
 11
3857.75222450038018
 21
159.7462267529114115
 31
0.0
  0
LINE
  5
10C7F
  8
0
 10
3828.3432087522801339
 20
159.8190613986114101
 30
0.0
 11
3827.5164370987799884
 21
159.8190613986114101
 31
0.0
  0
LINE
  5
10C80
  8
0
 10
3797.9491142640799808
 20
159.8255023435114026
 30
0.0
 11
3798.2075630829799593
 21
159.8255023435114026
 31
0.0
  0
LINE
  5
10C81
  8
0
 10
3797.1224843428799431
 20
159.1438645482114111
 30
0.0
 11
3797.1224843428799431
 21
236.8919071272113968
 31
0.0
  0
LINE
  5
10C82
  8
0
 10
3797.1224843427798987
 20
236.8919071272113968
 30
0.0
 11
3797.1224843427798987
 21
237.9234031902113884
 31
0.0
  0
LINE
  5
10C83
  8
0
 10
3797.9491142640799808
 20
159.8255023435114026
 30
0.0
 11
3797.9491142640799808
 21
236.6758960443114006
 31
0.0
  0
LINE
  5
10C84
  8
0
 10
3797.9884843428799286
 20
236.8525370484113921
 30
0.0
 11
3797.9884843428799286
 21
236.6758960443114006
 31
0.0
  0
LINE
  5
10C85
  8
0
 10
3797.9884843428799286
 20
159.8255023435114026
 30
0.0
 11
3797.9884843428799286
 21
159.5496598238113961
 31
0.0
  0
LINE
  5
10C86
  8
0
 10
3798.027854421579832
 20
159.5496598238113961
 30
0.0
 11
3798.027854421579832
 21
159.8255023435114026
 31
0.0
  0
LINE
  5
10C87
  8
0
 10
3798.027854421579832
 20
236.6758960443114006
 30
0.0
 11
3798.027854421579832
 21
236.8525370484113921
 31
0.0
  0
LINE
  5
10C88
  8
0
 10
3798.2075630829799593
 20
236.6758960443114006
 30
0.0
 11
3798.2075630829799593
 21
159.8255023435114026
 31
0.0
  0
LINE
  5
10C89
  8
0
 10
3798.2248241270808649
 20
159.1438645482114111
 30
0.0
 11
3798.2248241270808649
 21
159.7265267529114112
 31
0.0
  0
LINE
  5
10C8A
  8
0
 10
3798.6972874924799726
 20
237.9234031902113884
 30
0.0
 11
3798.6972874924799726
 21
236.8919071272113968
 31
0.0
  0
LINE
  5
10C8B
  8
0
 10
3799.0122176192949155
 20
159.7265267729401046
 30
0.0
 11
3799.0122182116801923
 21
159.1438645482114111
 31
0.0
  0
ARC
  5
10C8C
  8
0
 10
3798.9925176192959952
 20
159.7265267529114112
 30
0.0
 40
0.0197
 50
0.0000582518445386
 51
90.0
  0
LINE
  5
10C8D
  8
0
 10
3800.1538386735801396
 20
192.9551716348113928
 30
0.0
 11
3800.1538386735801396
 21
204.2150141545114082
 31
0.0
  0
LINE
  5
10C8E
  8
0
 10
3800.9412402483799269
 20
192.9551716348113928
 30
0.0
 11
3800.9412402483799269
 21
204.2150141545114082
 31
0.0
  0
LINE
  5
10C8F
  8
0
 10
3820.9608859176801161
 20
159.5102897451114075
 30
0.0
 11
3820.9608859176801161
 21
159.3603999813113887
 31
0.0
  0
LINE
  5
10C90
  8
0
 10
3821.6695473349800523
 20
159.3603999813113887
 30
0.0
 11
3821.6695473349800523
 21
159.5102897451114075
 31
0.0
  0
LINE
  5
10C91
  8
0
 10
3800.1932087524801318
 20
192.9158015561114041
 30
0.0
 11
3800.9018701694799347
 21
192.9158015561114041
 31
0.0
  0
LINE
  5
10C92
  8
0
 10
3826.2092710162801268
 20
237.8840331114114974
 30
0.0
 11
3826.2092710162801268
 21
237.8932277961114039
 31
0.0
  0
LINE
  5
10C93
  8
0
 10
3826.6652567244800593
 20
237.8840331114114974
 30
0.0
 11
3826.6652567244800593
 21
237.8932277961114039
 31
0.0
  0
LINE
  5
10C94
  8
0
 10
3827.4967520593800145
 20
159.1438645482114111
 30
0.0
 11
3827.4967520593800145
 21
159.7993763592114078
 31
0.0
  0
LINE
  5
10C95
  8
0
 10
3828.3628937916801078
 20
159.7993763592114078
 30
0.0
 11
3828.3628937916801078
 21
159.1438645482114111
 31
0.0
  0
LINE
  5
10C96
  8
0
 10
3830.0317914294801085
 20
159.5101716348113996
 30
0.0
 11
3830.0317914294801085
 21
236.7148960443115016
 31
0.0
  0
LINE
  5
10C97
  8
0
 10
3830.193208752280043
 20
236.9391512217115121
 30
0.0
 11
3830.193208752280043
 21
236.7148960443115016
 31
0.0
  0
LINE
  5
10C98
  8
0
 10
3830.2325788310809003
 20
236.9391512217115121
 30
0.0
 11
3830.2325788310809003
 21
236.7148960443115016
 31
0.0
  0
LINE
  5
10C99
  8
0
 10
3830.2758859176801707
 20
236.7148960443115016
 30
0.0
 11
3830.2758859176801707
 21
159.5101716348113996
 31
0.0
  0
LINE
  5
10C9A
  8
0
 10
3798.0081693821798581
 20
159.5299747844113938
 30
0.0
 11
3798.027854421579832
 21
159.5496598238113961
 31
0.0
  0
LINE
  5
10C9B
  8
0
 10
3800.9018701694799347
 20
204.2543842332113968
 30
0.0
 11
3800.1932087524801318
 21
204.2543842332113968
 31
0.0
  0
LINE
  5
10C9C
  8
0
 10
3857.7406346870798188
 20
159.7462267529114115
 30
0.0
 11
3857.7406346870798188
 21
236.9391512217115121
 31
0.0
  0
LINE
  5
10C9D
  8
0
 10
3857.75222450038018
 20
159.1438645482114111
 30
0.0
 11
3857.75222450038018
 21
236.8722220878113944
 31
0.0
  0
LINE
  5
10C9E
  8
0
 10
3857.752224500281045
 20
236.8722220878113944
 30
0.0
 11
3857.752224500281045
 21
237.9234031902113884
 31
0.0
  0
LINE
  5
10C9F
  8
0
 10
3859.327027649880165
 20
237.9234031902113884
 30
0.0
 11
3859.327027649880165
 21
236.8722220878113944
 31
0.0
  0
LINE
  5
10CA0
  8
0
 10
3859.3270276499802094
 20
236.8722220878113944
 30
0.0
 11
3859.3270276499802094
 21
159.1438645482114111
 31
0.0
  0
LINE
  5
10CA1
  8
0
 10
3826.2197159947800174
 20
237.9049595564115123
 30
0.0
 11
3826.4372638703798657
 21
237.9194661823113961
 31
0.0
  0
LINE
  5
10CA2
  8
0
 10
3798.2075630829799593
 20
236.6758960443114006
 30
0.0
 11
3797.9491142640799808
 21
236.6758960443114006
 31
0.0
  0
LINE
  5
10CA3
  8
0
 10
3830.275890348179928
 20
236.7148960443115016
 30
0.0
 11
3830.0317914294801085
 21
236.7148960443115016
 31
0.0
  0
LINE
  5
10CA4
  8
0
 10
3798.6579174136800248
 20
236.8525370484113921
 30
0.0
 11
3797.1618544215798465
 21
236.8525370484113921
 31
0.0
  0
LINE
  5
10CA5
  8
0
 10
3857.7719095396801094
 20
236.8525370485114934
 30
0.0
 11
3859.3073426105797807
 21
236.8525370485114934
 31
0.0
  0
LINE
  5
10CA6
  8
0
 10
3857.752224500281045
 20
236.9391512217115121
 30
0.0
 11
3798.6972874924799726
 21
236.9391512217115121
 31
0.0
  0
LINE
  5
10CA7
  8
0
 10
3798.6972874924799726
 20
237.8840331114114974
 30
0.0
 11
3857.752224500281045
 21
237.8840331114114974
 31
0.0
  0
LINE
  5
10CA8
  8
0
 10
3797.1618544215798465
 20
237.9627732689114055
 30
0.0
 11
3798.6579174136800248
 21
237.9627732689114055
 31
0.0
  0
LINE
  5
10CA9
  8
0
 10
3857.7915945790800833
 20
237.9627732689114055
 30
0.0
 11
3859.2876575711798068
 21
237.9627732689114055
 31
0.0
  0
LINE
  5
10CAA
  8
0
 10
3826.6548117459801688
 20
237.9049595564115123
 30
0.0
 11
3826.4372638703798657
 21
237.9194661823113961
 31
0.0
  0
ARC
  5
10CAB
  8
0
 10
3821.5908071774802011
 20
159.1438645482114111
 30
0.0
 40
0.0787401575
 50
0.0
 51
90.0000000001042082
  0
ARC
  5
10CAC
  8
0
 10
3821.0396260751799673
 20
159.1438645482114111
 30
0.0
 40
0.0787401575
 50
89.9999999998957776
 51
180.0
  0
ARC
  5
10CAD
  8
0
 10
3821.0396260751799673
 20
159.3603999813113887
 30
0.0
 40
0.0787401575
 50
180.0
 51
270.0
  0
ARC
  5
10CAE
  8
0
 10
3821.5908071774802011
 20
159.3603999813113887
 30
0.0
 40
0.0787401575
 50
270.0
 51
0.0
  0
ARC
  5
10CAF
  8
0
 10
3800.9018701695799791
 20
192.9551716348113928
 30
0.0
 40
0.0393700787
 50
270.0
 51
0.0
  0
ARC
  5
10CB0
  8
0
 10
3800.1932087522809525
 20
192.9551716348113928
 30
0.0
 40
0.0393700787
 50
180.0
 51
270.0
  0
ARC
  5
10CB1
  8
0
 10
3827.5164370987799884
 20
159.7993763592114078
 30
0.0
 40
0.0196850394
 50
89.9999999998957776
 51
180.0
  0
ARC
  5
10CB2
  8
0
 10
3797.1618544215798465
 20
237.9234031902113884
 30
0.0
 40
0.0393700787
 50
90.0
 51
180.0
  0
ARC
  5
10CB3
  8
0
 10
3797.1618544215798465
 20
236.8919071272113968
 30
0.0
 40
0.0393700787
 50
180.0
 51
270.0
  0
ARC
  5
10CB4
  8
0
 10
3798.6579174136800248
 20
237.9234031902113884
 30
0.0
 40
0.0393700787
 50
0.0
 51
90.0
  0
ARC
  5
10CB5
  8
0
 10
3798.6579174136800248
 20
236.8919071272113968
 30
0.0
 40
0.0393700787
 50
269.9999999996090878
 51
359.9999999997996838
  0
ARC
  5
10CB6
  8
0
 10
3800.9018701695799791
 20
204.2150141545114082
 30
0.0
 40
0.0393700787
 50
0.0
 51
90.0
  0
ARC
  5
10CB7
  8
0
 10
3800.1932087522809525
 20
204.2150141545114082
 30
0.0
 40
0.0393700787
 50
90.0
 51
180.0
  0
ARC
  5
10CB8
  8
0
 10
3826.6534457008801837
 20
237.8932277961114039
 30
0.0
 40
0.0118110236
 50
0.0
 51
83.3583929154040959
  0
ARC
  5
10CB9
  8
0
 10
3826.2210820398800024
 20
237.8932277961114039
 30
0.0
 40
0.0118110236
 50
96.6416070845959041
 51
180.0
  0
ARC
  5
10CBA
  8
0
 10
3828.3432087522801339
 20
159.7993763592114078
 30
0.0
 40
0.0196850394
 50
0.0
 51
90.0
  0
ARC
  5
10CBB
  8
0
 10
3859.2876575711798068
 20
237.9234031902113884
 30
0.0
 40
0.0393700787
 50
0.0
 51
90.0
  0
ARC
  5
10CBC
  8
0
 10
3857.7915945790800833
 20
237.9234031902113884
 30
0.0
 40
0.0393700787
 50
90.0
 51
180.0
  0
ARC
  5
10CBD
  8
0
 10
3857.7719095396801094
 20
236.8722220878113944
 30
0.0
 40
0.0196850394
 50
180.0000000007995027
 51
269.9999999935903929
  0
ARC
  5
10CBE
  8
0
 10
3859.3073426105797807
 20
236.8722220878113944
 30
0.0
 40
0.0196850394
 50
270.0000000070087935
 51
359.9999999998998987
  0
ENDSEC
  0
EOF
