  0
SECTION
  2
HEADER
  9
$ACADVER
  1
AC1009
  9
$INSBASE
 10
4323.4723133744328152
 20
195.3979226093860859
 30
0.0
  9
$EXTMIN
 10
4321.1068496348816552
 20
195.3979226093860859
 30
0.0
  9
$EXTMAX
 10
4325.4375582962820772
 20
274.2168313300861087
 30
0.0
  9
$LIMMIN
 10
0.0
 20
0.0
  9
$LIMMAX
 10
11.6929133858000007
 20
8.2677165353999982
  9
$ORTHOMODE
 70
     0
  9
$REGENMODE
 70
     1
  9
$FILLMODE
 70
     1
  9
$QTEXTMODE
 70
     0
  9
$MIRRTEXT
 70
     0
  9
$DRAGMODE
 70
     2
  9
$LTSCALE
 40
0.6431102362
  9
$OSMODE
 70
  4095
  9
$ATTMODE
 70
     1
  9
$TEXTSIZE
 40
0.2
  9
$TRACEWID
 40
0.05
  9
$TEXTSTYLE
  7
STANDARD
  9
$CLAYER
  8
0
  9
$CELTYPE
  6
BYLAYER
  9
$CECOLOR
 62
   256
  9
$DIMSCALE
 40
1.0
  9
$DIMASZ
 40
0.1875
  9
$DIMEXO
 40
0.0625
  9
$DIMDLI
 40
0.4443307087
  9
$DIMRND
 40
0.0
  9
$DIMDLE
 40
0.0
  9
$DIMEXE
 40
0.125
  9
$DIMTP
 40
0.01
  9
$DIMTM
 40
0.01
  9
$DIMTXT
 40
2.0
  9
$DIMCEN
 40
0.1052362205
  9
$DIMTSZ
 40
0.0
  9
$DIMTOL
 70
     1
  9
$DIMLIM
 70
     0
  9
$DIMTIH
 70
     1
  9
$DIMTOH
 70
     1
  9
$DIMSE1
 70
     0
  9
$DIMSE2
 70
     0
  9
$DIMTAD
 70
     0
  9
$DIMZIN
 70
     0
  9
$DIMBLK
  1

  9
$DIMASO
 70
     1
  9
$DIMSHO
 70
     1
  9
$DIMPOST
  1
\X
  9
$DIMAPOST
  1

  9
$DIMALT
 70
     1
  9
$DIMALTD
 70
     2
  9
$DIMALTF
 40
25.3999999999999986
  9
$DIMLFAC
 40
1.0
  9
$DIMTOFL
 70
     0
  9
$DIMTVP
 40
0.0
  9
$DIMTIX
 70
     0
  9
$DIMSOXD
 70
     0
  9
$DIMSAH
 70
     0
  9
$DIMBLK1
  1

  9
$DIMBLK2
  1

  9
$DIMSTYLE
  2
STANDARD
  9
$DIMCLRD
 70
     0
  9
$DIMCLRE
 70
     0
  9
$DIMCLRT
 70
     0
  9
$DIMTFAC
 40
1.0
  9
$DIMGAP
 40
0.09
  9
$LUNITS
 70
     2
  9
$LUPREC
 70
     4
  9
$SKETCHINC
 40
0.1
  9
$FILLETRAD
 40
0.0
  9
$AUNITS
 70
     0
  9
$AUPREC
 70
     0
  9
$MENU
  1
.
  9
$ELEVATION
 40
0.0
  9
$PELEVATION
 40
0.0
  9
$THICKNESS
 40
0.0
  9
$LIMCHECK
 70
     0
  9
$BLIPMODE
 70
     0
  9
$CHAMFERA
 40
0.0
  9
$CHAMFERB
 40
0.0
  9
$SKPOLY
 70
     0
  9
$TDCREATE
 40
2458060.468368056230247
  9
$TDUPDATE
 40
2459508.8532523149624467
  9
$TDINDWG
 40
0.7579121528
  9
$TDUSRTIMER
 40
0.7579121528
  9
$USRTIMER
 70
     1
  9
$ANGBASE
 50
0.0
  9
$ANGDIR
 70
     0
  9
$PDMODE
 70
     0
  9
$PDSIZE
 40
0.3125
  9
$PLINEWID
 40
0.0
  9
$COORDS
 70
     1
  9
$SPLFRAME
 70
     0
  9
$SPLINETYPE
 70
     6
  9
$SPLINESEGS
 70
     8
  9
$ATTDIA
 70
     1
  9
$ATTREQ
 70
     1
  9
$HANDLING
 70
     1
  9
$HANDSEED
  5
11742
  9
$SURFTAB1
 70
     6
  9
$SURFTAB2
 70
     6
  9
$SURFTYPE
 70
     6
  9
$SURFU
 70
     6
  9
$SURFV
 70
     6
  9
$UCSNAME
  2

  9
$UCSORG
 10
0.0
 20
0.0
 30
0.0
  9
$UCSXDIR
 10
1.0
 20
0.0
 30
0.0
  9
$UCSYDIR
 10
0.0
 20
1.0
 30
0.0
  9
$PUCSNAME
  2

  9
$PUCSORG
 10
0.0
 20
0.0
 30
0.0
  9
$PUCSXDIR
 10
1.0
 20
0.0
 30
0.0
  9
$PUCSYDIR
 10
0.0
 20
1.0
 30
0.0
  9
$USERI1
 70
     0
  9
$USERI2
 70
     0
  9
$USERI3
 70
     0
  9
$USERI4
 70
     0
  9
$USERI5
 70
     0
  9
$USERR1
 40
0.0
  9
$USERR2
 40
0.0
  9
$USERR3
 40
0.0
  9
$USERR4
 40
0.0
  9
$USERR5
 40
0.0
  9
$WORLDVIEW
 70
     1
  9
$SHADEDGE
 70
     3
  9
$SHADEDIF
 70
    70
  9
$TILEMODE
 70
     1
  9
$MAXACTVP
 70
    64
  9
$PLIMCHECK
 70
     0
  9
$PEXTMIN
 10
1.0000000000000000E+20
 20
1.0000000000000000E+20
 30
1.0000000000000000E+20
  9
$PEXTMAX
 10
-1.0000000000000000E+20
 20
-1.0000000000000000E+20
 30
-1.0000000000000000E+20
  9
$PLIMMIN
 10
0.0
 20
0.0
  9
$PLIMMAX
 10
12.0
 20
9.0
  9
$UNITMODE
 70
     0
  9
$VISRETAIN
 70
     1
  9
$PLINEGEN
 70
     0
  9
$PSLTSCALE
 70
     1
  0
ENDSEC
  0
SECTION
  2
TABLES
  0
TABLE
  2
VPORT
 70
     1
  0
VPORT
  2
*ACTIVE
 70
     0
 10
0.0
 20
0.0
 11
1.0
 21
1.0
 12
679.196398301520162
 22
74.8631364699384534
 13
0.0
 23
0.0
 14
1.0
 24
1.0
 15
0.0
 25
0.0
 16
0.0
 26
0.0
 36
26.6346482412083887
 17
3644.0758056640620453
 27
159.9442404997975871
 37
0.0
 40
79.5785175739599566
 41
2.8393393393393391
 42
50.0
 43
0.0
 44
0.0
 50
0.0
 51
0.0
 71
     0
 72
   100
 73
     1
 74
     1
 75
     0
 76
     0
 77
     0
 78
     0
  0
ENDTAB
  0
TABLE
  2
LTYPE
 70
     2
  0
LTYPE
  2
CONTINUOUS
 70
     0
  3
Solid line
 72
    65
 73
     0
 40
0.0
  0
LTYPE
  2
PHANTOM2
 70
     0
  3
___ _ _ ___ _ _ ___ _ _ ___ _ _
 72
    65
 73
     6
 40
1.25
 49
0.625
 49
-0.125
 49
0.125
 49
-0.125
 49
0.125
 49
-0.125
  0
ENDTAB
  0
TABLE
  2
LAYER
 70
     2
  0
LAYER
  2
0
 70
     0
 62
   255
  6
CONTINUOUS
  0
LAYER
  2
DEFPOINTS
 70
     0
 62
     7
  6
CONTINUOUS
  0
ENDTAB
  0
TABLE
  2
STYLE
 70
     1
  0
STYLE
  2
STANDARD
 70
     0
 40
0.0
 41
0.8
 50
0.0
 71
     0
 42
0.2
  3
txt
  4

  0
ENDTAB
  0
TABLE
  2
VIEW
 70
     0
  0
ENDTAB
  0
TABLE
  2
UCS
 70
     0
  0
ENDTAB
  0
TABLE
  2
APPID
 70
    10
  0
APPID
  2
ACAD
 70
     0
  0
APPID
  2
ACAD_MLEADERVER
 70
     0
  0
APPID
  2
ACAD_EXEMPT_FROM_CAD_STANDARDS
 70
     0
  0
APPID
  2
ACAD_NAV_VCDISPLAY
 70
     0
  0
APPID
  2
ACAECLAYERSTANDARD
 70
     0
  0
APPID
  2
ACCMTRANSPARENCY
 70
     0
  0
APPID
  2
ACAD_DSTYLE_DIMJAG
 70
     0
  0
APPID
  2
ACAD_DSTYLE_DIMTALN
 70
     0
  0
APPID
  2
ACDBATTR
 70
     0
  0
APPID
  2
ACAD_PSEXT
 70
     0
  0
ENDTAB
  0
TABLE
  2
DIMSTYLE
 70
     1
  0
DIMSTYLE
  2
STANDARD
 70
     0
  3

  4

  5

  6

  7

 40
1.0
 41
0.1875
 42
0.0625
 43
0.38
 44
0.125
 45
0.0
 46
0.0
 47
0.01
 48
0.01
140
0.15625
141
0.09
142
0.0
143
25.3999999999999986
144
1.0
145
0.0
146
1.0
147
0.09
 71
     1
 72
     0
 73
     1
 74
     1
 75
     0
 76
     0
 77
     0
 78
     4
170
     0
171
     2
172
     0
173
     0
174
     0
175
     0
176
     0
177
     0
178
     0
  0
ENDTAB
  0
ENDSEC
  0
SECTION
  2
BLOCKS
  0
BLOCK
  8
0
  2
$MODEL_SPACE
 70
     0
 10
0.0
 20
0.0
 30
0.0
  3
$MODEL_SPACE
  1

  0
ENDBLK
  5
21
  8
0
  0
BLOCK
 67
     1
  8
0
  2
$PAPER_SPACE
 70
     0
 10
0.0
 20
0.0
 30
0.0
  3
$PAPER_SPACE
  1

  0
ENDBLK
  5
1D
 67
     1
  8
0
  0
ENDSEC
  0
SECTION
  2
ENTITIES
  0
ATTDEF
  5
AA11
  8
DEFPOINTS
 10
4323.4687973761028843
 20
195.4035996692545893
 30
0.0
 40
0.001
  1
K-1.1922.019
  3

  2
MODELNUMBER
 70
     0
1001
ACDBATTR
1070
     0
1070
     1
  0
ATTDEF
  5
AA12
  8
DEFPOINTS
 10
4323.4687973761028843
 20
195.4019330025880095
 30
0.0
 40
0.001
  1

  3

  2
TRADENAME
 70
     0
1001
ACDBATTR
1070
     0
1070
     1
  0
ATTDEF
  5
AA13
  8
DEFPOINTS
 10
4323.4687973761028843
 20
195.4002663359212875
 30
0.0
 40
0.001
  1
SHOWER DOOR
  3

  2
PRODUCT
 70
     0
1001
ACDBATTR
1070
     0
1070
     1
  0
LINE
  5
1158C
  8
0
 10
4322.8675041249825881
 20
195.3979226093860859
 30
0.0
 11
4324.7229047527816874
 21
195.3979226093860859
 31
0.0
  0
LINE
  5
1158D
  8
0
 10
4323.0934086898823807
 20
195.49634780628611
 30
0.0
 11
4323.4477393985825984
 21
195.49634780628611
 31
0.0
  0
LINE
  5
1158E
  8
0
 10
4323.307975618882665
 20
195.5199698534860886
 30
0.0
 11
4323.2331724695823141
 21
195.5199698534860886
 31
0.0
  0
LINE
  5
1158F
  8
0
 10
4323.0582415767830753
 20
195.7642296959861028
 30
0.0
 11
4323.9635546112831435
 21
195.7642296959861028
 31
0.0
  0
LINE
  5
11590
  8
0
 10
4323.9635543420818067
 20
196.0002296959860928
 30
0.0
 11
4323.9906212880823659
 21
196.0002296959860928
 31
0.0
  0
LINE
  5
11591
  8
0
 10
4322.8871891643830168
 20
196.0731194597861133
 30
0.0
 11
4323.0540386111815678
 21
196.0731194597861133
 31
0.0
  0
LINE
  5
11592
  8
0
 10
4322.7801182571829486
 20
274.1184072234860878
 30
0.0
 11
4322.7997989897830848
 21
274.1380911725860869
 31
0.0
  0
LINE
  5
11593
  8
0
 10
4321.146219713681603
 20
229.1698596172861073
 30
0.0
 11
4323.0582433254821808
 21
229.1698596172861073
 31
0.0
  0
LINE
  5
11594
  8
0
 10
4324.7229047527816874
 20
229.1698596172861073
 30
0.0
 11
4325.3981882175821738
 21
229.1698596172861073
 31
0.0
  0
LINE
  5
11595
  8
0
 10
4321.849925212683047
 20
229.8785210345861003
 30
0.0
 11
4323.0582433254821808
 21
229.8785210345861003
 31
0.0
  0
LINE
  5
11596
  8
0
 10
4321.1068496348816552
 20
229.209229695986096
 30
0.0
 11
4321.1068496348816552
 21
240.4690722156861113
 31
0.0
  0
LINE
  5
11597
  8
0
 10
4321.7326780678822615
 20
229.1698596172861073
 30
0.0
 11
4321.7326780678822615
 21
229.8391509558861117
 31
0.0
  0
LINE
  5
11598
  8
0
 10
4321.7326780678822615
 20
239.8391509558861117
 30
0.0
 11
4321.7326780678822615
 21
240.5084422943862137
 31
0.0
  0
LINE
  5
11599
  8
0
 10
4321.8942512096828068
 20
229.917891113286089
 30
0.0
 11
4321.8942512096828068
 21
239.7604107983862036
 31
0.0
  0
LINE
  5
1159A
  8
0
 10
4322.2217219960830334
 20
273.1262801489860976
 30
0.0
 11
4322.2217219960830334
 21
274.1774612513860916
 31
0.0
  0
LINE
  5
1159B
  8
0
 10
4322.3004621534819307
 20
273.1971462907861223
 30
0.0
 11
4322.3004621534819307
 21
274.1262801489860976
 31
0.0
  0
LINE
  5
1159C
  8
0
 10
4322.3713282952821828
 20
273.1932092828860732
 30
0.0
 11
4322.3713282952821828
 21
273.5298245463861235
 31
0.0
  0
LINE
  5
1159D
  8
0
 10
4322.3713282952821828
 20
273.7817930502861259
 30
0.0
 11
4322.3713282952821828
 21
274.109115055686118
 31
0.0
  0
LINE
  5
1159E
  8
0
 10
4322.3792023109817819
 20
273.9369211531861197
 30
0.0
 11
4322.3792023109817819
 21
273.7817930502861259
 31
0.0
  0
LINE
  5
1159F
  8
0
 10
4322.3792023109817819
 20
273.5298245463861235
 30
0.0
 11
4322.3792023109817819
 21
273.2837604639860842
 31
0.0
  0
LINE
  5
115A0
  8
0
 10
4322.3941645953818806
 20
274.0790371447861276
 30
0.0
 11
4322.3941645953818806
 21
273.2325804518861219
 31
0.0
  0
LINE
  5
115A1
  8
0
 10
4322.4729047528817318
 20
274.0002969872861058
 30
0.0
 11
4322.4729047528817318
 21
273.1932103730861172
 31
0.0
  0
LINE
  5
115A2
  8
0
 10
4322.6008575087817007
 20
273.4097458061860948
 30
0.0
 11
4322.6008575087817007
 21
273.5081710030860904
 31
0.0
  0
LINE
  5
115A3
  8
0
 10
4322.6154227834831545
 20
273.5384052232860768
 30
0.0
 11
4322.6154227834831545
 21
273.5567768877860999
 31
0.0
  0
LINE
  5
115A4
  8
0
 10
4322.7780228630817874
 20
273.5081710030860904
 30
0.0
 11
4322.7780228630817874
 21
273.4097458061860948
 31
0.0
  0
LINE
  5
115A5
  8
0
 10
4322.8666055402827624
 20
273.1932103730861172
 30
0.0
 11
4322.8666055402827624
 21
274.0002969872861058
 31
0.0
  0
LINE
  5
115A6
  8
0
 10
4322.8675041249825881
 20
195.3979226093860859
 30
0.0
 11
4322.8675041249825881
 21
196.053434420386111
 31
0.0
  0
LINE
  5
115A7
  8
0
 10
4322.9453456977826136
 20
273.3113206093860867
 30
0.0
 11
4322.9453456977826136
 21
274.0002969872861058
 31
0.0
  0
LINE
  5
115A8
  8
0
 10
4323.0582433254821808
 20
272.9689541054860911
 30
0.0
 11
4323.0582433254821808
 21
195.7642296959861028
 31
0.0
  0
LINE
  5
115A9
  8
0
 10
4323.0737236505819965
 20
195.7642296959861028
 30
0.0
 11
4323.0737236505819965
 21
195.5160328455860963
 31
0.0
  0
LINE
  5
115AA
  8
0
 10
4323.0796291623828438
 20
195.7642296959861028
 30
0.0
 11
4323.0796291623828438
 21
195.5019907341861085
 31
0.0
  0
LINE
  5
115AB
  8
0
 10
4323.1147236505830733
 20
273.1932103730861172
 30
0.0
 11
4323.1147236505830733
 21
273.1853352670860886
 31
0.0
  0
LINE
  5
115AC
  8
0
 10
4323.1147236505830733
 20
273.1065951096861113
 30
0.0
 11
4323.1147236505830733
 21
272.9689541054860911
 31
0.0
  0
LINE
  5
115AD
  8
0
 10
4323.1540937292820672
 20
273.1932103730861172
 30
0.0
 11
4323.1540937292820672
 21
273.1853352670860886
 31
0.0
  0
LINE
  5
115AE
  8
0
 10
4323.1540937292820672
 20
273.1065951096861113
 30
0.0
 11
4323.1540937292820672
 21
272.9689541054860911
 31
0.0
  0
LINE
  5
115AF
  8
0
 10
4323.213487430081841
 20
195.5002848140860863
 30
0.0
 11
4323.213487430081841
 21
195.49634780628611
 31
0.0
  0
LINE
  5
115B0
  8
0
 10
4323.3276606583831381
 20
195.5002848140860863
 30
0.0
 11
4323.3276606583831381
 21
195.49634780628611
 31
0.0
  0
LINE
  5
115B1
  8
0
 10
4323.3823535717829145
 20
273.6754938376860764
 30
0.0
 11
4323.3823535717829145
 21
273.773919034586072
 31
0.0
  0
LINE
  5
115B2
  8
0
 10
4323.3903142016833954
 20
272.9689541054860911
 30
0.0
 11
4323.3903142016833954
 21
273.1065951096861113
 31
0.0
  0
LINE
  5
115B3
  8
0
 10
4323.3903142016833954
 20
273.1853352670860886
 30
0.0
 11
4323.3903142016833954
 21
273.1932103730861172
 31
0.0
  0
LINE
  5
115B4
  8
0
 10
4323.4296842804824337
 20
272.9689541054860911
 30
0.0
 11
4323.4296842804824337
 21
273.1065951096861113
 31
0.0
  0
LINE
  5
115B5
  8
0
 10
4323.4296842804824337
 20
273.1853352670860886
 30
0.0
 11
4323.4296842804824337
 21
273.1932103730861172
 31
0.0
  0
LINE
  5
115B6
  8
0
 10
4323.4615189260830448
 20
195.5020136934861057
 30
0.0
 11
4323.4615189260830448
 21
195.7642296959861028
 31
0.0
  0
LINE
  5
115B7
  8
0
 10
4323.467424437983027
 20
195.5160328455860963
 30
0.0
 11
4323.467424437983027
 21
195.7642296959861028
 31
0.0
  0
LINE
  5
115B8
  8
0
 10
4323.5595189260820916
 20
273.773919034586072
 30
0.0
 11
4323.5595189260820916
 21
273.6754938376860764
 31
0.0
  0
LINE
  5
115B9
  8
0
 10
4323.7557748487815843
 20
272.9689541054860911
 30
0.0
 11
4323.7557748487815843
 21
273.1065951096861113
 31
0.0
  0
LINE
  5
115BA
  8
0
 10
4323.7557748487815843
 20
273.1853352670860886
 30
0.0
 11
4323.7557748487815843
 21
273.1932103730861172
 31
0.0
  0
LINE
  5
115BB
  8
0
 10
4323.8030189432829502
 20
273.1932103730861172
 30
0.0
 11
4323.8030189432829502
 21
273.1853352670860886
 31
0.0
  0
LINE
  5
115BC
  8
0
 10
4323.8030189432829502
 20
273.1065951096861113
 30
0.0
 11
4323.8030189432829502
 21
272.9689541054860911
 31
0.0
  0
LINE
  5
115BD
  8
0
 10
4323.8306761658823234
 20
273.1932103730861172
 30
0.0
 11
4323.8306761658823234
 21
273.1853352670860886
 31
0.0
  0
LINE
  5
115BE
  8
0
 10
4323.8306761658823234
 20
273.1065951096861113
 30
0.0
 11
4323.8306761658823234
 21
272.9689541054860911
 31
0.0
  0
LINE
  5
115BF
  8
0
 10
4323.9635543420818067
 20
272.9689541054860911
 30
0.0
 11
4323.9635543420818067
 21
195.7642296959861028
 31
0.0
  0
LINE
  5
115C0
  8
0
 10
4323.9888055917826932
 20
273.1853352670860886
 30
0.0
 11
4323.9888055917826932
 21
273.1262801489860976
 31
0.0
  0
LINE
  5
115C1
  8
0
 10
4323.9906212880823659
 20
195.3979226093860859
 30
0.0
 11
4323.9906212880823659
 21
273.1931981998861261
 31
0.0
  0
LINE
  5
115C2
  8
0
 10
4323.9965268000823926
 20
274.0002969872861058
 30
0.0
 11
4323.9965268000823926
 21
273.3113206093860867
 31
0.0
  0
LINE
  5
115C3
  8
0
 10
4324.0006166152816149
 20
195.3979226093860859
 30
0.0
 11
4324.0006166152816149
 21
273.1931981998861261
 31
0.0
  0
LINE
  5
115C4
  8
0
 10
4324.0752669575831533
 20
274.0002969872861058
 30
0.0
 11
4324.0752669575831533
 21
273.1932103730861172
 31
0.0
  0
LINE
  5
115C5
  8
0
 10
4324.0831409731817985
 20
273.1931981998861261
 30
0.0
 11
4324.0831409731817985
 21
195.3979226093860859
 31
0.0
  0
LINE
  5
115C6
  8
0
 10
4324.1638496347823093
 20
273.4097458061860948
 30
0.0
 11
4324.1638496347823093
 21
273.5081710030860904
 31
0.0
  0
LINE
  5
115C7
  8
0
 10
4324.2268487363817258
 20
273.592926689386104
 30
0.0
 11
4324.2268487363817258
 21
273.3249721186861052
 31
0.0
  0
LINE
  5
115C8
  8
0
 10
4324.2326842802831379
 20
273.3234565848861166
 30
0.0
 11
4324.2326842802831379
 21
273.5944511397860879
 31
0.0
  0
LINE
  5
115C9
  8
0
 10
4324.2720543590839952
 20
273.5944916750860898
 30
0.0
 11
4324.2720543590839952
 21
273.3234352619861056
 31
0.0
  0
LINE
  5
115CA
  8
0
 10
4324.2720543590839952
 20
269.534568525286204
 30
0.0
 11
4324.2720543590839952
 21
269.2927731699862193
 31
0.0
  0
LINE
  5
115CB
  8
0
 10
4324.2720543590839952
 20
247.8810252181862097
 30
0.0
 11
4324.2720543590839952
 21
247.6392298628861113
 31
0.0
  0
LINE
  5
115CC
  8
0
 10
4324.2720543590839952
 20
221.8967732496861061
 30
0.0
 11
4324.2720543590839952
 21
221.6549778943860929
 31
0.0
  0
LINE
  5
115CD
  8
0
 10
4324.2720543590839952
 20
200.243229942586197
 30
0.0
 11
4324.2720543590839952
 21
200.0014345872860986
 31
0.0
  0
LINE
  5
115CE
  8
0
 10
4324.3410149890833054
 20
273.5081710030860904
 30
0.0
 11
4324.3410149890833054
 21
273.4097458061860948
 31
0.0
  0
LINE
  5
115CF
  8
0
 10
4324.4689677449832743
 20
273.1932103730861172
 30
0.0
 11
4324.4689677449832743
 21
274.0002969872861058
 31
0.0
  0
LINE
  5
115D0
  8
0
 10
4324.5476449102816332
 20
273.2314279199861176
 30
0.0
 11
4324.5476449102816332
 21
273.1931981998861261
 31
0.0
  0
LINE
  5
115D1
  8
0
 10
4324.5477079024831255
 20
273.2325804518861219
 30
0.0
 11
4324.5477079024831255
 21
274.0790371447861276
 31
0.0
  0
LINE
  5
115D2
  8
0
 10
4324.5496764063827868
 20
274.1262801489860976
 30
0.0
 11
4324.5496764063827868
 21
274.0751101295861076
 31
0.0
  0
LINE
  5
115D3
  8
0
 10
4324.5536134142830633
 20
273.205009223586103
 30
0.0
 11
4324.5536134142830633
 21
273.6013165687861033
 31
0.0
  0
LINE
  5
115D4
  8
0
 10
4324.5536134142830633
 20
273.643347547686119
 30
0.0
 11
4324.5536134142830633
 21
274.1262801489860976
 31
0.0
  0
LINE
  5
115D5
  8
0
 10
4324.6303850677822993
 20
195.3979226093860859
 30
0.0
 11
4324.6303850677822993
 21
273.1933630960497226
 31
0.0
  0
LINE
  5
115D6
  8
0
 10
4324.6381322907818685
 20
273.1982906248853737
 30
0.0
 11
4324.6381322907818685
 21
274.1329987476868837
 31
0.0
  0
LINE
  5
115D7
  8
0
 10
4324.640229370283123
 20
273.205009223586103
 30
0.0
 11
4324.640229370283123
 21
274.1262801489860976
 31
0.0
  0
LINE
  5
115D8
  8
0
 10
4324.703221496282822
 20
274.1774612513860916
 30
0.0
 11
4324.703221496282822
 21
274.1380911725860869
 31
0.0
  0
LINE
  5
115D9
  8
0
 10
4324.7229047527816874
 20
195.3979226093860859
 30
0.0
 11
4324.7229047527816874
 21
274.1380800896861274
 31
0.0
  0
LINE
  5
115DA
  8
0
 10
4325.4375582962820772
 20
229.209229695986096
 30
0.0
 11
4325.4375582962820772
 21
240.4690722156861113
 31
0.0
  0
LINE
  5
115DB
  8
0
 10
4324.2272859626827994
 20
273.3726746727861041
 30
0.0
 11
4324.2270608518829249
 21
273.3249008741860848
 31
0.0
  0
LINE
  5
115DC
  8
0
 10
4323.0582433254821808
 20
239.799780877086107
 30
0.0
 11
4321.849925212683047
 21
239.799780877086107
 31
0.0
  0
LINE
  5
115DD
  8
0
 10
4321.146219713681603
 20
240.5084422943862137
 30
0.0
 11
4323.0582433254821808
 21
240.5084422943862137
 31
0.0
  0
LINE
  5
115DE
  8
0
 10
4324.7229047527816874
 20
240.5084422943862137
 30
0.0
 11
4325.3981882175821738
 21
240.5084422943862137
 31
0.0
  0
LINE
  5
115DF
  8
0
 10
4322.3423474426826942
 20
274.1380911725860869
 30
0.0
 11
4322.3947787613824403
 21
274.0856684215860923
 31
0.0
  0
LINE
  5
115E0
  8
0
 10
4322.6154227834831545
 20
273.5384052231860892
 30
0.0
 11
4322.6052608539830544
 21
273.5356823423861101
 31
0.0
  0
LINE
  5
115E1
  8
0
 10
4323.0582415768831197
 20
272.9689541054860911
 30
0.0
 11
4323.9635546112831435
 21
272.9689541054860911
 31
0.0
  0
LINE
  5
115E2
  8
0
 10
4322.2414070353834177
 20
273.1065951096861113
 30
0.0
 11
4323.9691205523831741
 21
273.1065951096861113
 31
0.0
  0
LINE
  5
115E3
  8
0
 10
4323.9888055917826932
 20
273.1853352670860886
 30
0.0
 11
4322.3122731771827603
 21
273.1853352670860886
 31
0.0
  0
LINE
  5
115E4
  8
0
 10
4324.5654244378829389
 20
273.1931981998861261
 30
0.0
 11
4324.5083378237823126
 21
273.1931981998861261
 31
0.0
  0
LINE
  5
115E5
  8
0
 10
4324.4689677449832743
 20
273.1931981998861261
 30
0.0
 11
4324.0202949910826646
 21
273.1931981998861261
 31
0.0
  0
LINE
  5
115E6
  8
0
 10
4324.5654244378829389
 20
273.1931981999861137
 30
0.0
 11
4324.6284183466832474
 21
273.1931981999861137
 31
0.0
  0
LINE
  5
115E7
  8
0
 10
4322.433534674081784
 20
273.1932092828860732
 30
0.0
 11
4322.3122731771827603
 21
273.1932092828860732
 31
0.0
  0
LINE
  5
115E8
  8
0
 10
4324.0752669575831533
 20
273.1932103730861172
 30
0.0
 11
4322.433534674081784
 21
273.1932103730861172
 31
0.0
  0
LINE
  5
115E9
  8
0
 10
4324.0929834928820128
 20
273.1932103730861172
 30
0.0
 11
4324.5083378237823126
 21
273.1932103730861172
 31
0.0
  0
LINE
  5
115EA
  8
0
 10
4324.5476449102816332
 20
273.2049541054860811
 30
0.0
 11
4324.5536134142830633
 21
273.2049541054860811
 31
0.0
  0
LINE
  5
115EB
  8
0
 10
4322.9847157764816075
 20
273.2719505305860821
 30
0.0
 11
4323.9571567213815797
 21
273.2719505305860821
 31
0.0
  0
LINE
  5
115EC
  8
0
 10
4322.3941645953818806
 20
273.5278560423860768
 30
0.0
 11
4322.3792023109817819
 21
273.5278560423860768
 31
0.0
  0
LINE
  5
115ED
  8
0
 10
4322.3941645953818806
 20
273.5298245463861235
 30
0.0
 11
4322.3201471928823594
 21
273.5298245463861235
 31
0.0
  0
LINE
  5
115EE
  8
0
 10
4322.3941645953818806
 20
273.7817930502861259
 30
0.0
 11
4322.3201471928823594
 21
273.7817930502861259
 31
0.0
  0
LINE
  5
115EF
  8
0
 10
4322.3941645953818806
 20
273.7837615542861158
 30
0.0
 11
4322.3792023109817819
 21
273.7837615542861158
 31
0.0
  0
LINE
  5
115F0
  8
0
 10
4324.4295976662815519
 20
274.0396670660861105
 30
0.0
 11
4324.1146370362830567
 21
274.0396670660861105
 31
0.0
  0
LINE
  5
115F1
  8
0
 10
4323.9571567213815797
 20
274.0396670660861105
 30
0.0
 11
4322.9847157764816075
 21
274.0396670660861105
 31
0.0
  0
LINE
  5
115F2
  8
0
 10
4322.8272354614828146
 20
274.0396670660861105
 30
0.0
 11
4322.5122748315816352
 21
274.0396670660861105
 31
0.0
  0
LINE
  5
115F3
  8
0
 10
4324.5488787053827764
 20
274.0672250308861067
 30
0.0
 11
4324.5477079024831255
 21
274.0672250308861067
 31
0.0
  0
LINE
  5
115F4
  8
0
 10
4324.5083378237823126
 20
274.1184072234860878
 30
0.0
 11
4322.433534674081784
 21
274.1184072234860878
 31
0.0
  0
LINE
  5
115F5
  8
0
 10
4324.7229047527816874
 20
274.1380800896861274
 30
0.0
 11
4324.6381322907818685
 21
274.1380800896861274
 31
0.0
  0
LINE
  5
115F6
  8
0
 10
4324.6284183466832474
 20
274.1380911726860745
 30
0.0
 11
4324.5654244378829389
 21
274.1380911726860745
 31
0.0
  0
LINE
  5
115F7
  8
0
 10
4322.3122731771827603
 20
274.1380911725860869
 30
0.0
 11
4324.6696386855828678
 21
274.1380911725860869
 31
0.0
  0
LINE
  5
115F8
  8
0
 10
4322.2610920747829368
 20
274.2168313300861087
 30
0.0
 11
4324.6638514175820092
 21
274.2168313300861087
 31
0.0
  0
ARC
  5
115F9
  8
0
 10
4321.146219713681603
 20
229.209229695986096
 30
0.0
 40
0.0393700787
 50
180.0
 51
270.0
  0
ARC
  5
115FA
  8
0
 10
4321.9336212884818451
 20
229.917891113286089
 30
0.0
 40
0.0393700787
 50
180.0
 51
270.0
  0
ARC
  5
115FB
  8
0
 10
4323.2331724694822697
 20
195.5002848140860863
 30
0.0
 40
0.0196850394
 50
90.0
 51
180.0
  0
ARC
  5
115FC
  8
0
 10
4323.0934086898823807
 20
195.5160328455860963
 30
0.0
 40
0.0196850394
 50
180.0
 51
270.0
  0
ARC
  5
115FD
  8
0
 10
4323.0540386111815678
 20
196.053434420386111
 30
0.0
 40
0.0196850394
 50
77.6435352415849849
 51
90.0
  0
ARC
  5
115FE
  8
0
 10
4322.8871891643830168
 20
196.053434420386111
 30
0.0
 40
0.0196850394
 50
90.0
 51
180.0
  0
ARC
  5
115FF
  8
0
 10
4322.6894401859826758
 20
273.4097458061860948
 30
0.0
 40
0.0885826772
 50
179.9999999996987015
 51
359.9999999997003783
  0
ARC
  5
11600
  8
0
 10
4322.6894401859826758
 20
273.5081710030860904
 30
0.0
 40
0.0885826772
 50
0.0000000002996337
 51
180.0000000002995932
  0
CIRCLE
  5
11601
  8
0
 10
4323.1953456977817041
 20
273.5278560423860768
 30
0.0
 40
0.0590551181
  0
CIRCLE
  5
11602
  8
0
 10
4323.1953456977817041
 20
273.5278560423860768
 30
0.0
 40
0.0485059373
  0
ARC
  5
11603
  8
0
 10
4322.9847157764816075
 20
273.3113206093860867
 30
0.0
 40
0.0393700787
 50
179.999999999599396
 51
269.9999999994789164
  0
ARC
  5
11604
  8
0
 10
4322.9847157764816075
 20
274.0002969872861058
 30
0.0
 40
0.0393700787
 50
89.9999999995831246
 51
180.0000000003988987
  0
ARC
  5
11605
  8
0
 10
4322.433534674081784
 20
274.0790371447861276
 30
0.0
 40
0.0393700787
 50
89.9999999995831246
 51
180.0
  0
ARC
  5
11606
  8
0
 10
4322.433534674081784
 20
273.2325804518861219
 30
0.0
 40
0.0393700787
 50
180.0
 51
269.999999999895806
  0
ARC
  5
11607
  8
0
 10
4322.8272354614828146
 20
274.0002969872861058
 30
0.0
 40
0.0393700787
 50
0.0
 51
90.0000000004168754
  0
ARC
  5
11608
  8
0
 10
4322.5122748315816352
 20
274.0002969872861058
 30
0.0
 40
0.0393700787
 50
89.9999999995831246
 51
180.0000000002995932
  0
ARC
  5
11609
  8
0
 10
4322.4185723897817297
 20
273.2837604639860842
 30
0.0
 40
0.0393700787
 50
180.0
 51
231.6840441973041038
  0
ARC
  5
1160A
  8
0
 10
4322.2610920747829368
 20
274.1774612513860916
 30
0.0
 40
0.0393700787
 50
90.0
 51
180.0
  0
ARC
  5
1160B
  8
0
 10
4321.146219713681603
 20
240.4690722156861113
 30
0.0
 40
0.0393700787
 50
90.0
 51
180.0
  0
ARC
  5
1160C
  8
0
 10
4321.9336212884818451
 20
239.7604107983862036
 30
0.0
 40
0.0393700787
 50
90.0
 51
180.0
  0
ARC
  5
1160D
  8
0
 10
4322.3988873503840296
 20
273.9369211531861197
 30
0.0
 40
0.0196850394
 50
103.8851307727137936
 51
180.0
  0
ARC
  5
1160E
  8
0
 10
4322.3201471928823594
 20
273.8014780896860998
 30
0.0
 40
0.0196850394
 50
180.0
 51
270.0
  0
ARC
  5
1160F
  8
0
 10
4322.3201471928823594
 20
273.5101395069860928
 30
0.0
 40
0.0196850394
 50
90.0
 51
180.0
  0
ARC
  5
11610
  8
0
 10
4322.2414070353834177
 20
273.1262801489860976
 30
0.0
 40
0.0196850394
 50
180.0000000031998866
 51
270.0000000124022108
  0
ARC
  5
11611
  8
0
 10
4322.3122731771827603
 20
273.2050203064861194
 30
0.0
 40
0.0118110236
 50
191.2713134912974056
 51
269.999999999895806
  0
ARC
  5
11612
  8
0
 10
4322.3122731771827603
 20
274.1262801489860976
 30
0.0
 40
0.0118110236
 50
90.0000000013027659
 51
179.9999999503992001
  0
ARC
  5
11613
  8
0
 10
4322.3122731771827603
 20
273.1971462907861223
 30
0.0
 40
0.0118110236
 50
180.0000000495990946
 51
269.9999999986973194
  0
CIRCLE
  5
11614
  8
0
 10
4324.3567630204834131
 20
221.7758753652861117
 30
0.0
 40
0.1476377953
  0
CIRCLE
  5
11615
  8
0
 10
4324.3567630204834131
 20
200.1223320581860889
 30
0.0
 40
0.1476377953
  0
ARC
  5
11616
  8
0
 10
4325.3981882175821738
 20
229.209229695986096
 30
0.0
 40
0.0393700787
 50
270.0
 51
0.0
  0
ARC
  5
11617
  8
0
 10
4323.3079756190827538
 20
195.5002848140860863
 30
0.0
 40
0.0196850394
 50
0.0
 51
90.0
  0
ARC
  5
11618
  8
0
 10
4323.4477393985825984
 20
195.5160328455860963
 30
0.0
 40
0.0196850394
 50
270.0
 51
0.0
  0
CIRCLE
  5
11619
  8
0
 10
4324.3567630204834131
 20
247.7601273337861016
 30
0.0
 40
0.1476377953
  0
CIRCLE
  5
1161A
  8
0
 10
4324.3567630204834131
 20
269.413670640886096
 30
0.0
 40
0.1476377953
  0
ARC
  5
1161B
  8
0
 10
4324.2524323118823304
 20
273.5081710030860904
 30
0.0
 40
0.0885826772
 50
0.0
 51
179.9999999980996108
  0
ARC
  5
1161C
  8
0
 10
4324.2524323118823304
 20
273.4097458061860948
 30
0.0
 40
0.0885826772
 50
180.0000000018987976
 51
0.0
  0
ARC
  5
1161D
  8
0
 10
4323.4709362488829356
 20
273.773919034586072
 30
0.0
 40
0.0885826772
 50
0.0
 51
179.9999999981988879
  0
ARC
  5
1161E
  8
0
 10
4323.4709362488829356
 20
273.6754938376860764
 30
0.0
 40
0.0885826772
 50
180.0000000018987976
 51
0.0
  0
ARC
  5
1161F
  8
0
 10
4323.4709362488829356
 20
273.5869111604861246
 30
0.0
 40
0.0787401575
 50
26.3806213964930407
 51
153.6117562615071108
  0
ARC
  5
11620
  8
0
 10
4323.4709362488829356
 20
273.5869111604861246
 30
0.0
 40
0.0681909767
 50
22.6545605749932406
 51
157.3477006991010967
  0
CIRCLE
  5
11621
  8
0
 10
4323.7465268000823926
 20
273.5278560423860768
 30
0.0
 40
0.0590551181
  0
ARC
  5
11622
  8
0
 10
4323.4709362488829356
 20
273.5869111604861246
 30
0.0
 40
0.0492125984
 50
16.195443430398921
 51
163.8034408277071066
  0
CIRCLE
  5
11623
  8
0
 10
4323.7465268000823926
 20
273.5278560423860768
 30
0.0
 40
0.0485059373
  0
ARC
  5
11624
  8
0
 10
4323.9571567213815797
 20
274.0002969872861058
 30
0.0
 40
0.0393700787
 50
0.0000000014997969
 51
90.0000000004168754
  0
ARC
  5
11625
  8
0
 10
4323.9571567213815797
 20
273.3113206093860867
 30
0.0
 40
0.0393700787
 50
270.0000000005210836
 51
359.9999999985001864
  0
ARC
  5
11626
  8
0
 10
4324.1146370362830567
 20
274.0002969872861058
 30
0.0
 40
0.0393700787
 50
89.9999999995831246
 51
179.9999999985001864
  0
ARC
  5
11627
  8
0
 10
4324.4295976662815519
 20
274.0002969872861058
 30
0.0
 40
0.0393700787
 50
0.0000000014997969
 51
90.0000000004168754
  0
ARC
  5
11628
  8
0
 10
4323.9691205523831741
 20
273.1262801489860976
 30
0.0
 40
0.0196850394
 50
270.0000000108909717
 51
359.999999998299927
  0
ARC
  5
11629
  8
0
 10
4325.3981882175821738
 20
240.4690722156861113
 30
0.0
 40
0.0393700787
 50
0.0
 51
90.0
  0
ARC
  5
1162A
  8
0
 10
4324.5083378237823126
 20
273.2325804518861219
 30
0.0
 40
0.0393700787
 50
270.000000000104194
 51
0.0
  0
ARC
  5
1162B
  8
0
 10
4324.5083378237823126
 20
274.0790371447861276
 30
0.0
 40
0.0393700787
 50
0.0
 51
90.0000000004168754
  0
ARC
  5
1162C
  8
0
 10
4324.5103063276828834
 20
274.0751101295861076
 30
0.0
 40
0.0393700787
 50
341.8506826530997955
 51
0.0
  0
ARC
  5
1162D
  8
0
 10
4324.6638514175820092
 20
274.1774612513860916
 30
0.0
 40
0.0393700787
 50
0.0
 51
90.0
  0
ARC
  5
1162E
  8
0
 10
4324.5457428863828682
 20
273.6223320581860889
 30
0.0
 40
0.0224409449
 50
290.5314681236018828
 51
69.4685318763980177
  0
ARC
  5
1162F
  8
0
 10
4324.5427901304819898
 20
273.6223320581860889
 30
0.0
 40
0.0196850394
 50
284.2813994864177971
 51
75.5309314590226251
  0
ARC
  5
11630
  8
0
 10
4324.5358968788823404
 20
273.9392733652861125
 30
0.0
 40
0.0177165354
 50
0.0
 51
48.1705111426936767
  0
ARC
  5
11631
  8
0
 10
4324.5358968788823404
 20
273.7384859636861165
 30
0.0
 40
0.0177165354
 50
311.8294868034926139
 51
0.0
  0
ARC
  5
11632
  8
0
 10
4324.5358968788823404
 20
273.6528166723861091
 30
0.0
 40
0.0177165354
 50
0.0
 51
48.1705111447091809
  0
ARC
  5
11633
  8
0
 10
4324.5654244378829389
 20
273.205009223586103
 30
0.0
 40
0.0118110236
 50
180.0
 51
270.0
  0
ARC
  5
11634
  8
0
 10
4324.6284183466832474
 20
273.205009223586103
 30
0.0
 40
0.0118110236
 50
270.0
 51
0.0
  0
ARC
  5
11635
  8
0
 10
4324.6284183466832474
 20
274.1262801489860976
 30
0.0
 40
0.0118110236
 50
0.0
 51
90.0
  0
ARC
  5
11636
  8
0
 10
4324.5654244378829389
 20
274.1262801489860976
 30
0.0
 40
0.0118110236
 50
90.0
 51
180.0
  0
ARC
  5
11637
  8
0
 10
4324.5418023906822782
 20
274.0475399914860759
 30
0.0
 40
0.0118110236
 50
300.0013737529060904
 51
0.0
  0
ARC
  5
11638
  8
0
 10
4324.5378653827820017
 20
274.1262801489860976
 30
0.0
 40
0.0118110236
 50
0.0
 51
89.9999999993225543
  0
ARC
  5
11639
  8
0
 10
4321.8591129792393986
 20
229.6568885737356993
 30
0.0
 40
0.2218228183864043
 50
92.3738355012968668
 51
124.7489384056147941
  0
ARC
  5
1163A
  8
0
 10
4321.8438651672258857
 20
239.9760041719981984
 30
0.0
 40
0.1763274619014657
 50
230.9076892457480881
 51
271.9695367594964068
  0
ENDSEC
  0
EOF
