  0
SECTION
  2
HEADER
  9
$ACADVER
  1
AC1009
  9
$INSBASE
 10
4258.6220432694863121
 20
195.6977460749891975
 30
0.0
  9
$EXTMIN
 10
4229.3517361884196362
 20
195.693490903188291
 30
-0.0000000000000058
  9
$EXTMAX
 10
4287.8381743251366061
 20
274.5235742874746165
 30
0.0000000000000104
  9
$LIMMIN
 10
0.0
 20
0.0
  9
$LIMMAX
 10
11.6929133858000007
 20
8.2677165353999982
  9
$ORTHOMODE
 70
     0
  9
$REGENMODE
 70
     1
  9
$FILLMODE
 70
     1
  9
$QTEXTMODE
 70
     0
  9
$MIRRTEXT
 70
     0
  9
$DRAGMODE
 70
     2
  9
$LTSCALE
 40
0.6431102362
  9
$OSMODE
 70
  4095
  9
$ATTMODE
 70
     1
  9
$TEXTSIZE
 40
0.2
  9
$TRACEWID
 40
0.05
  9
$TEXTSTYLE
  7
STANDARD
  9
$CLAYER
  8
0
  9
$CELTYPE
  6
BYLAYER
  9
$CECOLOR
 62
   256
  9
$DIMSCALE
 40
1.0
  9
$DIMASZ
 40
0.1875
  9
$DIMEXO
 40
0.0625
  9
$DIMDLI
 40
0.4443307087
  9
$DIMRND
 40
0.0
  9
$DIMDLE
 40
0.0
  9
$DIMEXE
 40
0.125
  9
$DIMTP
 40
0.01
  9
$DIMTM
 40
0.01
  9
$DIMTXT
 40
2.0
  9
$DIMCEN
 40
0.1052362205
  9
$DIMTSZ
 40
0.0
  9
$DIMTOL
 70
     1
  9
$DIMLIM
 70
     0
  9
$DIMTIH
 70
     1
  9
$DIMTOH
 70
     1
  9
$DIMSE1
 70
     0
  9
$DIMSE2
 70
     0
  9
$DIMTAD
 70
     0
  9
$DIMZIN
 70
     0
  9
$DIMBLK
  1

  9
$DIMASO
 70
     1
  9
$DIMSHO
 70
     1
  9
$DIMPOST
  1
\X
  9
$DIMAPOST
  1

  9
$DIMALT
 70
     1
  9
$DIMALTD
 70
     2
  9
$DIMALTF
 40
25.3999999999999986
  9
$DIMLFAC
 40
1.0
  9
$DIMTOFL
 70
     0
  9
$DIMTVP
 40
0.0
  9
$DIMTIX
 70
     0
  9
$DIMSOXD
 70
     0
  9
$DIMSAH
 70
     0
  9
$DIMBLK1
  1

  9
$DIMBLK2
  1

  9
$DIMSTYLE
  2
STANDARD
  9
$DIMCLRD
 70
     0
  9
$DIMCLRE
 70
     0
  9
$DIMCLRT
 70
     0
  9
$DIMTFAC
 40
1.0
  9
$DIMGAP
 40
0.09
  9
$LUNITS
 70
     2
  9
$LUPREC
 70
     4
  9
$SKETCHINC
 40
0.1
  9
$FILLETRAD
 40
0.0
  9
$AUNITS
 70
     0
  9
$AUPREC
 70
     0
  9
$MENU
  1
.
  9
$ELEVATION
 40
0.0
  9
$PELEVATION
 40
0.0
  9
$THICKNESS
 40
0.0
  9
$LIMCHECK
 70
     0
  9
$BLIPMODE
 70
     0
  9
$CHAMFERA
 40
0.0
  9
$CHAMFERB
 40
0.0
  9
$SKPOLY
 70
     0
  9
$TDCREATE
 40
2458060.468368056230247
  9
$TDUPDATE
 40
2459508.8533449079841375
  9
$TDINDWG
 40
0.7581204861
  9
$TDUSRTIMER
 40
0.7581204861
  9
$USRTIMER
 70
     1
  9
$ANGBASE
 50
0.0
  9
$ANGDIR
 70
     0
  9
$PDMODE
 70
     0
  9
$PDSIZE
 40
0.3125
  9
$PLINEWID
 40
0.0
  9
$COORDS
 70
     1
  9
$SPLFRAME
 70
     0
  9
$SPLINETYPE
 70
     6
  9
$SPLINESEGS
 70
     8
  9
$ATTDIA
 70
     1
  9
$ATTREQ
 70
     1
  9
$HANDLING
 70
     1
  9
$HANDSEED
  5
11555
  9
$SURFTAB1
 70
     6
  9
$SURFTAB2
 70
     6
  9
$SURFTYPE
 70
     6
  9
$SURFU
 70
     6
  9
$SURFV
 70
     6
  9
$UCSNAME
  2

  9
$UCSORG
 10
0.0
 20
0.0
 30
0.0
  9
$UCSXDIR
 10
1.0
 20
0.0
 30
0.0
  9
$UCSYDIR
 10
0.0
 20
1.0
 30
0.0
  9
$PUCSNAME
  2

  9
$PUCSORG
 10
0.0
 20
0.0
 30
0.0
  9
$PUCSXDIR
 10
1.0
 20
0.0
 30
0.0
  9
$PUCSYDIR
 10
0.0
 20
1.0
 30
0.0
  9
$USERI1
 70
     0
  9
$USERI2
 70
     0
  9
$USERI3
 70
     0
  9
$USERI4
 70
     0
  9
$USERI5
 70
     0
  9
$USERR1
 40
0.0
  9
$USERR2
 40
0.0
  9
$USERR3
 40
0.0
  9
$USERR4
 40
0.0
  9
$USERR5
 40
0.0
  9
$WORLDVIEW
 70
     1
  9
$SHADEDGE
 70
     3
  9
$SHADEDIF
 70
    70
  9
$TILEMODE
 70
     1
  9
$MAXACTVP
 70
    64
  9
$PLIMCHECK
 70
     0
  9
$PEXTMIN
 10
1.0000000000000000E+20
 20
1.0000000000000000E+20
 30
1.0000000000000000E+20
  9
$PEXTMAX
 10
-1.0000000000000000E+20
 20
-1.0000000000000000E+20
 30
-1.0000000000000000E+20
  9
$PLIMMIN
 10
0.0
 20
0.0
  9
$PLIMMAX
 10
12.0
 20
9.0
  9
$UNITMODE
 70
     0
  9
$VISRETAIN
 70
     1
  9
$PLINEGEN
 70
     0
  9
$PSLTSCALE
 70
     1
  0
ENDSEC
  0
SECTION
  2
TABLES
  0
TABLE
  2
VPORT
 70
     1
  0
VPORT
  2
*ACTIVE
 70
     0
 10
0.0
 20
0.0
 11
1.0
 21
1.0
 12
614.5191495927165306
 22
75.1642920955338525
 13
0.0
 23
0.0
 14
1.0
 24
1.0
 15
0.0
 25
0.0
 16
0.0
 26
0.0
 36
26.6346482412083887
 17
3644.0758056640620453
 27
159.9442404997975871
 37
0.0
 40
79.5774084815455467
 41
2.8393393393393391
 42
50.0
 43
0.0
 44
0.0
 50
0.0
 51
0.0
 71
     0
 72
   100
 73
     1
 74
     1
 75
     0
 76
     0
 77
     0
 78
     0
  0
ENDTAB
  0
TABLE
  2
LTYPE
 70
     2
  0
LTYPE
  2
CONTINUOUS
 70
     0
  3
Solid line
 72
    65
 73
     0
 40
0.0
  0
LTYPE
  2
PHANTOM2
 70
     0
  3
___ _ _ ___ _ _ ___ _ _ ___ _ _
 72
    65
 73
     6
 40
1.25
 49
0.625
 49
-0.125
 49
0.125
 49
-0.125
 49
0.125
 49
-0.125
  0
ENDTAB
  0
TABLE
  2
LAYER
 70
     2
  0
LAYER
  2
0
 70
     0
 62
   255
  6
CONTINUOUS
  0
LAYER
  2
DEFPOINTS
 70
     0
 62
     7
  6
CONTINUOUS
  0
ENDTAB
  0
TABLE
  2
STYLE
 70
     1
  0
STYLE
  2
STANDARD
 70
     0
 40
0.0
 41
0.8
 50
0.0
 71
     0
 42
0.2
  3
txt
  4

  0
ENDTAB
  0
TABLE
  2
VIEW
 70
     0
  0
ENDTAB
  0
TABLE
  2
UCS
 70
     0
  0
ENDTAB
  0
TABLE
  2
APPID
 70
    10
  0
APPID
  2
ACAD
 70
     0
  0
APPID
  2
ACAD_MLEADERVER
 70
     0
  0
APPID
  2
ACAD_EXEMPT_FROM_CAD_STANDARDS
 70
     0
  0
APPID
  2
ACAD_NAV_VCDISPLAY
 70
     0
  0
APPID
  2
ACAECLAYERSTANDARD
 70
     0
  0
APPID
  2
ACCMTRANSPARENCY
 70
     0
  0
APPID
  2
ACAD_DSTYLE_DIMJAG
 70
     0
  0
APPID
  2
ACAD_DSTYLE_DIMTALN
 70
     0
  0
APPID
  2
ACDBATTR
 70
     0
  0
APPID
  2
ACAD_PSEXT
 70
     0
  0
ENDTAB
  0
TABLE
  2
DIMSTYLE
 70
     1
  0
DIMSTYLE
  2
STANDARD
 70
     0
  3

  4

  5

  6

  7

 40
1.0
 41
0.1875
 42
0.0625
 43
0.38
 44
0.125
 45
0.0
 46
0.0
 47
0.01
 48
0.01
140
0.15625
141
0.09
142
0.0
143
25.3999999999999986
144
1.0
145
0.0
146
1.0
147
0.09
 71
     1
 72
     0
 73
     1
 74
     1
 75
     0
 76
     0
 77
     0
 78
     4
170
     0
171
     2
172
     0
173
     0
174
     0
175
     0
176
     0
177
     0
178
     0
  0
ENDTAB
  0
ENDSEC
  0
SECTION
  2
BLOCKS
  0
BLOCK
  8
0
  2
$MODEL_SPACE
 70
     0
 10
0.0
 20
0.0
 30
0.0
  3
$MODEL_SPACE
  1

  0
ENDBLK
  5
21
  8
0
  0
BLOCK
 67
     1
  8
0
  2
$PAPER_SPACE
 70
     0
 10
0.0
 20
0.0
 30
0.0
  3
$PAPER_SPACE
  1

  0
ENDBLK
  5
1D
 67
     1
  8
0
  0
ENDSEC
  0
SECTION
  2
ENTITIES
  0
ATTDEF
  5
AA11
  8
DEFPOINTS
 10
4258.6192485859646695
 20
195.7063248609331936
 30
0.0
 40
0.001
  1
K-1.1922.019
  3

  2
MODELNUMBER
 70
     0
1001
ACDBATTR
1070
     0
1070
     1
  0
ATTDEF
  5
AA12
  8
DEFPOINTS
 10
4258.6192485859646695
 20
195.7046581942665
 30
0.0
 40
0.001
  1

  3

  2
TRADENAME
 70
     0
1001
ACDBATTR
1070
     0
1070
     1
  0
ATTDEF
  5
AA13
  8
DEFPOINTS
 10
4258.6192485859646695
 20
195.7029915275998064
 30
0.0
 40
0.001
  1
SHOWER DOOR
  3

  2
PRODUCT
 70
     0
1001
ACDBATTR
1070
     0
1070
     1
  0
LINE
  5
11405
  8
0
 10
4230.3936456316860131
 20
196.0641712718891938
 30
0.0
 11
4230.3542755529852002
 21
196.1035413505892109
 31
0.0
  0
LINE
  5
11406
  8
0
 10
4229.4882755529861242
 20
195.6977460749891975
 30
0.0
 11
4287.7558109859874094
 21
195.6977460749891975
 31
0.0
  0
LINE
  5
11407
  8
0
 10
4237.6573857891862644
 20
195.7764862324891908
 30
0.0
 11
4238.208566891485134
 21
195.7764862324891908
 31
0.0
  0
LINE
  5
11408
  8
0
 10
4237.6573857891862644
 20
195.8355413505892102
 30
0.0
 11
4238.208566891485134
 21
195.8355413505892102
 31
0.0
  0
LINE
  5
11409
  8
0
 10
4258.4605747655859886
 20
196.0640531615891859
 30
0.0
 11
4258.7046736842858081
 21
196.0640531615891859
 31
0.0
  0
LINE
  5
1140A
  8
0
 10
4230.3936456316860131
 20
196.0641712718891938
 30
0.0
 11
4230.5906153371861365
 21
196.0641712718891938
 31
0.0
  0
LINE
  5
1140B
  8
0
 10
4231.37800939018598
 20
196.0641712718891938
 30
0.0
 11
4255.9255353954858947
 21
196.0641712718891938
 31
0.0
  0
LINE
  5
1140C
  8
0
 10
4256.7916771277850785
 20
196.0641712718891938
 30
0.0
 11
4258.7046692537860508
 21
196.0641712718891938
 31
0.0
  0
LINE
  5
1140D
  8
0
 10
4256.7916771277850785
 20
196.0641712718891938
 30
0.0
 11
4258.4605747655859886
 21
196.0641712718891938
 31
0.0
  0
LINE
  5
1140E
  8
0
 10
4258.4605747655859886
 20
196.1035413505892109
 30
0.0
 11
4256.7916771277850785
 21
196.1035413505892109
 31
0.0
  0
LINE
  5
1140F
  8
0
 10
4258.4605747655859886
 20
196.1035413505892109
 30
0.0
 11
4256.7916771277850785
 21
196.1035413505892109
 31
0.0
  0
LINE
  5
11410
  8
0
 10
4255.9255353954858947
 20
196.1035413505892109
 30
0.0
 11
4231.3780093408859102
 21
196.1035413505892109
 31
0.0
  0
LINE
  5
11411
  8
0
 10
4230.5906153371861365
 20
196.1035413505892109
 30
0.0
 11
4230.3936456316860131
 21
196.1035413505892109
 31
0.0
  0
LINE
  5
11412
  8
0
 10
4230.6103153371859662
 20
196.3001082796891978
 30
0.0
 11
4231.3583088294017216
 21
196.3001082796891978
 31
0.0
  0
ARC
  5
11413
  8
0
 10
4230.6103153371859662
 20
196.2804082796891976
 30
0.0
 40
0.0197
 50
90.0
 51
180.0
  0
LINE
  5
11414
  8
0
 10
4258.7046692537860508
 20
196.3001082796891978
 30
0.0
 11
4286.1810078363851062
 21
196.3001082796891978
 31
0.0
  0
LINE
  5
11415
  8
0
 10
4256.7719920883873783
 20
196.3729429253891965
 30
0.0
 11
4255.9452204348863233
 21
196.3729429253891965
 31
0.0
  0
LINE
  5
11416
  8
0
 10
4230.3149054741870714
 20
196.379383870289189
 30
0.0
 11
4230.5733542930865951
 21
196.379383870289189
 31
0.0
  0
LINE
  5
11417
  8
0
 10
4229.4882755529861242
 20
195.6977460749891975
 30
0.0
 11
4229.4882755529861242
 21
273.4457886539892115
 31
0.0
  0
LINE
  5
11418
  8
0
 10
4229.4882755528860798
 20
273.4457886539892115
 30
0.0
 11
4229.4882755528860798
 21
274.4772847169891747
 31
0.0
  0
LINE
  5
11419
  8
0
 10
4230.3149054741870714
 20
196.379383870289189
 30
0.0
 11
4230.3149054741870714
 21
273.2297775710891869
 31
0.0
  0
LINE
  5
1141A
  8
0
 10
4230.3542755529852002
 20
273.4064185751893206
 30
0.0
 11
4230.3542755529852002
 21
273.2297775710891869
 31
0.0
  0
LINE
  5
1141B
  8
0
 10
4230.3542755529852002
 20
196.379383870289189
 30
0.0
 11
4230.3542755529852002
 21
196.1035413505892109
 31
0.0
  0
LINE
  5
1141C
  8
0
 10
4230.3936456316860131
 20
196.1035413505892109
 30
0.0
 11
4230.3936456316860131
 21
196.379383870289189
 31
0.0
  0
LINE
  5
1141D
  8
0
 10
4230.3936456316860131
 20
273.2297775710891869
 30
0.0
 11
4230.3936456316860131
 21
273.4064185751893206
 31
0.0
  0
LINE
  5
1141E
  8
0
 10
4230.5733542930865951
 20
273.2297775710891869
 30
0.0
 11
4230.5733542930865951
 21
196.379383870289189
 31
0.0
  0
LINE
  5
1141F
  8
0
 10
4230.5906153371861365
 20
195.6977460749891975
 30
0.0
 11
4230.5906153371861365
 21
196.2804082796891976
 31
0.0
  0
LINE
  5
11420
  8
0
 10
4231.0630787025856989
 20
274.4772847169891747
 30
0.0
 11
4231.0630787025856989
 21
273.4457886539892115
 31
0.0
  0
LINE
  5
11421
  8
0
 10
4231.3780088294006418
 20
196.2804082997178909
 30
0.0
 11
4231.3780094217863734
 21
195.6977460749891975
 31
0.0
  0
ARC
  5
11422
  8
0
 10
4231.3583088294017216
 20
196.2804082796891976
 30
0.0
 40
0.0197
 50
0.0000582518453528
 51
90.0
  0
LINE
  5
11423
  8
0
 10
4232.5196298836863207
 20
229.5090531615892075
 30
0.0
 11
4232.5196298836863207
 21
240.7688956812891945
 31
0.0
  0
LINE
  5
11424
  8
0
 10
4233.3070314584856533
 20
229.5090531615892075
 30
0.0
 11
4233.3070314584856533
 21
240.7688956812891945
 31
0.0
  0
LINE
  5
11425
  8
0
 10
4237.5786456316864133
 20
196.0641712718891938
 30
0.0
 11
4237.5786456316864133
 21
195.9142815080892035
 31
0.0
  0
LINE
  5
11426
  8
0
 10
4238.2873070489868041
 20
195.9142815080892035
 30
0.0
 11
4238.2873070489868041
 21
196.0641712718891938
 31
0.0
  0
LINE
  5
11427
  8
0
 10
4232.5589999625863129
 20
229.4696830828891905
 30
0.0
 11
4233.2676613795865705
 21
229.4696830828891905
 31
0.0
  0
LINE
  5
11428
  8
0
 10
4255.9255353954858947
 20
195.6977460749891975
 30
0.0
 11
4255.9255353954858947
 21
196.3532578859891942
 31
0.0
  0
LINE
  5
11429
  8
0
 10
4256.7916771277850785
 20
196.3532578859891942
 30
0.0
 11
4256.7916771277850785
 21
195.6977460749891975
 31
0.0
  0
LINE
  5
1142A
  8
0
 10
4258.4605747655859886
 20
196.0640531615891859
 30
0.0
 11
4258.4605747655859886
 21
273.2687775710891742
 31
0.0
  0
LINE
  5
1142B
  8
0
 10
4258.6219920883868326
 20
273.4930327484892132
 30
0.0
 11
4258.6219920883868326
 21
273.2687775710891742
 31
0.0
  0
LINE
  5
1142C
  8
0
 10
4258.6613621671858709
 20
273.4930327484892132
 30
0.0
 11
4258.6613621671858709
 21
273.2687775710891742
 31
0.0
  0
LINE
  5
1142D
  8
0
 10
4258.7046692537860508
 20
273.2687775710891742
 30
0.0
 11
4258.7046692537860508
 21
196.0641712718891938
 31
0.0
  0
LINE
  5
1142E
  8
0
 10
4230.3739605922855844
 20
196.0838563111892086
 30
0.0
 11
4230.3936456316860131
 21
196.1035413505892109
 31
0.0
  0
LINE
  5
1142F
  8
0
 10
4233.2676613795865705
 20
240.8082657599892968
 30
0.0
 11
4232.5589999625863129
 21
240.8082657599892968
 31
0.0
  0
LINE
  5
11430
  8
0
 10
4286.1810078363851062
 20
195.6977460749891975
 30
0.0
 11
4286.1810078363851062
 21
273.4261036145891808
 31
0.0
  0
LINE
  5
11431
  8
0
 10
4286.1810078362859713
 20
273.4261036145891808
 30
0.0
 11
4286.1810078362859713
 21
274.4772847169891747
 31
0.0
  0
LINE
  5
11432
  8
0
 10
4287.755810985887365
 20
274.4772847169891747
 30
0.0
 11
4287.755810985887365
 21
273.4261036145891808
 31
0.0
  0
LINE
  5
11433
  8
0
 10
4287.7558109859874094
 20
273.4261036145891808
 30
0.0
 11
4287.7558109859874094
 21
195.6977460749891975
 31
0.0
  0
LINE
  5
11434
  8
0
 10
4230.5733542930865951
 20
273.2297775710891869
 30
0.0
 11
4230.3149054741870714
 21
273.2297775710891869
 31
0.0
  0
LINE
  5
11435
  8
0
 10
4258.7046736842858081
 20
273.2687775710891742
 30
0.0
 11
4258.4605747655859886
 21
273.2687775710891742
 31
0.0
  0
LINE
  5
11436
  8
0
 10
4231.0237086237857511
 20
273.4064185751893206
 30
0.0
 11
4229.5276456316860276
 21
273.4064185751893206
 31
0.0
  0
LINE
  5
11437
  8
0
 10
4286.2006928756863999
 20
273.4064185752891945
 30
0.0
 11
4287.7361259465860712
 21
273.4064185752891945
 31
0.0
  0
LINE
  5
11438
  8
0
 10
4286.1810078362859713
 20
273.4930327484892132
 30
0.0
 11
4231.0630787025856989
 21
273.4930327484892132
 31
0.0
  0
LINE
  5
11439
  8
0
 10
4231.0630787025856989
 20
274.4379146381892269
 30
0.0
 11
4286.1810078362859713
 21
274.4379146381892269
 31
0.0
  0
LINE
  5
1143A
  8
0
 10
4229.5276456316860276
 20
274.5166547956891918
 30
0.0
 11
4231.0237086237857511
 21
274.5166547956891918
 31
0.0
  0
LINE
  5
1143B
  8
0
 10
4286.2203779150859191
 20
274.5166547956891918
 30
0.0
 11
4287.7164409071856426
 21
274.5166547956891918
 31
0.0
  0
ARC
  5
1143C
  8
0
 10
4238.208566891485134
 20
195.6977460749891975
 30
0.0
 40
0.0787401575
 50
0.0
 51
90.0000000001042082
  0
ARC
  5
1143D
  8
0
 10
4237.6573857891862644
 20
195.6977460749891975
 30
0.0
 40
0.0787401575
 50
89.9999999998957776
 51
180.0
  0
ARC
  5
1143E
  8
0
 10
4237.6573857891862644
 20
195.9142815080892035
 30
0.0
 40
0.0787401575
 50
180.0
 51
270.0
  0
ARC
  5
1143F
  8
0
 10
4238.208566891485134
 20
195.9142815080892035
 30
0.0
 40
0.0787401575
 50
270.0
 51
0.0
  0
ARC
  5
11440
  8
0
 10
4233.267661379686615
 20
229.5090531615892075
 30
0.0
 40
0.0393700787
 50
270.0
 51
0.0
  0
ARC
  5
11441
  8
0
 10
4232.5589999623862241
 20
229.5090531615892075
 30
0.0
 40
0.0393700787
 50
180.0
 51
270.0
  0
ARC
  5
11442
  8
0
 10
4255.9452204348863233
 20
196.3532578859891942
 30
0.0
 40
0.0196850394
 50
89.9999999998957776
 51
180.0
  0
ARC
  5
11443
  8
0
 10
4229.5276456316860276
 20
274.4772847169891747
 30
0.0
 40
0.0393700787
 50
90.0
 51
180.0
  0
ARC
  5
11444
  8
0
 10
4229.5276456316860276
 20
273.4457886539892115
 30
0.0
 40
0.0393700787
 50
180.0
 51
270.0
  0
ARC
  5
11445
  8
0
 10
4231.0237086237857511
 20
274.4772847169891747
 30
0.0
 40
0.0393700787
 50
0.0
 51
90.0
  0
ARC
  5
11446
  8
0
 10
4231.0237086237857511
 20
273.4457886539892115
 30
0.0
 40
0.0393700787
 50
269.9999999995831104
 51
359.9999999997996838
  0
ARC
  5
11447
  8
0
 10
4233.267661379686615
 20
240.7688956812891945
 30
0.0
 40
0.0393700787
 50
0.0
 51
90.0
  0
ARC
  5
11448
  8
0
 10
4232.5589999623862241
 20
240.7688956812891945
 30
0.0
 40
0.0393700787
 50
90.0
 51
180.0
  0
ARC
  5
11449
  8
0
 10
4256.7719920883873783
 20
196.3532578859891942
 30
0.0
 40
0.0196850394
 50
0.0
 51
90.0
  0
ARC
  5
1144A
  8
0
 10
4287.7164409071856426
 20
274.4772847169891747
 30
0.0
 40
0.0393700787
 50
0.0
 51
90.0
  0
ARC
  5
1144B
  8
0
 10
4286.2203779150859191
 20
274.4772847169891747
 30
0.0
 40
0.0393700787
 50
90.0
 51
180.0
  0
ARC
  5
1144C
  8
0
 10
4286.2006928756863999
 20
273.4261036145891808
 30
0.0
 40
0.0196850394
 50
180.0000000007995027
 51
269.9999999935903929
  0
ARC
  5
1144D
  8
0
 10
4287.7361259465860712
 20
273.4261036145891808
 30
0.0
 40
0.0196850394
 50
270.0000000069827024
 51
359.9999999998991029
  0
ENDSEC
  0
EOF
