  0
SECTION
  2
HEADER
  9
$ACADVER
  1
AC1009
  9
$INSBASE
 10
4046.0378492523600471
 20
176.3678986529974964
 30
0.0
  9
$EXTMIN
 10
4043.6723855128088871
 20
176.3678986529974964
 30
0.0
  9
$EXTMAX
 10
4048.0030941742079449
 20
255.1868073736974907
 30
0.0
  9
$LIMMIN
 10
0.0
 20
0.0
  9
$LIMMAX
 10
11.6929133858000007
 20
8.2677165353999982
  9
$ORTHOMODE
 70
     0
  9
$REGENMODE
 70
     1
  9
$FILLMODE
 70
     1
  9
$QTEXTMODE
 70
     0
  9
$MIRRTEXT
 70
     0
  9
$DRAGMODE
 70
     2
  9
$LTSCALE
 40
0.6431102362
  9
$OSMODE
 70
  4095
  9
$ATTMODE
 70
     1
  9
$TEXTSIZE
 40
0.2
  9
$TRACEWID
 40
0.05
  9
$TEXTSTYLE
  7
STANDARD
  9
$CLAYER
  8
0
  9
$CELTYPE
  6
BYLAYER
  9
$CECOLOR
 62
   256
  9
$DIMSCALE
 40
1.0
  9
$DIMASZ
 40
0.1875
  9
$DIMEXO
 40
0.0625
  9
$DIMDLI
 40
0.4443307087
  9
$DIMRND
 40
0.0
  9
$DIMDLE
 40
0.0
  9
$DIMEXE
 40
0.125
  9
$DIMTP
 40
0.01
  9
$DIMTM
 40
0.01
  9
$DIMTXT
 40
2.0
  9
$DIMCEN
 40
0.1052362205
  9
$DIMTSZ
 40
0.0
  9
$DIMTOL
 70
     1
  9
$DIMLIM
 70
     0
  9
$DIMTIH
 70
     1
  9
$DIMTOH
 70
     1
  9
$DIMSE1
 70
     0
  9
$DIMSE2
 70
     0
  9
$DIMTAD
 70
     0
  9
$DIMZIN
 70
     0
  9
$DIMBLK
  1

  9
$DIMASO
 70
     1
  9
$DIMSHO
 70
     1
  9
$DIMPOST
  1
\X
  9
$DIMAPOST
  1

  9
$DIMALT
 70
     1
  9
$DIMALTD
 70
     2
  9
$DIMALTF
 40
25.3999999999999986
  9
$DIMLFAC
 40
1.0
  9
$DIMTOFL
 70
     0
  9
$DIMTVP
 40
0.0
  9
$DIMTIX
 70
     0
  9
$DIMSOXD
 70
     0
  9
$DIMSAH
 70
     0
  9
$DIMBLK1
  1

  9
$DIMBLK2
  1

  9
$DIMSTYLE
  2
STANDARD
  9
$DIMCLRD
 70
     0
  9
$DIMCLRE
 70
     0
  9
$DIMCLRT
 70
     0
  9
$DIMTFAC
 40
1.0
  9
$DIMGAP
 40
0.09
  9
$LUNITS
 70
     2
  9
$LUPREC
 70
     4
  9
$SKETCHINC
 40
0.1
  9
$FILLETRAD
 40
0.0
  9
$AUNITS
 70
     0
  9
$AUPREC
 70
     0
  9
$MENU
  1
.
  9
$ELEVATION
 40
0.0
  9
$PELEVATION
 40
0.0
  9
$THICKNESS
 40
0.0
  9
$LIMCHECK
 70
     0
  9
$BLIPMODE
 70
     0
  9
$CHAMFERA
 40
0.0
  9
$CHAMFERB
 40
0.0
  9
$SKPOLY
 70
     0
  9
$TDCREATE
 40
2458060.468368056230247
  9
$TDUPDATE
 40
2459507.7268055560998619
  9
$TDINDWG
 40
0.7364885417
  9
$TDUSRTIMER
 40
0.7364885417
  9
$USRTIMER
 70
     1
  9
$ANGBASE
 50
0.0
  9
$ANGDIR
 70
     0
  9
$PDMODE
 70
     0
  9
$PDSIZE
 40
0.3125
  9
$PLINEWID
 40
0.0
  9
$COORDS
 70
     1
  9
$SPLFRAME
 70
     0
  9
$SPLINETYPE
 70
     6
  9
$SPLINESEGS
 70
     8
  9
$ATTDIA
 70
     1
  9
$ATTREQ
 70
     1
  9
$HANDLING
 70
     1
  9
$HANDSEED
  5
11310
  9
$SURFTAB1
 70
     6
  9
$SURFTAB2
 70
     6
  9
$SURFTYPE
 70
     6
  9
$SURFU
 70
     6
  9
$SURFV
 70
     6
  9
$UCSNAME
  2

  9
$UCSORG
 10
0.0
 20
0.0
 30
0.0
  9
$UCSXDIR
 10
1.0
 20
0.0
 30
0.0
  9
$UCSYDIR
 10
0.0
 20
1.0
 30
0.0
  9
$PUCSNAME
  2

  9
$PUCSORG
 10
0.0
 20
0.0
 30
0.0
  9
$PUCSXDIR
 10
1.0
 20
0.0
 30
0.0
  9
$PUCSYDIR
 10
0.0
 20
1.0
 30
0.0
  9
$USERI1
 70
     0
  9
$USERI2
 70
     0
  9
$USERI3
 70
     0
  9
$USERI4
 70
     0
  9
$USERI5
 70
     0
  9
$USERR1
 40
0.0
  9
$USERR2
 40
0.0
  9
$USERR3
 40
0.0
  9
$USERR4
 40
0.0
  9
$USERR5
 40
0.0
  9
$WORLDVIEW
 70
     1
  9
$SHADEDGE
 70
     3
  9
$SHADEDIF
 70
    70
  9
$TILEMODE
 70
     1
  9
$MAXACTVP
 70
    64
  9
$PLIMCHECK
 70
     0
  9
$PEXTMIN
 10
1.0000000000000000E+20
 20
1.0000000000000000E+20
 30
1.0000000000000000E+20
  9
$PEXTMAX
 10
-1.0000000000000000E+20
 20
-1.0000000000000000E+20
 30
-1.0000000000000000E+20
  9
$PLIMMIN
 10
0.0
 20
0.0
  9
$PLIMMAX
 10
12.0
 20
9.0
  9
$UNITMODE
 70
     0
  9
$VISRETAIN
 70
     1
  9
$PLINEGEN
 70
     0
  9
$PSLTSCALE
 70
     1
  0
ENDSEC
  0
SECTION
  2
TABLES
  0
TABLE
  2
VPORT
 70
     1
  0
VPORT
  2
*ACTIVE
 70
     0
 10
0.0
 20
0.0
 11
1.0
 21
1.0
 12
401.7619341794464276
 22
55.833112513549878
 13
0.0
 23
0.0
 14
1.0
 24
1.0
 15
0.0
 25
0.0
 16
0.0
 26
0.0
 36
26.6346482412083887
 17
3644.0758056640620453
 27
159.9442404997975871
 37
0.0
 40
79.566127879893628
 41
2.8393393393393391
 42
50.0
 43
0.0
 44
0.0
 50
0.0
 51
0.0
 71
     0
 72
   100
 73
     1
 74
     1
 75
     0
 76
     0
 77
     0
 78
     0
  0
ENDTAB
  0
TABLE
  2
LTYPE
 70
     2
  0
LTYPE
  2
CONTINUOUS
 70
     0
  3
Solid line
 72
    65
 73
     0
 40
0.0
  0
LTYPE
  2
PHANTOM2
 70
     0
  3
___ _ _ ___ _ _ ___ _ _ ___ _ _
 72
    65
 73
     6
 40
1.25
 49
0.625
 49
-0.125
 49
0.125
 49
-0.125
 49
0.125
 49
-0.125
  0
ENDTAB
  0
TABLE
  2
LAYER
 70
     2
  0
LAYER
  2
0
 70
     0
 62
   255
  6
CONTINUOUS
  0
LAYER
  2
DEFPOINTS
 70
     0
 62
     7
  6
CONTINUOUS
  0
ENDTAB
  0
TABLE
  2
STYLE
 70
     1
  0
STYLE
  2
STANDARD
 70
     0
 40
0.0
 41
0.8
 50
0.0
 71
     0
 42
0.2
  3
txt
  4

  0
ENDTAB
  0
TABLE
  2
VIEW
 70
     0
  0
ENDTAB
  0
TABLE
  2
UCS
 70
     0
  0
ENDTAB
  0
TABLE
  2
APPID
 70
    10
  0
APPID
  2
ACAD
 70
     0
  0
APPID
  2
ACAD_MLEADERVER
 70
     0
  0
APPID
  2
ACAD_EXEMPT_FROM_CAD_STANDARDS
 70
     0
  0
APPID
  2
ACAD_NAV_VCDISPLAY
 70
     0
  0
APPID
  2
ACAECLAYERSTANDARD
 70
     0
  0
APPID
  2
ACCMTRANSPARENCY
 70
     0
  0
APPID
  2
ACAD_DSTYLE_DIMJAG
 70
     0
  0
APPID
  2
ACAD_DSTYLE_DIMTALN
 70
     0
  0
APPID
  2
ACDBATTR
 70
     0
  0
APPID
  2
ACAD_PSEXT
 70
     0
  0
ENDTAB
  0
TABLE
  2
DIMSTYLE
 70
     1
  0
DIMSTYLE
  2
STANDARD
 70
     0
  3

  4

  5

  6

  7

 40
1.0
 41
0.1875
 42
0.0625
 43
0.38
 44
0.125
 45
0.0
 46
0.0
 47
0.01
 48
0.01
140
0.15625
141
0.09
142
0.0
143
25.3999999999999986
144
1.0
145
0.0
146
1.0
147
0.09
 71
     1
 72
     0
 73
     1
 74
     1
 75
     0
 76
     0
 77
     0
 78
     4
170
     0
171
     2
172
     0
173
     0
174
     0
175
     0
176
     0
177
     0
178
     0
  0
ENDTAB
  0
ENDSEC
  0
SECTION
  2
BLOCKS
  0
BLOCK
  8
0
  2
$MODEL_SPACE
 70
     0
 10
0.0
 20
0.0
 30
0.0
  3
$MODEL_SPACE
  1

  0
ENDBLK
  5
21
  8
0
  0
BLOCK
 67
     1
  8
0
  2
$PAPER_SPACE
 70
     0
 10
0.0
 20
0.0
 30
0.0
  3
$PAPER_SPACE
  1

  0
ENDBLK
  5
1D
 67
     1
  8
0
  0
ENDSEC
  0
SECTION
  2
ENTITIES
  0
ATTDEF
  5
AA11
  8
DEFPOINTS
 10
4046.0342402047208452
 20
176.3735371497749043
 30
0.0
 40
0.001
  1
K-1.1922.016
  3

  2
MODELNUMBER
 70
     0
1001
ACDBATTR
1070
     0
1070
     1
  0
ATTDEF
  5
AA12
  8
DEFPOINTS
 10
4046.0342402047208452
 20
176.371870483108296
 30
0.0
 40
0.001
  1

  3

  2
TRADENAME
 70
     0
1001
ACDBATTR
1070
     0
1070
     1
  0
ATTDEF
  5
AA13
  8
DEFPOINTS
 10
4046.0342402047208452
 20
176.3702038164416024
 30
0.0
 40
0.001
  1
SHOWER DOOR
  3

  2
PRODUCT
 70
     0
1001
ACDBATTR
1070
     0
1070
     1
  0
LINE
  5
1115A
  8
0
 10
4045.4330400029089105
 20
176.3678986529974964
 30
0.0
 11
4047.2884406307080098
 21
176.3678986529974964
 31
0.0
  0
LINE
  5
1115B
  8
0
 10
4045.6589445678091579
 20
176.466323849897492
 30
0.0
 11
4046.0132752765089208
 21
176.466323849897492
 31
0.0
  0
LINE
  5
1115C
  8
0
 10
4045.8735114968089874
 20
176.489945897097499
 30
0.0
 11
4045.7987083475090913
 21
176.489945897097499
 31
0.0
  0
LINE
  5
1115D
  8
0
 10
4045.623777454708943
 20
176.7342057395975132
 30
0.0
 11
4046.5290904892090111
 21
176.7342057395975132
 31
0.0
  0
LINE
  5
1115E
  8
0
 10
4046.5290902200081291
 20
176.9702057395975032
 30
0.0
 11
4046.5561571660077789
 21
176.9702057395975032
 31
0.0
  0
LINE
  5
1115F
  8
0
 10
4045.4527250423079749
 20
177.0430955033974953
 30
0.0
 11
4045.6195744891087998
 21
177.0430955033974953
 31
0.0
  0
LINE
  5
11160
  8
0
 10
4045.3456541351079068
 20
255.0883832670974982
 30
0.0
 11
4045.3653348677089525
 21
255.1080672161976111
 31
0.0
  0
LINE
  5
11161
  8
0
 10
4043.7117555916088349
 20
210.1398356608974893
 30
0.0
 11
4045.623779203408958
 21
210.1398356608974893
 31
0.0
  0
LINE
  5
11162
  8
0
 10
4047.2884406307080098
 20
210.1398356608974893
 30
0.0
 11
4047.963724095508951
 21
210.1398356608974893
 31
0.0
  0
LINE
  5
11163
  8
0
 10
4044.4154610906089147
 20
210.8484970781975107
 30
0.0
 11
4045.623779203408958
 21
210.8484970781975107
 31
0.0
  0
LINE
  5
11164
  8
0
 10
4043.6723855128088871
 20
210.1792057395975064
 30
0.0
 11
4043.6723855128088871
 21
221.4390482592974934
 31
0.0
  0
LINE
  5
11165
  8
0
 10
4044.2982139458090387
 20
210.1398356608974893
 30
0.0
 11
4044.2982139458090387
 21
210.8091269994976074
 31
0.0
  0
LINE
  5
11166
  8
0
 10
4044.2982139458090387
 20
220.8091269994976074
 30
0.0
 11
4044.2982139458090387
 21
221.4784183379975104
 31
0.0
  0
LINE
  5
11167
  8
0
 10
4044.4597870876100387
 20
210.8878671568974994
 30
0.0
 11
4044.4597870876100387
 21
220.7303868419975004
 31
0.0
  0
LINE
  5
11168
  8
0
 10
4044.7872578740079916
 20
254.0962561925975081
 30
0.0
 11
4044.7872578740079916
 21
255.147437294997502
 31
0.0
  0
LINE
  5
11169
  8
0
 10
4044.8659980314091626
 20
254.1671223343975043
 30
0.0
 11
4044.8659980314091626
 21
255.0962561925975081
 31
0.0
  0
LINE
  5
1116A
  8
0
 10
4044.93686417320896
 20
254.1631853264975121
 30
0.0
 11
4044.93686417320896
 21
254.4998005899975055
 31
0.0
  0
LINE
  5
1116B
  8
0
 10
4044.93686417320896
 20
254.7517690938975079
 30
0.0
 11
4044.93686417320896
 21
255.0790910992975
 31
0.0
  0
LINE
  5
1116C
  8
0
 10
4044.9447381889090138
 20
254.9068971967975017
 30
0.0
 11
4044.9447381889090138
 21
254.7517690938975079
 31
0.0
  0
LINE
  5
1116D
  8
0
 10
4044.9447381889090138
 20
254.4998005899975055
 30
0.0
 11
4044.9447381889090138
 21
254.2537365075974947
 31
0.0
  0
LINE
  5
1116E
  8
0
 10
4044.9597004733091126
 20
255.0490131883975096
 30
0.0
 11
4044.9597004733091126
 21
254.2025564954975039
 31
0.0
  0
LINE
  5
1116F
  8
0
 10
4045.0384406308089638
 20
254.9702730308974878
 30
0.0
 11
4045.0384406308089638
 21
254.1631864166974992
 31
0.0
  0
LINE
  5
11170
  8
0
 10
4045.1663933867089327
 20
254.3797218497975052
 30
0.0
 11
4045.1663933867089327
 21
254.4781470466975009
 31
0.0
  0
LINE
  5
11171
  8
0
 10
4045.1809586614090222
 20
254.5083812668976009
 30
0.0
 11
4045.1809586614090222
 21
254.5267529313975103
 31
0.0
  0
LINE
  5
11172
  8
0
 10
4045.3435587410081098
 20
254.4781470466975009
 30
0.0
 11
4045.3435587410081098
 21
254.3797218497975052
 31
0.0
  0
LINE
  5
11173
  8
0
 10
4045.4321414182090848
 20
254.1631864166974992
 30
0.0
 11
4045.4321414182090848
 21
254.9702730308974878
 31
0.0
  0
LINE
  5
11174
  8
0
 10
4045.4330400029089105
 20
176.3678986529974964
 30
0.0
 11
4045.4330400029089105
 21
177.023410463997493
 31
0.0
  0
LINE
  5
11175
  8
0
 10
4045.510881575708936
 20
254.2812966529974972
 30
0.0
 11
4045.510881575708936
 21
254.9702730308974878
 31
0.0
  0
LINE
  5
11176
  8
0
 10
4045.623779203408958
 20
253.9389301490975868
 30
0.0
 11
4045.623779203408958
 21
176.7342057395975132
 31
0.0
  0
LINE
  5
11177
  8
0
 10
4045.6392595285087737
 20
176.7342057395975132
 30
0.0
 11
4045.6392595285087737
 21
176.4860088891975067
 31
0.0
  0
LINE
  5
11178
  8
0
 10
4045.645165040307802
 20
176.7342057395975132
 30
0.0
 11
4045.645165040307802
 21
176.4719667777974905
 31
0.0
  0
LINE
  5
11179
  8
0
 10
4045.6802595285080315
 20
254.1631864166974992
 30
0.0
 11
4045.6802595285080315
 21
254.1553113106976127
 31
0.0
  0
LINE
  5
1117A
  8
0
 10
4045.6802595285080315
 20
254.0765711532974933
 30
0.0
 11
4045.6802595285080315
 21
253.9389301490975868
 31
0.0
  0
LINE
  5
1117B
  8
0
 10
4045.7196296072088444
 20
254.1631864166974992
 30
0.0
 11
4045.7196296072088444
 21
254.1553113106976127
 31
0.0
  0
LINE
  5
1117C
  8
0
 10
4045.7196296072088444
 20
254.0765711532974933
 30
0.0
 11
4045.7196296072088444
 21
253.9389301490975868
 31
0.0
  0
LINE
  5
1117D
  8
0
 10
4045.7790233080090729
 20
176.4702608576974967
 30
0.0
 11
4045.7790233080090729
 21
176.466323849897492
 31
0.0
  0
LINE
  5
1117E
  8
0
 10
4045.8931965363090058
 20
176.4702608576974967
 30
0.0
 11
4045.8931965363090058
 21
176.466323849897492
 31
0.0
  0
LINE
  5
1117F
  8
0
 10
4045.9478894497087822
 20
254.6454698812976005
 30
0.0
 11
4045.9478894497087822
 21
254.7438950781975109
 31
0.0
  0
LINE
  5
11180
  8
0
 10
4045.9558500796088083
 20
253.9389301490975868
 30
0.0
 11
4045.9558500796088083
 21
254.0765711532974933
 31
0.0
  0
LINE
  5
11181
  8
0
 10
4045.9558500796088083
 20
254.1553113106976127
 30
0.0
 11
4045.9558500796088083
 21
254.1631864166974992
 31
0.0
  0
LINE
  5
11182
  8
0
 10
4045.9952201584092109
 20
253.9389301490975868
 30
0.0
 11
4045.9952201584092109
 21
254.0765711532974933
 31
0.0
  0
LINE
  5
11183
  8
0
 10
4045.9952201584092109
 20
254.1553113106976127
 30
0.0
 11
4045.9952201584092109
 21
254.1631864166974992
 31
0.0
  0
LINE
  5
11184
  8
0
 10
4046.0270548040089125
 20
176.4719897370974877
 30
0.0
 11
4046.0270548040089125
 21
176.7342057395975132
 31
0.0
  0
LINE
  5
11185
  8
0
 10
4046.0329603159079852
 20
176.4860088891975067
 30
0.0
 11
4046.0329603159079852
 21
176.7342057395975132
 31
0.0
  0
LINE
  5
11186
  8
0
 10
4046.1250548040088688
 20
254.7438950781975109
 30
0.0
 11
4046.1250548040088688
 21
254.6454698812976005
 31
0.0
  0
LINE
  5
11187
  8
0
 10
4046.3213107267088162
 20
253.9389301490975868
 30
0.0
 11
4046.3213107267088162
 21
254.0765711532974933
 31
0.0
  0
LINE
  5
11188
  8
0
 10
4046.3213107267088162
 20
254.1553113106976127
 30
0.0
 11
4046.3213107267088162
 21
254.1631864166974992
 31
0.0
  0
LINE
  5
11189
  8
0
 10
4046.3685548212088179
 20
254.1631864166974992
 30
0.0
 11
4046.3685548212088179
 21
254.1553113106976127
 31
0.0
  0
LINE
  5
1118A
  8
0
 10
4046.3685548212088179
 20
254.0765711532974933
 30
0.0
 11
4046.3685548212088179
 21
253.9389301490975868
 31
0.0
  0
LINE
  5
1118B
  8
0
 10
4046.3962120438081911
 20
254.1631864166974992
 30
0.0
 11
4046.3962120438081911
 21
254.1553113106976127
 31
0.0
  0
LINE
  5
1118C
  8
0
 10
4046.3962120438081911
 20
254.0765711532974933
 30
0.0
 11
4046.3962120438081911
 21
253.9389301490975868
 31
0.0
  0
LINE
  5
1118D
  8
0
 10
4046.5290902200081291
 20
253.9389301490975868
 30
0.0
 11
4046.5290902200081291
 21
176.7342057395975132
 31
0.0
  0
LINE
  5
1118E
  8
0
 10
4046.5543414697081062
 20
254.1553113106976127
 30
0.0
 11
4046.5543414697081062
 21
254.0962561925975081
 31
0.0
  0
LINE
  5
1118F
  8
0
 10
4046.5561571660077789
 20
176.3678986529974964
 30
0.0
 11
4046.5561571660077789
 21
254.1631742434975081
 31
0.0
  0
LINE
  5
11190
  8
0
 10
4046.5620626780091698
 20
254.9702730308974878
 30
0.0
 11
4046.5620626780091698
 21
254.2812966529974972
 31
0.0
  0
LINE
  5
11191
  8
0
 10
4046.5661524932088469
 20
176.3678986529974964
 30
0.0
 11
4046.5661524932088469
 21
254.1631742434975081
 31
0.0
  0
LINE
  5
11192
  8
0
 10
4046.640802835509021
 20
254.9702730308974878
 30
0.0
 11
4046.640802835509021
 21
254.1631864166974992
 31
0.0
  0
LINE
  5
11193
  8
0
 10
4046.6486768511081209
 20
254.1631742434975081
 30
0.0
 11
4046.6486768511081209
 21
176.3678986529974964
 31
0.0
  0
LINE
  5
11194
  8
0
 10
4046.729385512708177
 20
254.3797218497975052
 30
0.0
 11
4046.729385512708177
 21
254.4781470466975009
 31
0.0
  0
LINE
  5
11195
  8
0
 10
4046.7923846143089577
 20
254.5629027329974861
 30
0.0
 11
4046.7923846143089577
 21
254.2949481622974872
 31
0.0
  0
LINE
  5
11196
  8
0
 10
4046.7982201582080961
 20
254.2934326284974986
 30
0.0
 11
4046.7982201582080961
 21
254.5644271833974983
 31
0.0
  0
LINE
  5
11197
  8
0
 10
4046.8375902370089534
 20
254.5644677186976139
 30
0.0
 11
4046.8375902370089534
 21
254.2934113055974876
 31
0.0
  0
LINE
  5
11198
  8
0
 10
4046.8375902370089534
 20
250.5045445688975008
 30
0.0
 11
4046.8375902370089534
 21
250.2627492135974876
 31
0.0
  0
LINE
  5
11199
  8
0
 10
4046.8375902370089534
 20
228.8510012617975917
 30
0.0
 11
4046.8375902370089534
 21
228.609205906497607
 31
0.0
  0
LINE
  5
1119A
  8
0
 10
4046.8375902370089534
 20
202.8667492932974881
 30
0.0
 11
4046.8375902370089534
 21
202.6249539379975033
 31
0.0
  0
LINE
  5
1119B
  8
0
 10
4046.8375902370089534
 20
181.2132059861974938
 30
0.0
 11
4046.8375902370089534
 21
180.971410630897509
 31
0.0
  0
LINE
  5
1119C
  8
0
 10
4046.9065508670091731
 20
254.4781470466975009
 30
0.0
 11
4046.9065508670091731
 21
254.3797218497975052
 31
0.0
  0
LINE
  5
1119D
  8
0
 10
4047.034503622909142
 20
254.1631864166974992
 30
0.0
 11
4047.034503622909142
 21
254.9702730308974878
 31
0.0
  0
LINE
  5
1119E
  8
0
 10
4047.1131807882079556
 20
254.2014039635974996
 30
0.0
 11
4047.1131807882079556
 21
254.1631742434975081
 31
0.0
  0
LINE
  5
1119F
  8
0
 10
4047.1132437804089932
 20
254.2025564954975039
 30
0.0
 11
4047.1132437804089932
 21
255.0490131883975096
 31
0.0
  0
LINE
  5
111A0
  8
0
 10
4047.1152122843091092
 20
255.0962561925975081
 30
0.0
 11
4047.1152122843091092
 21
255.0450861731974896
 31
0.0
  0
LINE
  5
111A1
  8
0
 10
4047.119149292208931
 20
254.1749852671975134
 30
0.0
 11
4047.119149292208931
 21
254.5712926123975137
 31
0.0
  0
LINE
  5
111A2
  8
0
 10
4047.119149292208931
 20
254.613323591297501
 30
0.0
 11
4047.119149292208931
 21
255.0962561925975081
 31
0.0
  0
LINE
  5
111A3
  8
0
 10
4047.1959209457090765
 20
176.3678986529974964
 30
0.0
 11
4047.1959209457090765
 21
254.1633391396611898
 31
0.0
  0
LINE
  5
111A4
  8
0
 10
4047.2036681687091004
 20
254.1682666684968126
 30
0.0
 11
4047.2036681687091004
 21
255.1029747912982941
 31
0.0
  0
LINE
  5
111A5
  8
0
 10
4047.2057652482089907
 20
254.1749852671975134
 30
0.0
 11
4047.2057652482089907
 21
255.0962561925975081
 31
0.0
  0
LINE
  5
111A6
  8
0
 10
4047.2687573742091445
 20
255.147437294997502
 30
0.0
 11
4047.2687573742091445
 21
255.1080672161976111
 31
0.0
  0
LINE
  5
111A7
  8
0
 10
4047.2884406307080098
 20
176.3678986529974964
 30
0.0
 11
4047.2884406307080098
 21
255.1080561332975094
 31
0.0
  0
LINE
  5
111A8
  8
0
 10
4048.0030941742079449
 20
210.1792057395975064
 30
0.0
 11
4048.0030941742079449
 21
221.4390482592974934
 31
0.0
  0
LINE
  5
111A9
  8
0
 10
4046.7928218406091219
 20
254.3426507163974861
 30
0.0
 11
4046.7925967298087926
 21
254.2948769177974953
 31
0.0
  0
LINE
  5
111AA
  8
0
 10
4045.623779203408958
 20
220.769756920697489
 30
0.0
 11
4044.4154610906089147
 21
220.769756920697489
 31
0.0
  0
LINE
  5
111AB
  8
0
 10
4043.7117555916088349
 20
221.4784183379975104
 30
0.0
 11
4045.623779203408958
 21
221.4784183379975104
 31
0.0
  0
LINE
  5
111AC
  8
0
 10
4047.2884406307080098
 20
221.4784183379975104
 30
0.0
 11
4047.963724095508951
 21
221.4784183379975104
 31
0.0
  0
LINE
  5
111AD
  8
0
 10
4044.9078833206090167
 20
255.1080672161976111
 30
0.0
 11
4044.9603146393092175
 21
255.0556444651975028
 31
0.0
  0
LINE
  5
111AE
  8
0
 10
4045.1809586614090222
 20
254.5083812667974996
 30
0.0
 11
4045.1707967319080126
 21
254.5056583859974921
 31
0.0
  0
LINE
  5
111AF
  8
0
 10
4045.6237774548089874
 20
253.9389301490975868
 30
0.0
 11
4046.5290904892090111
 21
253.9389301490975868
 31
0.0
  0
LINE
  5
111B0
  8
0
 10
4044.8069429133088306
 20
254.0765711532974933
 30
0.0
 11
4046.5346564303090418
 21
254.0765711532974933
 31
0.0
  0
LINE
  5
111B1
  8
0
 10
4046.5543414697081062
 20
254.1553113106976127
 30
0.0
 11
4044.8778090551090827
 21
254.1553113106976127
 31
0.0
  0
LINE
  5
111B2
  8
0
 10
4047.1309603158088066
 20
254.1631742434975081
 30
0.0
 11
4047.0738737017090898
 21
254.1631742434975081
 31
0.0
  0
LINE
  5
111B3
  8
0
 10
4047.034503622909142
 20
254.1631742434975081
 30
0.0
 11
4046.5858308690080776
 21
254.1631742434975081
 31
0.0
  0
LINE
  5
111B4
  8
0
 10
4047.1309603158088066
 20
254.1631742435974957
 30
0.0
 11
4047.193954224609115
 21
254.1631742435974957
 31
0.0
  0
LINE
  5
111B5
  8
0
 10
4044.999070552009016
 20
254.1631853264975121
 30
0.0
 11
4044.8778090551090827
 21
254.1631853264975121
 31
0.0
  0
LINE
  5
111B6
  8
0
 10
4046.640802835509021
 20
254.1631864166974992
 30
0.0
 11
4044.999070552009016
 21
254.1631864166974992
 31
0.0
  0
LINE
  5
111B7
  8
0
 10
4046.65851937080879
 20
254.1631864166974992
 30
0.0
 11
4047.0738737017090898
 21
254.1631864166974992
 31
0.0
  0
LINE
  5
111B8
  8
0
 10
4047.1131807882079556
 20
254.1749301490974915
 30
0.0
 11
4047.119149292208931
 21
254.1749301490974915
 31
0.0
  0
LINE
  5
111B9
  8
0
 10
4045.5502516544088394
 20
254.2419265741976062
 30
0.0
 11
4046.5226925993088116
 21
254.2419265741976062
 31
0.0
  0
LINE
  5
111BA
  8
0
 10
4044.9597004733091126
 20
254.4978320859974872
 30
0.0
 11
4044.9447381889090138
 21
254.4978320859974872
 31
0.0
  0
LINE
  5
111BB
  8
0
 10
4044.9597004733091126
 20
254.4998005899975055
 30
0.0
 11
4044.8856830708091366
 21
254.4998005899975055
 31
0.0
  0
LINE
  5
111BC
  8
0
 10
4044.9597004733091126
 20
254.7517690938975079
 30
0.0
 11
4044.8856830708091366
 21
254.7517690938975079
 31
0.0
  0
LINE
  5
111BD
  8
0
 10
4044.9597004733091126
 20
254.7537375978974978
 30
0.0
 11
4044.9447381889090138
 21
254.7537375978974978
 31
0.0
  0
LINE
  5
111BE
  8
0
 10
4046.9951335442087839
 20
255.0096431096974925
 30
0.0
 11
4046.6801729142089243
 21
255.0096431096974925
 31
0.0
  0
LINE
  5
111BF
  8
0
 10
4046.5226925993088116
 20
255.0096431096974925
 30
0.0
 11
4045.5502516544088394
 21
255.0096431096974925
 31
0.0
  0
LINE
  5
111C0
  8
0
 10
4045.392771339409137
 20
255.0096431096974925
 30
0.0
 11
4045.0778107095088671
 21
255.0096431096974925
 31
0.0
  0
LINE
  5
111C1
  8
0
 10
4047.1144145833090988
 20
255.0372010744974887
 30
0.0
 11
4047.1132437804089932
 21
255.0372010744974887
 31
0.0
  0
LINE
  5
111C2
  8
0
 10
4047.0738737017090898
 20
255.0883832670974982
 30
0.0
 11
4044.999070552009016
 21
255.0883832670974982
 31
0.0
  0
LINE
  5
111C3
  8
0
 10
4047.2884406307080098
 20
255.1080561332975094
 30
0.0
 11
4047.2036681687091004
 21
255.1080561332975094
 31
0.0
  0
LINE
  5
111C4
  8
0
 10
4047.193954224609115
 20
255.1080672162975134
 30
0.0
 11
4047.1309603158088066
 21
255.1080672162975134
 31
0.0
  0
LINE
  5
111C5
  8
0
 10
4044.8778090551090827
 20
255.1080672161976111
 30
0.0
 11
4047.2351745635100997
 21
255.1080672161976111
 31
0.0
  0
LINE
  5
111C6
  8
0
 10
4044.8266279527088045
 20
255.1868073736974907
 30
0.0
 11
4047.2293872955087863
 21
255.1868073736974907
 31
0.0
  0
ARC
  5
111C7
  8
0
 10
4043.7117555916088349
 20
210.1792057395975064
 30
0.0
 40
0.0393700787
 50
180.0
 51
270.0
  0
ARC
  5
111C8
  8
0
 10
4044.4991571664081675
 20
210.8878671568974994
 30
0.0
 40
0.0393700787
 50
180.0
 51
270.0
  0
ARC
  5
111C9
  8
0
 10
4045.7987083474090468
 20
176.4702608576974967
 30
0.0
 40
0.0196850394
 50
90.0
 51
180.0
  0
ARC
  5
111CA
  8
0
 10
4045.6589445678091579
 20
176.4860088891975067
 30
0.0
 40
0.0196850394
 50
180.0
 51
270.0
  0
ARC
  5
111CB
  8
0
 10
4045.6195744891087998
 20
177.023410463997493
 30
0.0
 40
0.0196850394
 50
77.6435352416104365
 51
90.0
  0
ARC
  5
111CC
  8
0
 10
4045.4527250423079749
 20
177.023410463997493
 30
0.0
 40
0.0196850394
 50
90.0
 51
180.0
  0
ARC
  5
111CD
  8
0
 10
4045.2549760639089982
 20
254.3797218497975052
 30
0.0
 40
0.0885826772
 50
179.9999999996987015
 51
359.9999999997003783
  0
ARC
  5
111CE
  8
0
 10
4045.2549760639089982
 20
254.4781470466975009
 30
0.0
 40
0.0885826772
 50
0.0000000002996337
 51
180.0000000002995932
  0
CIRCLE
  5
111CF
  8
0
 10
4045.7608815757080265
 20
254.4978320859974872
 30
0.0
 40
0.0590551181
  0
CIRCLE
  5
111D0
  8
0
 10
4045.7608815757080265
 20
254.4978320859974872
 30
0.0
 40
0.0485059373
  0
ARC
  5
111D1
  8
0
 10
4045.5502516544088394
 20
254.2812966529974972
 30
0.0
 40
0.0393700787
 50
179.999999999599396
 51
269.9999999995048938
  0
ARC
  5
111D2
  8
0
 10
4045.5502516544088394
 20
254.9702730308974878
 30
0.0
 40
0.0393700787
 50
89.9999999996091731
 51
180.0000000003988987
  0
ARC
  5
111D3
  8
0
 10
4044.999070552009016
 20
255.0490131883975096
 30
0.0
 40
0.0393700787
 50
89.9999999996091731
 51
180.0
  0
ARC
  5
111D4
  8
0
 10
4044.999070552009016
 20
254.2025564954975039
 30
0.0
 40
0.0393700787
 50
180.0
 51
269.999999999895806
  0
ARC
  5
111D5
  8
0
 10
4045.392771339409137
 20
254.9702730308974878
 30
0.0
 40
0.0393700787
 50
0.0
 51
90.0000000003908269
  0
ARC
  5
111D6
  8
0
 10
4045.0778107095088671
 20
254.9702730308974878
 30
0.0
 40
0.0393700787
 50
89.9999999996091731
 51
180.0000000002995932
  0
ARC
  5
111D7
  8
0
 10
4044.9841082677080522
 20
254.2537365075974947
 30
0.0
 40
0.0393700787
 50
180.0
 51
231.6840441973041038
  0
ARC
  5
111D8
  8
0
 10
4044.8266279527088045
 20
255.147437294997502
 30
0.0
 40
0.0393700787
 50
90.0
 51
180.0
  0
ARC
  5
111D9
  8
0
 10
4043.7117555916088349
 20
221.4390482592974934
 30
0.0
 40
0.0393700787
 50
90.0
 51
180.0
  0
ARC
  5
111DA
  8
0
 10
4044.4991571664081675
 20
220.7303868419975004
 30
0.0
 40
0.0393700787
 50
90.0
 51
180.0
  0
ARC
  5
111DB
  8
0
 10
4044.9644232283089877
 20
254.9068971967975017
 30
0.0
 40
0.0196850394
 50
103.8851307726884983
 51
180.0
  0
ARC
  5
111DC
  8
0
 10
4044.8856830708091366
 20
254.7714541332975102
 30
0.0
 40
0.0196850394
 50
180.0
 51
270.0
  0
ARC
  5
111DD
  8
0
 10
4044.8856830708091366
 20
254.4801155505975032
 30
0.0
 40
0.0196850394
 50
90.0
 51
180.0
  0
ARC
  5
111DE
  8
0
 10
4044.8069429133088306
 20
254.0962561925975081
 30
0.0
 40
0.0196850394
 50
180.0000000031998866
 51
270.0000000124022108
  0
ARC
  5
111DF
  8
0
 10
4044.8778090551090827
 20
254.1749963500975014
 30
0.0
 40
0.0118110236
 50
191.2713134912974056
 51
269.999999999895806
  0
ARC
  5
111E0
  8
0
 10
4044.8778090551090827
 20
255.0962561925975081
 30
0.0
 40
0.0118110236
 50
90.0000000013027659
 51
179.9999999503992001
  0
ARC
  5
111E1
  8
0
 10
4044.8778090551090827
 20
254.1671223343975043
 30
0.0
 40
0.0118110236
 50
180.0000000495990946
 51
269.9999999986973194
  0
CIRCLE
  5
111E2
  8
0
 10
4046.9222988984088261
 20
202.7458514088974937
 30
0.0
 40
0.1476377953
  0
CIRCLE
  5
111E3
  8
0
 10
4046.9222988984088261
 20
181.0923081017974994
 30
0.0
 40
0.1476377953
  0
ARC
  5
111E4
  8
0
 10
4047.963724095508951
 20
210.1792057395975064
 30
0.0
 40
0.0393700787
 50
270.0
 51
0.0
  0
ARC
  5
111E5
  8
0
 10
4045.8735114970090763
 20
176.4702608576974967
 30
0.0
 40
0.0196850394
 50
0.0
 51
90.0
  0
ARC
  5
111E6
  8
0
 10
4046.0132752765089208
 20
176.4860088891975067
 30
0.0
 40
0.0196850394
 50
270.0
 51
0.0
  0
CIRCLE
  5
111E7
  8
0
 10
4046.9222988984088261
 20
228.7301033773975121
 30
0.0
 40
0.1476377953
  0
CIRCLE
  5
111E8
  8
0
 10
4046.9222988984088261
 20
250.3836466844975064
 30
0.0
 40
0.1476377953
  0
ARC
  5
111E9
  8
0
 10
4046.8179681898091076
 20
254.4781470466975009
 30
0.0
 40
0.0885826772
 50
0.0
 51
179.9999999980996108
  0
ARC
  5
111EA
  8
0
 10
4046.8179681898091076
 20
254.3797218497975052
 30
0.0
 40
0.0885826772
 50
180.0000000018987976
 51
0.0
  0
ARC
  5
111EB
  8
0
 10
4046.0364721268088033
 20
254.7438950781975109
 30
0.0
 40
0.0885826772
 50
0.0
 51
179.9999999981988879
  0
ARC
  5
111EC
  8
0
 10
4046.0364721268088033
 20
254.6454698812976005
 30
0.0
 40
0.0885826772
 50
180.0000000018987976
 51
0.0
  0
ARC
  5
111ED
  8
0
 10
4046.0364721268088033
 20
254.5568872040975066
 30
0.0
 40
0.0787401575
 50
26.3806213965031588
 51
153.6117562614954863
  0
ARC
  5
111EE
  8
0
 10
4046.0364721268088033
 20
254.5568872040975066
 30
0.0
 40
0.0681909767
 50
22.6545605750032806
 51
157.3477006991010967
  0
CIRCLE
  5
111EF
  8
0
 10
4046.3120626780078055
 20
254.4978320859974872
 30
0.0
 40
0.0590551181
  0
ARC
  5
111F0
  8
0
 10
4046.0364721268088033
 20
254.5568872040975066
 30
0.0
 40
0.0492125984
 50
16.195443430398921
 51
163.8034408276998874
  0
CIRCLE
  5
111F1
  8
0
 10
4046.3120626780078055
 20
254.4978320859974872
 30
0.0
 40
0.0485059373
  0
ARC
  5
111F2
  8
0
 10
4046.5226925993088116
 20
254.9702730308974878
 30
0.0
 40
0.0393700787
 50
0.0000000014997969
 51
90.0000000003908269
  0
ARC
  5
111F3
  8
0
 10
4046.5226925993088116
 20
254.2812966529974972
 30
0.0
 40
0.0393700787
 50
270.0000000004949925
 51
359.9999999985001864
  0
ARC
  5
111F4
  8
0
 10
4046.6801729142089243
 20
254.9702730308974878
 30
0.0
 40
0.0393700787
 50
89.9999999996091731
 51
179.9999999985001864
  0
ARC
  5
111F5
  8
0
 10
4046.9951335442087839
 20
254.9702730308974878
 30
0.0
 40
0.0393700787
 50
0.0000000014997969
 51
90.0000000003908269
  0
ARC
  5
111F6
  8
0
 10
4046.5346564303090418
 20
254.0962561925975081
 30
0.0
 40
0.0196850394
 50
270.0000000108909717
 51
359.999999998299927
  0
ARC
  5
111F7
  8
0
 10
4047.963724095508951
 20
221.4390482592974934
 30
0.0
 40
0.0393700787
 50
0.0
 51
90.0
  0
ARC
  5
111F8
  8
0
 10
4047.0738737017090898
 20
254.2025564954975039
 30
0.0
 40
0.0393700787
 50
270.000000000104194
 51
0.0
  0
ARC
  5
111F9
  8
0
 10
4047.0738737017090898
 20
255.0490131883975096
 30
0.0
 40
0.0393700787
 50
0.0
 51
90.0000000003908269
  0
ARC
  5
111FA
  8
0
 10
4047.0758422056092058
 20
255.0450861731974896
 30
0.0
 40
0.0393700787
 50
341.8506826530997955
 51
0.0
  0
ARC
  5
111FB
  8
0
 10
4047.2293872955087863
 20
255.147437294997502
 30
0.0
 40
0.0393700787
 50
0.0
 51
90.0
  0
ARC
  5
111FC
  8
0
 10
4047.1112787643091906
 20
254.5923081017974994
 30
0.0
 40
0.0224409449
 50
290.5314681236018828
 51
69.4685318763980177
  0
ARC
  5
111FD
  8
0
 10
4047.1083260084092217
 20
254.5923081017974994
 30
0.0
 40
0.0196850394
 50
284.2813994863925018
 51
75.5309314589974008
  0
ARC
  5
111FE
  8
0
 10
4047.1014327568091176
 20
254.9092494088974945
 30
0.0
 40
0.0177165354
 50
0.0
 51
48.1705111426936767
  0
ARC
  5
111FF
  8
0
 10
4047.1014327568091176
 20
254.7084620072974985
 30
0.0
 40
0.0177165354
 50
311.8294868034926139
 51
0.0
  0
ARC
  5
11200
  8
0
 10
4047.1014327568091176
 20
254.6227927159974911
 30
0.0
 40
0.0177165354
 50
0.0
 51
48.1705111447091809
  0
ARC
  5
11201
  8
0
 10
4047.1309603158088066
 20
254.1749852671975134
 30
0.0
 40
0.0118110236
 50
180.0
 51
270.0
  0
ARC
  5
11202
  8
0
 10
4047.193954224609115
 20
254.1749852671975134
 30
0.0
 40
0.0118110236
 50
270.0
 51
0.0
  0
ARC
  5
11203
  8
0
 10
4047.193954224609115
 20
255.0962561925975081
 30
0.0
 40
0.0118110236
 50
0.0
 51
90.0
  0
ARC
  5
11204
  8
0
 10
4047.1309603158088066
 20
255.0962561925975081
 30
0.0
 40
0.0118110236
 50
90.0
 51
180.0
  0
ARC
  5
11205
  8
0
 10
4047.1073382686090554
 20
255.0175160350974863
 30
0.0
 40
0.0118110236
 50
300.0013737529060904
 51
0.0
  0
ARC
  5
11206
  8
0
 10
4047.1034012607078694
 20
255.0962561925975081
 30
0.0
 40
0.0118110236
 50
0.0
 51
89.9999999992965058
  0
ARC
  5
11207
  8
0
 10
4044.4246488571648115
 20
210.626864617347195
 30
0.0
 40
0.2218228183864043
 50
92.3738355013229153
 51
124.7489384055934067
  0
ARC
  5
11208
  8
0
 10
4044.4094010451522081
 20
220.9459802156096089
 30
0.0
 40
0.1763274619014657
 50
230.9076892457480881
 51
271.9695367594964068
  0
ENDSEC
  0
EOF
