  0
SECTION
  2
HEADER
  9
$ACADVER
  1
AC1009
  9
$INSBASE
 10
4085.5053679127790929
 20
193.8090499119124956
 30
0.0
  9
$EXTMIN
 10
4062.164476961319906
 20
191.4453030617729041
 30
-0.0000000349181948
  9
$EXTMAX
 10
4108.8322572829429191
 20
195.7916039847613092
 30
0.0000000814935746
  9
$LIMMIN
 10
0.0
 20
0.0
  9
$LIMMAX
 10
11.6929133858000007
 20
8.2677165353999982
  9
$ORTHOMODE
 70
     0
  9
$REGENMODE
 70
     1
  9
$FILLMODE
 70
     1
  9
$QTEXTMODE
 70
     0
  9
$MIRRTEXT
 70
     0
  9
$DRAGMODE
 70
     2
  9
$LTSCALE
 40
0.6431102362
  9
$OSMODE
 70
  4095
  9
$ATTMODE
 70
     1
  9
$TEXTSIZE
 40
0.2
  9
$TRACEWID
 40
0.05
  9
$TEXTSTYLE
  7
STANDARD
  9
$CLAYER
  8
0
  9
$CELTYPE
  6
BYLAYER
  9
$CECOLOR
 62
   256
  9
$DIMSCALE
 40
1.0
  9
$DIMASZ
 40
0.1875
  9
$DIMEXO
 40
0.0625
  9
$DIMDLI
 40
0.4443307087
  9
$DIMRND
 40
0.0
  9
$DIMDLE
 40
0.0
  9
$DIMEXE
 40
0.125
  9
$DIMTP
 40
0.01
  9
$DIMTM
 40
0.01
  9
$DIMTXT
 40
2.0
  9
$DIMCEN
 40
0.1052362205
  9
$DIMTSZ
 40
0.0
  9
$DIMTOL
 70
     1
  9
$DIMLIM
 70
     0
  9
$DIMTIH
 70
     1
  9
$DIMTOH
 70
     1
  9
$DIMSE1
 70
     0
  9
$DIMSE2
 70
     0
  9
$DIMTAD
 70
     0
  9
$DIMZIN
 70
     0
  9
$DIMBLK
  1

  9
$DIMASO
 70
     1
  9
$DIMSHO
 70
     1
  9
$DIMPOST
  1
\X
  9
$DIMAPOST
  1

  9
$DIMALT
 70
     1
  9
$DIMALTD
 70
     2
  9
$DIMALTF
 40
25.3999999999999986
  9
$DIMLFAC
 40
1.0
  9
$DIMTOFL
 70
     0
  9
$DIMTVP
 40
0.0
  9
$DIMTIX
 70
     0
  9
$DIMSOXD
 70
     0
  9
$DIMSAH
 70
     0
  9
$DIMBLK1
  1

  9
$DIMBLK2
  1

  9
$DIMSTYLE
  2
STANDARD
  9
$DIMCLRD
 70
     0
  9
$DIMCLRE
 70
     0
  9
$DIMCLRT
 70
     0
  9
$DIMTFAC
 40
1.0
  9
$DIMGAP
 40
0.09
  9
$LUNITS
 70
     2
  9
$LUPREC
 70
     4
  9
$SKETCHINC
 40
0.1
  9
$FILLETRAD
 40
0.0
  9
$AUNITS
 70
     0
  9
$AUPREC
 70
     0
  9
$MENU
  1
.
  9
$ELEVATION
 40
0.0
  9
$PELEVATION
 40
0.0
  9
$THICKNESS
 40
0.0
  9
$LIMCHECK
 70
     0
  9
$BLIPMODE
 70
     0
  9
$CHAMFERA
 40
0.0
  9
$CHAMFERB
 40
0.0
  9
$SKPOLY
 70
     0
  9
$TDCREATE
 40
2458060.468368056230247
  9
$TDUPDATE
 40
2459507.7281828699633479
  9
$TDINDWG
 40
0.7366853009
  9
$TDUSRTIMER
 40
0.7366853009
  9
$USRTIMER
 70
     1
  9
$ANGBASE
 50
0.0
  9
$ANGDIR
 70
     0
  9
$PDMODE
 70
     0
  9
$PDSIZE
 40
0.3125
  9
$PLINEWID
 40
0.0
  9
$COORDS
 70
     1
  9
$SPLFRAME
 70
     0
  9
$SPLINETYPE
 70
     6
  9
$SPLINESEGS
 70
     8
  9
$ATTDIA
 70
     1
  9
$ATTREQ
 70
     1
  9
$HANDLING
 70
     1
  9
$HANDSEED
  5
11484
  9
$SURFTAB1
 70
     6
  9
$SURFTAB2
 70
     6
  9
$SURFTYPE
 70
     6
  9
$SURFU
 70
     6
  9
$SURFV
 70
     6
  9
$UCSNAME
  2

  9
$UCSORG
 10
0.0
 20
0.0
 30
0.0
  9
$UCSXDIR
 10
1.0
 20
0.0
 30
0.0
  9
$UCSYDIR
 10
0.0
 20
1.0
 30
0.0
  9
$PUCSNAME
  2

  9
$PUCSORG
 10
0.0
 20
0.0
 30
0.0
  9
$PUCSXDIR
 10
1.0
 20
0.0
 30
0.0
  9
$PUCSYDIR
 10
0.0
 20
1.0
 30
0.0
  9
$USERI1
 70
     0
  9
$USERI2
 70
     0
  9
$USERI3
 70
     0
  9
$USERI4
 70
     0
  9
$USERI5
 70
     0
  9
$USERR1
 40
0.0
  9
$USERR2
 40
0.0
  9
$USERR3
 40
0.0
  9
$USERR4
 40
0.0
  9
$USERR5
 40
0.0
  9
$WORLDVIEW
 70
     1
  9
$SHADEDGE
 70
     3
  9
$SHADEDIF
 70
    70
  9
$TILEMODE
 70
     1
  9
$MAXACTVP
 70
    64
  9
$PLIMCHECK
 70
     0
  9
$PEXTMIN
 10
1.0000000000000000E+20
 20
1.0000000000000000E+20
 30
1.0000000000000000E+20
  9
$PEXTMAX
 10
-1.0000000000000000E+20
 20
-1.0000000000000000E+20
 30
-1.0000000000000000E+20
  9
$PLIMMIN
 10
0.0
 20
0.0
  9
$PLIMMAX
 10
12.0
 20
9.0
  9
$UNITMODE
 70
     0
  9
$VISRETAIN
 70
     1
  9
$PLINEGEN
 70
     0
  9
$PSLTSCALE
 70
     1
  0
ENDSEC
  0
SECTION
  2
TABLES
  0
TABLE
  2
VPORT
 70
     1
  0
VPORT
  2
*ACTIVE
 70
     0
 10
0.0
 20
0.0
 11
1.0
 21
1.0
 12
441.4225614580690831
 22
33.6742130234694912
 13
0.0
 23
0.0
 14
1.0
 24
1.0
 15
0.0
 25
0.0
 16
0.0
 26
0.0
 36
26.6346482412083887
 17
3644.0758056640620453
 27
159.9442404997975871
 37
0.0
 40
17.1814143730369402
 41
2.7247838616714688
 42
50.0
 43
0.0
 44
0.0
 50
0.0
 51
0.0
 71
     0
 72
   100
 73
     1
 74
     1
 75
     0
 76
     0
 77
     0
 78
     0
  0
ENDTAB
  0
TABLE
  2
LTYPE
 70
     2
  0
LTYPE
  2
CONTINUOUS
 70
     0
  3
Solid line
 72
    65
 73
     0
 40
0.0
  0
LTYPE
  2
PHANTOM2
 70
     0
  3
___ _ _ ___ _ _ ___ _ _ ___ _ _
 72
    65
 73
     6
 40
1.25
 49
0.625
 49
-0.125
 49
0.125
 49
-0.125
 49
0.125
 49
-0.125
  0
ENDTAB
  0
TABLE
  2
LAYER
 70
     2
  0
LAYER
  2
0
 70
     0
 62
   255
  6
CONTINUOUS
  0
LAYER
  2
DEFPOINTS
 70
     0
 62
     7
  6
CONTINUOUS
  0
ENDTAB
  0
TABLE
  2
STYLE
 70
     1
  0
STYLE
  2
STANDARD
 70
     0
 40
0.0
 41
0.8
 50
0.0
 71
     0
 42
0.2
  3
txt
  4

  0
ENDTAB
  0
TABLE
  2
VIEW
 70
     0
  0
ENDTAB
  0
TABLE
  2
UCS
 70
     0
  0
ENDTAB
  0
TABLE
  2
APPID
 70
    10
  0
APPID
  2
ACAD
 70
     0
  0
APPID
  2
ACAD_MLEADERVER
 70
     0
  0
APPID
  2
ACAD_EXEMPT_FROM_CAD_STANDARDS
 70
     0
  0
APPID
  2
ACAD_NAV_VCDISPLAY
 70
     0
  0
APPID
  2
ACAECLAYERSTANDARD
 70
     0
  0
APPID
  2
ACCMTRANSPARENCY
 70
     0
  0
APPID
  2
ACAD_DSTYLE_DIMJAG
 70
     0
  0
APPID
  2
ACAD_DSTYLE_DIMTALN
 70
     0
  0
APPID
  2
ACDBATTR
 70
     0
  0
APPID
  2
ACAD_PSEXT
 70
     0
  0
ENDTAB
  0
TABLE
  2
DIMSTYLE
 70
     1
  0
DIMSTYLE
  2
STANDARD
 70
     0
  3

  4

  5

  6

  7

 40
1.0
 41
0.1875
 42
0.0625
 43
0.38
 44
0.125
 45
0.0
 46
0.0
 47
0.01
 48
0.01
140
0.15625
141
0.09
142
0.0
143
25.3999999999999986
144
1.0
145
0.0
146
1.0
147
0.09
 71
     1
 72
     0
 73
     1
 74
     1
 75
     0
 76
     0
 77
     0
 78
     4
170
     0
171
     2
172
     0
173
     0
174
     0
175
     0
176
     0
177
     0
178
     0
  0
ENDTAB
  0
ENDSEC
  0
SECTION
  2
BLOCKS
  0
BLOCK
  8
0
  2
$MODEL_SPACE
 70
     0
 10
0.0
 20
0.0
 30
0.0
  3
$MODEL_SPACE
  1

  0
ENDBLK
  5
21
  8
0
  0
BLOCK
 67
     1
  8
0
  2
$PAPER_SPACE
 70
     0
 10
0.0
 20
0.0
 30
0.0
  3
$PAPER_SPACE
  1

  0
ENDBLK
  5
1D
 67
     1
  8
0
  0
ENDSEC
  0
SECTION
  2
ENTITIES
  0
ATTDEF
  5
AA11
  8
DEFPOINTS
 10
4085.4992008413942131
 20
193.805840035431487
 30
0.0
 40
0.001
  1
K-1.1922.016
  3

  2
MODELNUMBER
 70
     0
1001
ACDBATTR
1070
     0
1070
     1
  0
ATTDEF
  5
AA12
  8
DEFPOINTS
 10
4085.4992008413942131
 20
193.8041733687647934
 30
0.0
 40
0.001
  1

  3

  2
TRADENAME
 70
     0
1001
ACDBATTR
1070
     0
1070
     1
  0
ATTDEF
  5
AA13
  8
DEFPOINTS
 10
4085.4992008413942131
 20
193.8025067020982135
 30
0.0
 40
0.001
  1
SHOWER DOOR
  3

  2
PRODUCT
 70
     0
1001
ACDBATTR
1070
     0
1070
     1
  0
LINE
  5
113C9
  8
0
 10
4062.2771120072611666
 20
195.0330071959124894
 30
0.0
 11
4062.2771120072611666
 21
195.0133232173124895
 31
0.0
  0
LINE
  5
113CA
  8
0
 10
4062.2771120071611222
 20
192.6047766065123881
 30
0.0
 11
4062.2771120072611666
 21
195.0133232173124895
 31
0.0
  0
LINE
  5
113CB
  8
0
 10
4063.851915156861196
 20
195.0133232173124895
 30
0.0
 11
4063.851915156861196
 21
192.6047766065123881
 31
0.0
  0
LINE
  5
113CC
  8
0
 10
4063.851915156861196
 20
195.0133232173124895
 30
0.0
 11
4063.851915156861196
 21
195.0330071959124894
 31
0.0
  0
LINE
  5
113CD
  8
0
 10
4063.8991592512611533
 20
194.9839139019125014
 30
0.0
 11
4063.8991592512611533
 21
194.9894138247123863
 31
0.0
  0
LINE
  5
113CE
  8
0
 10
4064.1668742573610871
 20
194.9839139019125014
 30
0.0
 11
4064.1668750046610512
 21
195.0290647896125051
 31
0.0
  0
LINE
  5
113CF
  8
0
 10
4065.4068915347611437
 20
192.1460008933125039
 30
0.0
 11
4065.4068915347611437
 21
192.6441466851125028
 31
0.0
  0
LINE
  5
113D0
  8
0
 10
4065.4068915347611437
 20
194.9839139019125014
 30
0.0
 11
4065.4068915347611437
 21
195.08577610131249
 31
0.0
  0
LINE
  5
113D1
  8
0
 10
4065.9974427158608705
 20
195.08577610131249
 30
0.0
 11
4065.9974427158608705
 21
194.9839139019125014
 31
0.0
  0
LINE
  5
113D2
  8
0
 10
4065.9974427158608705
 20
192.6441466851125028
 30
0.0
 11
4065.9974427158608705
 21
192.1460008933125039
 31
0.0
  0
LINE
  5
113D3
  8
0
 10
4108.6942537395398176
 20
192.5654065277124118
 30
0.0
 11
4107.1981907474400941
 21
192.5654065277124118
 31
0.0
  0
LINE
  5
113D4
  8
0
 10
4063.8125450780607935
 20
192.5654065278125131
 30
0.0
 11
4062.31648208596107
 21
192.5654065278125131
 31
0.0
  0
LINE
  5
113D5
  8
0
 10
4107.1588206686392368
 20
192.6441466852124904
 30
0.0
 11
4063.851915156861196
 21
192.6441466851125028
 31
0.0
  0
LINE
  5
113D6
  8
0
 10
4063.851915156861196
 20
193.0328827589125069
 30
0.0
 11
4107.1588206686392368
 21
193.0328827590124092
 31
0.0
  0
LINE
  5
113D7
  8
0
 10
4063.851915156861196
 20
193.1434835213123904
 30
0.0
 11
4107.1588206686392368
 21
193.1434835214124917
 31
0.0
  0
LINE
  5
113D8
  8
0
 10
4107.1588206686392368
 20
194.8972979460124861
 30
0.0
 11
4063.851915156861196
 21
194.8972979459124986
 31
0.0
  0
LINE
  5
113D9
  8
0
 10
4063.851915156861196
 20
194.9839139019125014
 30
0.0
 11
4107.1588206686392368
 21
194.983913902012489
 31
0.0
  0
LINE
  5
113DA
  8
0
 10
4063.8716004498610346
 20
195.0487548893125052
 30
0.0
 11
4064.1471903004608066
 21
195.0487501548124101
 31
0.0
  0
LINE
  5
113DB
  8
0
 10
4107.1588206686392368
 20
192.6047766065123881
 30
0.0
 11
4107.1588206686392368
 21
195.013323217212502
 31
0.0
  0
LINE
  5
113DC
  8
0
 10
4107.1588206687401907
 20
195.013323217212502
 30
0.0
 11
4107.1588206687401907
 21
195.0330071957125142
 31
0.0
  0
LINE
  5
113DD
  8
0
 10
4108.7336238183397654
 20
195.0330071957125142
 30
0.0
 11
4108.7336238183397654
 21
195.0133232173124895
 31
0.0
  0
LINE
  5
113DE
  8
0
 10
4108.7336238182388115
 20
195.0133232173124895
 30
0.0
 11
4108.7336238182388115
 21
192.6047766065123881
 31
0.0
  0
ARC
  5
113DF
  8
0
 10
4063.0645135819609095
 20
173.834878227712494
 30
0.0
 40
21.2317110569999983
 50
87.9261613965908992
 51
92.0738386028094737
  0
ARC
  5
113E0
  8
0
 10
4063.0645135819609095
 20
173.8158407544125055
 30
0.0
 40
21.2310652737000005
 50
87.9258055735971595
 51
92.0741944260899743
  0
ARC
  5
113E1
  8
0
 10
4065.7021671253610293
 20
191.8442349540125065
 30
0.0
 40
0.3937007874
 50
143.8710725278967004
 51
36.1289274717032214
  0
ARC
  5
113E2
  8
0
 10
4066.1155529521611243
 20
192.1460008933125039
 30
0.0
 40
0.1181102362
 50
179.9999999997997122
 51
216.1289274717032072
  0
ARC
  5
113E3
  8
0
 10
4065.2887812985609344
 20
192.1460008933125039
 30
0.0
 40
0.1181102362
 50
323.8710725278967857
 51
359.9999999997996838
  0
ARC
  5
113E4
  8
0
 10
4062.31648208596107
 20
192.6047766065123881
 30
0.0
 40
0.0393700787
 50
179.9999999998989892
 51
269.999999999895806
  0
ARC
  5
113E5
  8
0
 10
4063.8125450780607935
 20
192.6047766065123881
 30
0.0
 40
0.0393700787
 50
269.999999999895806
 51
359.9999999998991029
  0
ARC
  5
113E6
  8
0
 10
4065.7021671253610293
 20
195.3875420406124874
 30
0.0
 40
0.3937007874
 50
323.8710725278967857
 51
216.1289274717032072
  0
ARC
  5
113E7
  8
0
 10
4065.2887812985609344
 20
195.08577610131249
 30
0.0
 40
0.1181102362
 50
0.0
 51
36.1289274717032214
  0
ARC
  5
113E8
  8
0
 10
4066.1155529521611243
 20
195.08577610131249
 30
0.0
 40
0.1181102362
 50
143.8710725278967004
 51
179.9999999997997122
  0
ARC
  5
113E9
  8
0
 10
4063.8597891725607951
 20
194.9894138247123863
 30
0.0
 40
0.0393700787
 50
0.0000008978002582
 51
81.7867892864042147
  0
ARC
  5
113EA
  8
0
 10
4064.1471899653602122
 20
195.029065115512509
 30
0.0
 40
0.0196850394
 50
359.9990456211991727
 51
89.9990201747050236
  0
ARC
  5
113EB
  8
0
 10
4063.8716001961611255
 20
195.0290698499125028
 30
0.0
 40
0.0196850394
 50
89.9991387416082347
 51
180.0
  0
ARC
  5
113EC
  8
0
 10
4062.2967970465610961
 20
195.0330071959124894
 30
0.0
 40
0.0196850394
 50
91.7585190217867108
 51
179.9999999909001929
  0
ARC
  5
113ED
  8
0
 10
4063.8322301174612221
 20
195.0330071959124894
 30
0.0
 40
0.0196850394
 50
0.0000000017000955
 51
88.2414809637980397
  0
ARC
  5
113EE
  8
0
 10
4062.2967970465610961
 20
195.0133232173124895
 30
0.0
 40
0.0196850394
 50
92.0741944272110686
 51
179.9999999998989892
  0
ARC
  5
113EF
  8
0
 10
4063.8322301174612221
 20
195.0133232173124895
 30
0.0
 40
0.0196850394
 50
0.0000000268009313
 51
87.9258055705988681
  0
ARC
  5
113F0
  8
0
 10
4063.8637261804610716
 20
195.0166902154124955
 30
0.0
 40
0.0118110236
 50
81.7867893842018248
 51
179.9999987573995099
  0
CIRCLE
  5
113F1
  8
0
 10
4075.8450044899618661
 20
194.2240695995124042
 30
0.0
 40
0.2279928541
  0
CIRCLE
  5
113F2
  8
0
 10
4075.8450044899618661
 20
194.2240695995124042
 30
0.0
 40
0.2175463467
  0
CIRCLE
  5
113F3
  8
0
 10
4075.8450044899618661
 20
194.7004475522124949
 30
0.0
 40
0.1673228346
  0
CIRCLE
  5
113F4
  8
0
 10
4075.8450044899618661
 20
194.7004475522124949
 30
0.0
 40
0.0984251969
  0
ARC
  5
113F5
  8
0
 10
4107.9462222434403884
 20
173.8348782275124904
 30
0.0
 40
21.2317110569999983
 50
87.9261613966951643
 51
92.0738386028094737
  0
ARC
  5
113F6
  8
0
 10
4107.9462222435404328
 20
173.8158407543124895
 30
0.0
 40
21.2310652737000005
 50
87.9258055738057465
 51
92.0741944264028547
  0
CIRCLE
  5
113F7
  8
0
 10
4105.5879545269399387
 20
194.7004475523123972
 30
0.0
 40
0.1673228346
  0
CIRCLE
  5
113F8
  8
0
 10
4105.5879545269399387
 20
194.7004475523123972
 30
0.0
 40
0.0984251969
  0
ARC
  5
113F9
  8
0
 10
4108.6942537395398176
 20
192.6047766065123881
 30
0.0
 40
0.0393700787
 50
270.0000000071912041
 51
0.0
  0
ARC
  5
113FA
  8
0
 10
4107.1981907474400941
 20
192.6047766064124005
 30
0.0
 40
0.0393700787
 50
179.9999999982998986
 51
270.000000000104194
  0
ARC
  5
113FB
  8
0
 10
4108.7139387789402463
 20
195.0330071957125142
 30
0.0
 40
0.0196850394
 50
0.0000000076992832
 51
88.2414809618951068
  0
ARC
  5
113FC
  8
0
 10
4107.1785057080396655
 20
195.0330071957125142
 30
0.0
 40
0.0196850394
 50
91.7585190259053434
 51
179.9999999976990068
  0
ARC
  5
113FD
  8
0
 10
4108.7139387789402463
 20
195.013323217212502
 30
0.0
 40
0.0196850394
 50
0.0000000001009635
 51
87.9258055727107148
  0
ARC
  5
113FE
  8
0
 10
4107.1785057080396655
 20
195.013323217212502
 30
0.0
 40
0.0196850394
 50
92.0741944292968242
 51
179.9999999978992946
  0
ENDSEC
  0
EOF
