  0
SECTION
  2
HEADER
  9
$ACADVER
  1
AC1009
  9
$INSBASE
 10
3969.5762867763301074
 20
166.2497710329724043
 30
0.0
  9
$EXTMIN
 10
3967.2108230367798569
 20
166.2497710329724043
 30
0.0
  9
$EXTMAX
 10
3971.5415316981798242
 20
245.0686797536725123
 30
0.0
  9
$LIMMIN
 10
0.0
 20
0.0
  9
$LIMMAX
 10
11.6929133858000007
 20
8.2677165353999982
  9
$ORTHOMODE
 70
     0
  9
$REGENMODE
 70
     1
  9
$FILLMODE
 70
     1
  9
$QTEXTMODE
 70
     0
  9
$MIRRTEXT
 70
     0
  9
$DRAGMODE
 70
     2
  9
$LTSCALE
 40
0.6431102362
  9
$OSMODE
 70
  4095
  9
$ATTMODE
 70
     1
  9
$TEXTSIZE
 40
0.2
  9
$TRACEWID
 40
0.05
  9
$TEXTSTYLE
  7
STANDARD
  9
$CLAYER
  8
0
  9
$CELTYPE
  6
BYLAYER
  9
$CECOLOR
 62
   256
  9
$DIMSCALE
 40
1.0
  9
$DIMASZ
 40
0.1875
  9
$DIMEXO
 40
0.0625
  9
$DIMDLI
 40
0.4443307087
  9
$DIMRND
 40
0.0
  9
$DIMDLE
 40
0.0
  9
$DIMEXE
 40
0.125
  9
$DIMTP
 40
0.01
  9
$DIMTM
 40
0.01
  9
$DIMTXT
 40
2.0
  9
$DIMCEN
 40
0.1052362205
  9
$DIMTSZ
 40
0.0
  9
$DIMTOL
 70
     1
  9
$DIMLIM
 70
     0
  9
$DIMTIH
 70
     1
  9
$DIMTOH
 70
     1
  9
$DIMSE1
 70
     0
  9
$DIMSE2
 70
     0
  9
$DIMTAD
 70
     0
  9
$DIMZIN
 70
     0
  9
$DIMBLK
  1

  9
$DIMASO
 70
     1
  9
$DIMSHO
 70
     1
  9
$DIMPOST
  1
\X
  9
$DIMAPOST
  1

  9
$DIMALT
 70
     1
  9
$DIMALTD
 70
     2
  9
$DIMALTF
 40
25.3999999999999986
  9
$DIMLFAC
 40
1.0
  9
$DIMTOFL
 70
     0
  9
$DIMTVP
 40
0.0
  9
$DIMTIX
 70
     0
  9
$DIMSOXD
 70
     0
  9
$DIMSAH
 70
     0
  9
$DIMBLK1
  1

  9
$DIMBLK2
  1

  9
$DIMSTYLE
  2
STANDARD
  9
$DIMCLRD
 70
     0
  9
$DIMCLRE
 70
     0
  9
$DIMCLRT
 70
     0
  9
$DIMTFAC
 40
1.0
  9
$DIMGAP
 40
0.09
  9
$LUNITS
 70
     2
  9
$LUPREC
 70
     4
  9
$SKETCHINC
 40
0.1
  9
$FILLETRAD
 40
0.0
  9
$AUNITS
 70
     0
  9
$AUPREC
 70
     0
  9
$MENU
  1
.
  9
$ELEVATION
 40
0.0
  9
$PELEVATION
 40
0.0
  9
$THICKNESS
 40
0.0
  9
$LIMCHECK
 70
     0
  9
$BLIPMODE
 70
     0
  9
$CHAMFERA
 40
0.0
  9
$CHAMFERB
 40
0.0
  9
$SKPOLY
 70
     0
  9
$TDCREATE
 40
2458060.468368056230247
  9
$TDUPDATE
 40
2459507.7156018521636724
  9
$TDINDWG
 40
0.7343936343
  9
$TDUSRTIMER
 40
0.7343936343
  9
$USRTIMER
 70
     1
  9
$ANGBASE
 50
0.0
  9
$ANGDIR
 70
     0
  9
$PDMODE
 70
     0
  9
$PDSIZE
 40
0.3125
  9
$PLINEWID
 40
0.0
  9
$COORDS
 70
     1
  9
$SPLFRAME
 70
     0
  9
$SPLINETYPE
 70
     6
  9
$SPLINESEGS
 70
     8
  9
$ATTDIA
 70
     1
  9
$ATTREQ
 70
     1
  9
$HANDLING
 70
     1
  9
$HANDSEED
  5
111A4
  9
$SURFTAB1
 70
     6
  9
$SURFTAB2
 70
     6
  9
$SURFTYPE
 70
     6
  9
$SURFU
 70
     6
  9
$SURFV
 70
     6
  9
$UCSNAME
  2

  9
$UCSORG
 10
0.0
 20
0.0
 30
0.0
  9
$UCSXDIR
 10
1.0
 20
0.0
 30
0.0
  9
$UCSYDIR
 10
0.0
 20
1.0
 30
0.0
  9
$PUCSNAME
  2

  9
$PUCSORG
 10
0.0
 20
0.0
 30
0.0
  9
$PUCSXDIR
 10
1.0
 20
0.0
 30
0.0
  9
$PUCSYDIR
 10
0.0
 20
1.0
 30
0.0
  9
$USERI1
 70
     0
  9
$USERI2
 70
     0
  9
$USERI3
 70
     0
  9
$USERI4
 70
     0
  9
$USERI5
 70
     0
  9
$USERR1
 40
0.0
  9
$USERR2
 40
0.0
  9
$USERR3
 40
0.0
  9
$USERR4
 40
0.0
  9
$USERR5
 40
0.0
  9
$WORLDVIEW
 70
     1
  9
$SHADEDGE
 70
     3
  9
$SHADEDIF
 70
    70
  9
$TILEMODE
 70
     1
  9
$MAXACTVP
 70
    64
  9
$PLIMCHECK
 70
     0
  9
$PEXTMIN
 10
1.0000000000000000E+20
 20
1.0000000000000000E+20
 30
1.0000000000000000E+20
  9
$PEXTMAX
 10
-1.0000000000000000E+20
 20
-1.0000000000000000E+20
 30
-1.0000000000000000E+20
  9
$PLIMMIN
 10
0.0
 20
0.0
  9
$PLIMMAX
 10
12.0
 20
9.0
  9
$UNITMODE
 70
     0
  9
$VISRETAIN
 70
     1
  9
$PLINEGEN
 70
     0
  9
$PSLTSCALE
 70
     1
  0
ENDSEC
  0
SECTION
  2
TABLES
  0
TABLE
  2
VPORT
 70
     1
  0
VPORT
  2
*ACTIVE
 70
     0
 10
0.0
 20
0.0
 11
1.0
 21
1.0
 12
325.3003717034168858
 22
45.7149848935248286
 13
0.0
 23
0.0
 14
1.0
 24
1.0
 15
0.0
 25
0.0
 16
0.0
 26
0.0
 36
26.6346482412083887
 17
3644.0758056640620453
 27
159.9442404997975871
 37
0.0
 40
79.5279243913510072
 41
2.8393393393393391
 42
50.0
 43
0.0
 44
0.0
 50
0.0
 51
0.0
 71
     0
 72
   100
 73
     1
 74
     1
 75
     0
 76
     0
 77
     0
 78
     0
  0
ENDTAB
  0
TABLE
  2
LTYPE
 70
     2
  0
LTYPE
  2
CONTINUOUS
 70
     0
  3
Solid line
 72
    65
 73
     0
 40
0.0
  0
LTYPE
  2
PHANTOM2
 70
     0
  3
___ _ _ ___ _ _ ___ _ _ ___ _ _
 72
    65
 73
     6
 40
1.25
 49
0.625
 49
-0.125
 49
0.125
 49
-0.125
 49
0.125
 49
-0.125
  0
ENDTAB
  0
TABLE
  2
LAYER
 70
     2
  0
LAYER
  2
0
 70
     0
 62
   255
  6
CONTINUOUS
  0
LAYER
  2
DEFPOINTS
 70
     0
 62
     7
  6
CONTINUOUS
  0
ENDTAB
  0
TABLE
  2
STYLE
 70
     1
  0
STYLE
  2
STANDARD
 70
     0
 40
0.0
 41
0.8
 50
0.0
 71
     0
 42
0.2
  3
txt
  4

  0
ENDTAB
  0
TABLE
  2
VIEW
 70
     0
  0
ENDTAB
  0
TABLE
  2
UCS
 70
     0
  0
ENDTAB
  0
TABLE
  2
APPID
 70
    10
  0
APPID
  2
ACAD
 70
     0
  0
APPID
  2
ACAD_MLEADERVER
 70
     0
  0
APPID
  2
ACAD_EXEMPT_FROM_CAD_STANDARDS
 70
     0
  0
APPID
  2
ACAD_NAV_VCDISPLAY
 70
     0
  0
APPID
  2
ACAECLAYERSTANDARD
 70
     0
  0
APPID
  2
ACCMTRANSPARENCY
 70
     0
  0
APPID
  2
ACAD_DSTYLE_DIMJAG
 70
     0
  0
APPID
  2
ACAD_DSTYLE_DIMTALN
 70
     0
  0
APPID
  2
ACDBATTR
 70
     0
  0
APPID
  2
ACAD_PSEXT
 70
     0
  0
ENDTAB
  0
TABLE
  2
DIMSTYLE
 70
     1
  0
DIMSTYLE
  2
STANDARD
 70
     0
  3

  4

  5

  6

  7

 40
1.0
 41
0.1875
 42
0.0625
 43
0.38
 44
0.125
 45
0.0
 46
0.0
 47
0.01
 48
0.01
140
0.15625
141
0.09
142
0.0
143
25.3999999999999986
144
1.0
145
0.0
146
1.0
147
0.09
 71
     1
 72
     0
 73
     1
 74
     1
 75
     0
 76
     0
 77
     0
 78
     4
170
     0
171
     2
172
     0
173
     0
174
     0
175
     0
176
     0
177
     0
178
     0
  0
ENDTAB
  0
ENDSEC
  0
SECTION
  2
BLOCKS
  0
BLOCK
  8
0
  2
$MODEL_SPACE
 70
     0
 10
0.0
 20
0.0
 30
0.0
  3
$MODEL_SPACE
  1

  0
ENDBLK
  5
21
  8
0
  0
BLOCK
 67
     1
  8
0
  2
$PAPER_SPACE
 70
     0
 10
0.0
 20
0.0
 30
0.0
  3
$PAPER_SPACE
  1

  0
ENDBLK
  5
1D
 67
     1
  8
0
  0
ENDSEC
  0
SECTION
  2
ENTITIES
  0
ATTDEF
  5
AA11
  8
DEFPOINTS
 10
3969.572677728691815
 20
166.2554095297498975
 30
0.0
 40
0.001
  1
K-1.1922.015
  3

  2
MODELNUMBER
 70
     0
1001
ACDBATTR
1070
     0
1070
     1
  0
ATTDEF
  5
AA12
  8
DEFPOINTS
 10
3969.572677728691815
 20
166.2537428630832039
 30
0.0
 40
0.001
  1

  3

  2
TRADENAME
 70
     0
1001
ACDBATTR
1070
     0
1070
     1
  0
ATTDEF
  5
AA13
  8
DEFPOINTS
 10
3969.572677728691815
 20
166.2520761964165956
 30
0.0
 40
0.001
  1
SHOWER DOOR
  3

  2
PRODUCT
 70
     0
1001
ACDBATTR
1070
     0
1070
     1
  0
LINE
  5
10FEE
  8
0
 10
3968.9714775268798803
 20
166.2497710329724043
 30
0.0
 11
3970.8268781546789796
 21
166.2497710329724043
 31
0.0
  0
LINE
  5
10FEF
  8
0
 10
3969.1973820917801277
 20
166.3481962298724
 30
0.0
 11
3969.5517128004798906
 21
166.3481962298724
 31
0.0
  0
LINE
  5
10FF0
  8
0
 10
3969.4119490207799572
 20
166.371818277072407
 30
0.0
 11
3969.337145871480061
 21
166.371818277072407
 31
0.0
  0
LINE
  5
10FF1
  8
0
 10
3969.1622149786799127
 20
166.6160781195723928
 30
0.0
 11
3970.0675280131799809
 21
166.6160781195723928
 31
0.0
  0
LINE
  5
10FF2
  8
0
 10
3970.0675277439800084
 20
166.8520781195724965
 30
0.0
 11
3970.0945946899801129
 21
166.8520781195724965
 31
0.0
  0
LINE
  5
10FF3
  8
0
 10
3968.9911625662789447
 20
166.9249678833724033
 30
0.0
 11
3969.1580120130802243
 21
166.9249678833724033
 31
0.0
  0
LINE
  5
10FF4
  8
0
 10
3968.8840916590788765
 20
244.9702556470724915
 30
0.0
 11
3968.9037723916799223
 21
244.9899395961724906
 31
0.0
  0
LINE
  5
10FF5
  8
0
 10
3967.2501931155798047
 20
200.021708040872511
 30
0.0
 11
3969.1622167273799278
 21
200.021708040872511
 31
0.0
  0
LINE
  5
10FF6
  8
0
 10
3970.8268781546789796
 20
200.021708040872511
 30
0.0
 11
3971.5021616194799208
 21
200.021708040872511
 31
0.0
  0
LINE
  5
10FF7
  8
0
 10
3967.9538986145798845
 20
200.730369458172504
 30
0.0
 11
3969.1622167273799278
 21
200.730369458172504
 31
0.0
  0
LINE
  5
10FF8
  8
0
 10
3967.2108230367798569
 20
200.061078119572386
 30
0.0
 11
3967.2108230367798569
 21
211.3209206392724866
 31
0.0
  0
LINE
  5
10FF9
  8
0
 10
3967.8366514697800085
 20
200.021708040872511
 30
0.0
 11
3967.8366514697800085
 21
200.6909993794724869
 31
0.0
  0
LINE
  5
10FFA
  8
0
 10
3967.8366514697800085
 20
210.6909993794724869
 30
0.0
 11
3967.8366514697800085
 21
211.3602907179725037
 31
0.0
  0
LINE
  5
10FFB
  8
0
 10
3967.998224611580099
 20
200.7697395368724926
 30
0.0
 11
3967.998224611580099
 21
210.6122592219724936
 31
0.0
  0
LINE
  5
10FFC
  8
0
 10
3968.3256953979789614
 20
243.9781285725725013
 30
0.0
 11
3968.3256953979789614
 21
245.02930967497241
 31
0.0
  0
LINE
  5
10FFD
  8
0
 10
3968.4044355553801324
 20
244.0489947143724976
 30
0.0
 11
3968.4044355553801324
 21
244.9781285725725013
 31
0.0
  0
LINE
  5
10FFE
  8
0
 10
3968.4753016971799298
 20
244.0450577064725053
 30
0.0
 11
3968.4753016971799298
 21
244.3816729699724988
 31
0.0
  0
LINE
  5
10FFF
  8
0
 10
3968.4753016971799298
 20
244.6336414738725011
 30
0.0
 11
3968.4753016971799298
 21
244.9609634792724933
 31
0.0
  0
LINE
  5
11000
  8
0
 10
3968.4831757128799836
 20
244.7887695767724949
 30
0.0
 11
3968.4831757128799836
 21
244.6336414738725011
 31
0.0
  0
LINE
  5
11001
  8
0
 10
3968.4831757128799836
 20
244.3816729699724988
 30
0.0
 11
3968.4831757128799836
 21
244.1356088875724879
 31
0.0
  0
LINE
  5
11002
  8
0
 10
3968.4981379972800823
 20
244.9308855683725028
 30
0.0
 11
3968.4981379972800823
 21
244.0844288754724971
 31
0.0
  0
LINE
  5
11003
  8
0
 10
3968.5768781547799335
 20
244.8521454108725095
 30
0.0
 11
3968.5768781547799335
 21
244.0450587966724925
 31
0.0
  0
LINE
  5
11004
  8
0
 10
3968.704830910678993
 20
244.2615942297724985
 30
0.0
 11
3968.704830910678993
 21
244.3600194266724941
 31
0.0
  0
LINE
  5
11005
  8
0
 10
3968.7193961853799919
 20
244.3902536468725089
 30
0.0
 11
3968.7193961853799919
 21
244.4086253113725036
 31
0.0
  0
LINE
  5
11006
  8
0
 10
3968.8819962649790796
 20
244.3600194266724941
 30
0.0
 11
3968.8819962649790796
 21
244.2615942297724985
 31
0.0
  0
LINE
  5
11007
  8
0
 10
3968.9705789421800546
 20
244.0450587966724925
 30
0.0
 11
3968.9705789421800546
 21
244.8521454108725095
 31
0.0
  0
LINE
  5
11008
  8
0
 10
3968.9714775268798803
 20
166.2497710329724043
 30
0.0
 11
3968.9714775268798803
 21
166.905282843972401
 31
0.0
  0
LINE
  5
11009
  8
0
 10
3969.0493190996799058
 20
244.1631690329724904
 30
0.0
 11
3969.0493190996799058
 21
244.8521454108725095
 31
0.0
  0
LINE
  5
1100A
  8
0
 10
3969.1622167273799278
 20
243.8208025290724947
 30
0.0
 11
3969.1622167273799278
 21
166.6160781195723928
 31
0.0
  0
LINE
  5
1100B
  8
0
 10
3969.1776970524801982
 20
166.6160781195723928
 30
0.0
 11
3969.1776970524801982
 21
166.3678812691725
 31
0.0
  0
LINE
  5
1100C
  8
0
 10
3969.183602564280136
 20
166.6160781195723928
 30
0.0
 11
3969.183602564280136
 21
166.3538391577723985
 31
0.0
  0
LINE
  5
1100D
  8
0
 10
3969.2186970524790013
 20
244.0450587966724925
 30
0.0
 11
3969.2186970524790013
 21
244.0371836906724923
 31
0.0
  0
LINE
  5
1100E
  8
0
 10
3969.2186970524790013
 20
243.9584435332724865
 30
0.0
 11
3969.2186970524790013
 21
243.8208025290724947
 31
0.0
  0
LINE
  5
1100F
  8
0
 10
3969.2580671311798142
 20
244.0450587966724925
 30
0.0
 11
3969.2580671311798142
 21
244.0371836906724923
 31
0.0
  0
LINE
  5
11010
  8
0
 10
3969.2580671311798142
 20
243.9584435332724865
 30
0.0
 11
3969.2580671311798142
 21
243.8208025290724947
 31
0.0
  0
LINE
  5
11011
  8
0
 10
3969.3174608319791332
 20
166.3521332376724047
 30
0.0
 11
3969.3174608319791332
 21
166.3481962298724
 31
0.0
  0
LINE
  5
11012
  8
0
 10
3969.4316340602799755
 20
166.3521332376724047
 30
0.0
 11
3969.4316340602799755
 21
166.3481962298724
 31
0.0
  0
LINE
  5
11013
  8
0
 10
3969.4863269736802067
 20
244.5273422612725085
 30
0.0
 11
3969.4863269736802067
 21
244.6257674581725041
 31
0.0
  0
LINE
  5
11014
  8
0
 10
3969.4942876035797781
 20
243.8208025290724947
 30
0.0
 11
3969.4942876035797781
 21
243.9584435332724865
 31
0.0
  0
LINE
  5
11015
  8
0
 10
3969.4942876035797781
 20
244.0371836906724923
 30
0.0
 11
3969.4942876035797781
 21
244.0450587966724925
 31
0.0
  0
LINE
  5
11016
  8
0
 10
3969.5336576823788164
 20
243.8208025290724947
 30
0.0
 11
3969.5336576823788164
 21
243.9584435332724865
 31
0.0
  0
LINE
  5
11017
  8
0
 10
3969.5336576823788164
 20
244.0371836906724923
 30
0.0
 11
3969.5336576823788164
 21
244.0450587966724925
 31
0.0
  0
LINE
  5
11018
  8
0
 10
3969.5654923279798822
 20
166.3538621170723957
 30
0.0
 11
3969.5654923279798822
 21
166.6160781195723928
 31
0.0
  0
LINE
  5
11019
  8
0
 10
3969.571397839878955
 20
166.3678812691725
 30
0.0
 11
3969.571397839878955
 21
166.6160781195723928
 31
0.0
  0
LINE
  5
1101A
  8
0
 10
3969.6634923279798386
 20
244.6257674581725041
 30
0.0
 11
3969.6634923279798386
 21
244.5273422612725085
 31
0.0
  0
LINE
  5
1101B
  8
0
 10
3969.8597482506788765
 20
243.8208025290724947
 30
0.0
 11
3969.8597482506788765
 21
243.9584435332724865
 31
0.0
  0
LINE
  5
1101C
  8
0
 10
3969.8597482506788765
 20
244.0371836906724923
 30
0.0
 11
3969.8597482506788765
 21
244.0450587966724925
 31
0.0
  0
LINE
  5
1101D
  8
0
 10
3969.9069923451797877
 20
244.0450587966724925
 30
0.0
 11
3969.9069923451797877
 21
244.0371836906724923
 31
0.0
  0
LINE
  5
1101E
  8
0
 10
3969.9069923451797877
 20
243.9584435332724865
 30
0.0
 11
3969.9069923451797877
 21
243.8208025290724947
 31
0.0
  0
LINE
  5
1101F
  8
0
 10
3969.9346495677791609
 20
244.0450587966724925
 30
0.0
 11
3969.9346495677791609
 21
244.0371836906724923
 31
0.0
  0
LINE
  5
11020
  8
0
 10
3969.9346495677791609
 20
243.9584435332724865
 30
0.0
 11
3969.9346495677791609
 21
243.8208025290724947
 31
0.0
  0
LINE
  5
11021
  8
0
 10
3970.0675277439800084
 20
243.8208025290724947
 30
0.0
 11
3970.0675277439800084
 21
166.6160781195723928
 31
0.0
  0
LINE
  5
11022
  8
0
 10
3970.0927789936799854
 20
244.0371836906724923
 30
0.0
 11
3970.0927789936799854
 21
243.9781285725725013
 31
0.0
  0
LINE
  5
11023
  8
0
 10
3970.0945946899801129
 20
166.2497710329724043
 30
0.0
 11
3970.0945946899801129
 21
244.0450466234725013
 31
0.0
  0
LINE
  5
11024
  8
0
 10
3970.1005002019801395
 20
244.8521454108725095
 30
0.0
 11
3970.1005002019801395
 21
244.1631690329724904
 31
0.0
  0
LINE
  5
11025
  8
0
 10
3970.1045900171789071
 20
166.2497710329724043
 30
0.0
 11
3970.1045900171789071
 21
244.0450466234725013
 31
0.0
  0
LINE
  5
11026
  8
0
 10
3970.1792403594799907
 20
244.8521454108725095
 30
0.0
 11
3970.1792403594799907
 21
244.0450587966724925
 31
0.0
  0
LINE
  5
11027
  8
0
 10
3970.1871143750790907
 20
244.0450466234725013
 30
0.0
 11
3970.1871143750790907
 21
166.2497710329724043
 31
0.0
  0
LINE
  5
11028
  8
0
 10
3970.2678230366800562
 20
244.2615942297724985
 30
0.0
 11
3970.2678230366800562
 21
244.3600194266724941
 31
0.0
  0
LINE
  5
11029
  8
0
 10
3970.3308221382799275
 20
244.4447751129725077
 30
0.0
 11
3970.3308221382799275
 21
244.1768205422725089
 31
0.0
  0
LINE
  5
1102A
  8
0
 10
3970.3366576821799754
 20
244.1753050084724919
 30
0.0
 11
3970.3366576821799754
 21
244.4462995633724063
 31
0.0
  0
LINE
  5
1102B
  8
0
 10
3970.3760277609799232
 20
244.4463400986724082
 30
0.0
 11
3970.3760277609799232
 21
244.1752836855725093
 31
0.0
  0
LINE
  5
1102C
  8
0
 10
3970.3760277609799232
 20
240.386416948872494
 30
0.0
 11
3970.3760277609799232
 21
240.1446215935725093
 31
0.0
  0
LINE
  5
1102D
  8
0
 10
3970.3760277609799232
 20
218.7328736417724997
 30
0.0
 11
3970.3760277609799232
 21
218.4910782864724865
 31
0.0
  0
LINE
  5
1102E
  8
0
 10
3970.3760277609799232
 20
192.748621673272396
 30
0.0
 11
3970.3760277609799232
 21
192.5068263179724113
 31
0.0
  0
LINE
  5
1102F
  8
0
 10
3970.3760277609799232
 20
171.0950783661724017
 30
0.0
 11
3970.3760277609799232
 21
170.8532830108723886
 31
0.0
  0
LINE
  5
11030
  8
0
 10
3970.4449883909801429
 20
244.3600194266724941
 30
0.0
 11
3970.4449883909801429
 21
244.2615942297724985
 31
0.0
  0
LINE
  5
11031
  8
0
 10
3970.5729411468801118
 20
244.0450587966724925
 30
0.0
 11
3970.5729411468801118
 21
244.8521454108725095
 31
0.0
  0
LINE
  5
11032
  8
0
 10
3970.6516183121789254
 20
244.0832763435724928
 30
0.0
 11
3970.6516183121789254
 21
244.0450466234725013
 31
0.0
  0
LINE
  5
11033
  8
0
 10
3970.651681304379963
 20
244.0844288754724971
 30
0.0
 11
3970.651681304379963
 21
244.9308855683725028
 31
0.0
  0
LINE
  5
11034
  8
0
 10
3970.653649808280079
 20
244.9781285725725013
 30
0.0
 11
3970.653649808280079
 21
244.9269585531725113
 31
0.0
  0
LINE
  5
11035
  8
0
 10
3970.6575868161789913
 20
244.0568576471725066
 30
0.0
 11
3970.6575868161789913
 21
244.453164992372507
 31
0.0
  0
LINE
  5
11036
  8
0
 10
3970.6575868161789913
 20
244.4951959712724943
 30
0.0
 11
3970.6575868161789913
 21
244.9781285725725013
 31
0.0
  0
LINE
  5
11037
  8
0
 10
3970.7343584696791368
 20
166.2497710329724043
 30
0.0
 11
3970.7343584696791368
 21
244.0452115196360126
 31
0.0
  0
LINE
  5
11038
  8
0
 10
3970.7421056926800702
 20
244.0501390484716921
 30
0.0
 11
3970.7421056926800702
 21
244.9848471712732874
 31
0.0
  0
LINE
  5
11039
  8
0
 10
3970.7442027721799604
 20
244.0568576471725066
 30
0.0
 11
3970.7442027721799604
 21
244.9781285725725013
 31
0.0
  0
LINE
  5
1103A
  8
0
 10
3970.8071948981801143
 20
245.02930967497241
 30
0.0
 11
3970.8071948981801143
 21
244.9899395961724906
 31
0.0
  0
LINE
  5
1103B
  8
0
 10
3970.8268781546789796
 20
166.2497710329724043
 30
0.0
 11
3970.8268781546789796
 21
244.9899285132725026
 31
0.0
  0
LINE
  5
1103C
  8
0
 10
3971.5415316981798242
 20
200.061078119572386
 30
0.0
 11
3971.5415316981798242
 21
211.3209206392724866
 31
0.0
  0
LINE
  5
1103D
  8
0
 10
3970.3312593645800916
 20
244.2245230963725078
 30
0.0
 11
3970.3310342537802171
 21
244.1767492977724032
 31
0.0
  0
LINE
  5
1103E
  8
0
 10
3969.1622167273799278
 20
210.6516293006725107
 30
0.0
 11
3967.9538986145798845
 21
210.6516293006725107
 31
0.0
  0
LINE
  5
1103F
  8
0
 10
3967.2501931155798047
 20
211.3602907179725037
 30
0.0
 11
3969.1622167273799278
 21
211.3602907179725037
 31
0.0
  0
LINE
  5
11040
  8
0
 10
3970.8268781546789796
 20
211.3602907179725037
 30
0.0
 11
3971.5021616194799208
 21
211.3602907179725037
 31
0.0
  0
LINE
  5
11041
  8
0
 10
3968.4463208445799864
 20
244.9899395961724906
 30
0.0
 11
3968.498752163278823
 21
244.937516845172496
 31
0.0
  0
LINE
  5
11042
  8
0
 10
3968.7193961853799919
 20
244.3902536467724076
 30
0.0
 11
3968.7092342558789824
 21
244.3875307659725138
 31
0.0
  0
LINE
  5
11043
  8
0
 10
3969.1622149787799572
 20
243.8208025290724947
 30
0.0
 11
3970.0675280131799809
 21
243.8208025290724947
 31
0.0
  0
LINE
  5
11044
  8
0
 10
3968.3453804372798004
 20
243.9584435332724865
 30
0.0
 11
3970.0730939542800115
 21
243.9584435332724865
 31
0.0
  0
LINE
  5
11045
  8
0
 10
3970.0927789936799854
 20
244.0371836906724923
 30
0.0
 11
3968.4162465790800525
 21
244.0371836906724923
 31
0.0
  0
LINE
  5
11046
  8
0
 10
3970.6693978397797764
 20
244.0450466234725013
 30
0.0
 11
3970.6123112256800596
 21
244.0450466234725013
 31
0.0
  0
LINE
  5
11047
  8
0
 10
3970.5729411468801118
 20
244.0450466234725013
 30
0.0
 11
3970.1242683929799568
 21
244.0450466234725013
 31
0.0
  0
LINE
  5
11048
  8
0
 10
3970.6693978397797764
 20
244.0450466235724889
 30
0.0
 11
3970.7323917485800848
 21
244.0450466235724889
 31
0.0
  0
LINE
  5
11049
  8
0
 10
3968.5375080759799857
 20
244.0450577064725053
 30
0.0
 11
3968.4162465790800525
 21
244.0450577064725053
 31
0.0
  0
LINE
  5
1104A
  8
0
 10
3970.1792403594799907
 20
244.0450587966724925
 30
0.0
 11
3968.5375080759799857
 21
244.0450587966724925
 31
0.0
  0
LINE
  5
1104B
  8
0
 10
3970.1969568947802145
 20
244.0450587966724925
 30
0.0
 11
3970.6123112256800596
 21
244.0450587966724925
 31
0.0
  0
LINE
  5
1104C
  8
0
 10
3970.6516183121789254
 20
244.0568025290723995
 30
0.0
 11
3970.6575868161789913
 21
244.0568025290723995
 31
0.0
  0
LINE
  5
1104D
  8
0
 10
3969.0886891783798092
 20
244.1237989541725142
 30
0.0
 11
3970.0611301232797814
 21
244.1237989541725142
 31
0.0
  0
LINE
  5
1104E
  8
0
 10
3968.4981379972800823
 20
244.3797044659723952
 30
0.0
 11
3968.4831757128799836
 21
244.3797044659723952
 31
0.0
  0
LINE
  5
1104F
  8
0
 10
3968.4981379972800823
 20
244.3816729699724988
 30
0.0
 11
3968.4241205947801063
 21
244.3816729699724988
 31
0.0
  0
LINE
  5
11050
  8
0
 10
3968.4981379972800823
 20
244.6336414738725011
 30
0.0
 11
3968.4241205947801063
 21
244.6336414738725011
 31
0.0
  0
LINE
  5
11051
  8
0
 10
3968.4981379972800823
 20
244.6356099778724911
 30
0.0
 11
3968.4831757128799836
 21
244.6356099778724911
 31
0.0
  0
LINE
  5
11052
  8
0
 10
3970.5335710681788441
 20
244.8915154896725141
 30
0.0
 11
3970.2186104381798941
 21
244.8915154896725141
 31
0.0
  0
LINE
  5
11053
  8
0
 10
3970.0611301232797814
 20
244.8915154896725141
 30
0.0
 11
3969.0886891783798092
 21
244.8915154896725141
 31
0.0
  0
LINE
  5
11054
  8
0
 10
3968.9312088633801068
 20
244.8915154896725141
 30
0.0
 11
3968.6162482334789274
 21
244.8915154896725141
 31
0.0
  0
LINE
  5
11055
  8
0
 10
3970.6528521072800686
 20
244.9190734544725103
 30
0.0
 11
3970.651681304379963
 21
244.9190734544725103
 31
0.0
  0
LINE
  5
11056
  8
0
 10
3970.6123112256800596
 20
244.9702556470724915
 30
0.0
 11
3968.5375080759799857
 21
244.9702556470724915
 31
0.0
  0
LINE
  5
11057
  8
0
 10
3970.8268781546789796
 20
244.9899285132725026
 30
0.0
 11
3970.7421056926800702
 21
244.9899285132725026
 31
0.0
  0
LINE
  5
11058
  8
0
 10
3970.7323917485800848
 20
244.9899395962725066
 30
0.0
 11
3970.6693978397797764
 21
244.9899395962725066
 31
0.0
  0
LINE
  5
11059
  8
0
 10
3968.4162465790800525
 20
244.9899395961724906
 30
0.0
 11
3970.77361208748016
 21
244.9899395961724906
 31
0.0
  0
LINE
  5
1105A
  8
0
 10
3968.3650654766797743
 20
245.0686797536725123
 30
0.0
 11
3970.7678248194802109
 21
245.0686797536725123
 31
0.0
  0
ARC
  5
1105B
  8
0
 10
3967.2501931155798047
 20
200.061078119572386
 30
0.0
 40
0.0393700787
 50
180.0
 51
270.0
  0
ARC
  5
1105C
  8
0
 10
3968.0375946903791373
 20
200.7697395368724926
 30
0.0
 40
0.0393700787
 50
180.0
 51
270.0
  0
ARC
  5
1105D
  8
0
 10
3969.3371458713800166
 20
166.3521332376724047
 30
0.0
 40
0.0196850394
 50
90.0
 51
180.0
  0
ARC
  5
1105E
  8
0
 10
3969.1973820917801277
 20
166.3678812691725
 30
0.0
 40
0.0196850394
 50
180.0
 51
270.0
  0
ARC
  5
1105F
  8
0
 10
3969.1580120130802243
 20
166.905282843972401
 30
0.0
 40
0.0196850394
 50
77.6435352416104365
 51
90.0
  0
ARC
  5
11060
  8
0
 10
3968.9911625662789447
 20
166.905282843972401
 30
0.0
 40
0.0196850394
 50
90.0
 51
180.0
  0
ARC
  5
11061
  8
0
 10
3968.793413587879968
 20
244.2615942297724985
 30
0.0
 40
0.0885826772
 50
179.9999999996987015
 51
359.9999999997003783
  0
ARC
  5
11062
  8
0
 10
3968.793413587879968
 20
244.3600194266724941
 30
0.0
 40
0.0885826772
 50
0.0000000002996337
 51
180.0000000002995932
  0
CIRCLE
  5
11063
  8
0
 10
3969.2993190996789963
 20
244.3797044659723952
 30
0.0
 40
0.0590551181
  0
CIRCLE
  5
11064
  8
0
 10
3969.2993190996789963
 20
244.3797044659723952
 30
0.0
 40
0.0485059373
  0
ARC
  5
11065
  8
0
 10
3969.0886891783798092
 20
244.1631690329724904
 30
0.0
 40
0.0393700787
 50
179.999999999599396
 51
269.9999999995048938
  0
ARC
  5
11066
  8
0
 10
3969.0886891783798092
 20
244.8521454108725095
 30
0.0
 40
0.0393700787
 50
89.9999999996091731
 51
180.0000000003988987
  0
ARC
  5
11067
  8
0
 10
3968.5375080759799857
 20
244.9308855683725028
 30
0.0
 40
0.0393700787
 50
89.9999999996091731
 51
180.0
  0
ARC
  5
11068
  8
0
 10
3968.5375080759799857
 20
244.0844288754724971
 30
0.0
 40
0.0393700787
 50
180.0
 51
269.999999999895806
  0
ARC
  5
11069
  8
0
 10
3968.9312088633801068
 20
244.8521454108725095
 30
0.0
 40
0.0393700787
 50
0.0
 51
90.0000000003908269
  0
ARC
  5
1106A
  8
0
 10
3968.6162482334789274
 20
244.8521454108725095
 30
0.0
 40
0.0393700787
 50
89.9999999996091731
 51
180.0000000002995932
  0
ARC
  5
1106B
  8
0
 10
3968.5225457916799314
 20
244.1356088875724879
 30
0.0
 40
0.0393700787
 50
180.0
 51
231.6840441973041038
  0
ARC
  5
1106C
  8
0
 10
3968.3650654766797743
 20
245.02930967497241
 30
0.0
 40
0.0393700787
 50
90.0
 51
180.0
  0
ARC
  5
1106D
  8
0
 10
3967.2501931155798047
 20
211.3209206392724866
 30
0.0
 40
0.0393700787
 50
90.0
 51
180.0
  0
ARC
  5
1106E
  8
0
 10
3968.0375946903791373
 20
210.6122592219724936
 30
0.0
 40
0.0393700787
 50
90.0
 51
180.0
  0
ARC
  5
1106F
  8
0
 10
3968.5028607522799575
 20
244.7887695767724949
 30
0.0
 40
0.0196850394
 50
103.8851307726884983
 51
180.0
  0
ARC
  5
11070
  8
0
 10
3968.4241205947801063
 20
244.6533265132725035
 30
0.0
 40
0.0196850394
 50
180.0
 51
270.0
  0
ARC
  5
11071
  8
0
 10
3968.4241205947801063
 20
244.3619879305724965
 30
0.0
 40
0.0196850394
 50
90.0
 51
180.0
  0
ARC
  5
11072
  8
0
 10
3968.3453804372798004
 20
243.9781285725725013
 30
0.0
 40
0.0196850394
 50
180.0000000031998866
 51
270.0000000124022108
  0
ARC
  5
11073
  8
0
 10
3968.4162465790800525
 20
244.0568687300724946
 30
0.0
 40
0.0118110236
 50
191.2713134912974056
 51
269.999999999895806
  0
ARC
  5
11074
  8
0
 10
3968.4162465790800525
 20
244.9781285725725013
 30
0.0
 40
0.0118110236
 50
90.0000000013027659
 51
179.9999999503992001
  0
ARC
  5
11075
  8
0
 10
3968.4162465790800525
 20
244.0489947143724976
 30
0.0
 40
0.0118110236
 50
180.0000000495990946
 51
269.9999999986973194
  0
CIRCLE
  5
11076
  8
0
 10
3970.4607364223797958
 20
192.6277237888724017
 30
0.0
 40
0.1476377953
  0
CIRCLE
  5
11077
  8
0
 10
3970.4607364223797958
 20
170.9741804817724073
 30
0.0
 40
0.1476377953
  0
ARC
  5
11078
  8
0
 10
3971.5021616194799208
 20
200.061078119572386
 30
0.0
 40
0.0393700787
 50
270.0
 51
0.0
  0
ARC
  5
11079
  8
0
 10
3969.411949020980046
 20
166.3521332376724047
 30
0.0
 40
0.0196850394
 50
0.0
 51
90.0
  0
ARC
  5
1107A
  8
0
 10
3969.5517128004798906
 20
166.3678812691725
 30
0.0
 40
0.0196850394
 50
270.0
 51
0.0
  0
CIRCLE
  5
1107B
  8
0
 10
3970.4607364223797958
 20
218.6119757573725053
 30
0.0
 40
0.1476377953
  0
CIRCLE
  5
1107C
  8
0
 10
3970.4607364223797958
 20
240.2655190644724996
 30
0.0
 40
0.1476377953
  0
ARC
  5
1107D
  8
0
 10
3970.3564057137800773
 20
244.3600194266724941
 30
0.0
 40
0.0885826772
 50
0.0
 51
179.9999999980996108
  0
ARC
  5
1107E
  8
0
 10
3970.3564057137800773
 20
244.2615942297724985
 30
0.0
 40
0.0885826772
 50
180.0000000018987976
 51
0.0
  0
ARC
  5
1107F
  8
0
 10
3969.5749096507797731
 20
244.6257674581725041
 30
0.0
 40
0.0885826772
 50
0.0
 51
179.9999999981988879
  0
ARC
  5
11080
  8
0
 10
3969.5749096507797731
 20
244.5273422612725085
 30
0.0
 40
0.0885826772
 50
180.0000000018987976
 51
0.0
  0
ARC
  5
11081
  8
0
 10
3969.5749096507797731
 20
244.4387595840724998
 30
0.0
 40
0.0787401575
 50
26.3806213965046084
 51
153.6117562614954863
  0
ARC
  5
11082
  8
0
 10
3969.5749096507797731
 20
244.4387595840724998
 30
0.0
 40
0.0681909767
 50
22.6545605750032806
 51
157.3477006991010967
  0
CIRCLE
  5
11083
  8
0
 10
3969.8505002019801395
 20
244.3797044659723952
 30
0.0
 40
0.0590551181
  0
ARC
  5
11084
  8
0
 10
3969.5749096507797731
 20
244.4387595840724998
 30
0.0
 40
0.0492125984
 50
16.195443430398921
 51
163.8034408276998874
  0
CIRCLE
  5
11085
  8
0
 10
3969.8505002019801395
 20
244.3797044659723952
 30
0.0
 40
0.0485059373
  0
ARC
  5
11086
  8
0
 10
3970.0611301232797814
 20
244.8521454108725095
 30
0.0
 40
0.0393700787
 50
0.0000000014997969
 51
90.0000000003908269
  0
ARC
  5
11087
  8
0
 10
3970.0611301232797814
 20
244.1631690329724904
 30
0.0
 40
0.0393700787
 50
270.0000000004949925
 51
359.9999999985001864
  0
ARC
  5
11088
  8
0
 10
3970.2186104381798941
 20
244.8521454108725095
 30
0.0
 40
0.0393700787
 50
89.9999999996091731
 51
179.9999999985001864
  0
ARC
  5
11089
  8
0
 10
3970.5335710681788441
 20
244.8521454108725095
 30
0.0
 40
0.0393700787
 50
0.0000000014997969
 51
90.0000000003908269
  0
ARC
  5
1108A
  8
0
 10
3970.0730939542800115
 20
243.9781285725725013
 30
0.0
 40
0.0196850394
 50
270.0000000108909717
 51
359.999999998299927
  0
ARC
  5
1108B
  8
0
 10
3971.5021616194799208
 20
211.3209206392724866
 30
0.0
 40
0.0393700787
 50
0.0
 51
90.0
  0
ARC
  5
1108C
  8
0
 10
3970.6123112256800596
 20
244.0844288754724971
 30
0.0
 40
0.0393700787
 50
270.000000000104194
 51
0.0
  0
ARC
  5
1108D
  8
0
 10
3970.6123112256800596
 20
244.9308855683725028
 30
0.0
 40
0.0393700787
 50
0.0
 51
90.0000000003908269
  0
ARC
  5
1108E
  8
0
 10
3970.6142797295801756
 20
244.9269585531725113
 30
0.0
 40
0.0393700787
 50
341.8506826530997955
 51
0.0
  0
ARC
  5
1108F
  8
0
 10
3970.7678248194802109
 20
245.02930967497241
 30
0.0
 40
0.0393700787
 50
0.0
 51
90.0
  0
ARC
  5
11090
  8
0
 10
3970.6497162882801604
 20
244.4741804817724073
 30
0.0
 40
0.0224409449
 50
290.5314681236018828
 51
69.4685318763980177
  0
ARC
  5
11091
  8
0
 10
3970.6467635323801915
 20
244.4741804817724073
 30
0.0
 40
0.0196850394
 50
284.2813994863925018
 51
75.5309314589974008
  0
ARC
  5
11092
  8
0
 10
3970.6398702807800873
 20
244.7911217888724877
 30
0.0
 40
0.0177165354
 50
0.0
 51
48.1705111426936767
  0
ARC
  5
11093
  8
0
 10
3970.6398702807800873
 20
244.5903343872724918
 30
0.0
 40
0.0177165354
 50
311.8294868034926139
 51
0.0
  0
ARC
  5
11094
  8
0
 10
3970.6398702807800873
 20
244.5046650959725127
 30
0.0
 40
0.0177165354
 50
0.0
 51
48.1705111447091809
  0
ARC
  5
11095
  8
0
 10
3970.6693978397797764
 20
244.0568576471725066
 30
0.0
 40
0.0118110236
 50
180.0
 51
270.0
  0
ARC
  5
11096
  8
0
 10
3970.7323917485800848
 20
244.0568576471725066
 30
0.0
 40
0.0118110236
 50
270.0
 51
0.0
  0
ARC
  5
11097
  8
0
 10
3970.7323917485800848
 20
244.9781285725725013
 30
0.0
 40
0.0118110236
 50
0.0
 51
90.0
  0
ARC
  5
11098
  8
0
 10
3970.6693978397797764
 20
244.9781285725725013
 30
0.0
 40
0.0118110236
 50
90.0
 51
180.0
  0
ARC
  5
11099
  8
0
 10
3970.6457757925800252
 20
244.8993884150723943
 30
0.0
 40
0.0118110236
 50
300.0013737529060904
 51
0.0
  0
ARC
  5
1109A
  8
0
 10
3970.6418387846788391
 20
244.9781285725725013
 30
0.0
 40
0.0118110236
 50
0.0
 51
89.9999999992965058
  0
ARC
  5
1109B
  8
0
 10
3967.9630863811357813
 20
200.508736997322103
 30
0.0
 40
0.2218228183864043
 50
92.3738355013229153
 51
124.7489384055934067
  0
ARC
  5
1109C
  8
0
 10
3967.9478385691231779
 20
210.8278525955846021
 30
0.0
 40
0.1763274619014657
 50
230.9076892457480881
 51
271.9695367594964068
  0
ENDSEC
  0
EOF
