  0
SECTION
  2
HEADER
  9
$ACADVER
  1
AC1009
  9
$INSBASE
 10
3925.7902026278370613
 20
168.8988070246900861
 30
0.0
  9
$EXTMIN
 10
3904.4946411293399251
 20
168.8898089943297123
 30
-0.0015258207003583
  9
$EXTMAX
 10
3947.1889130388290141
 20
247.7193346829155018
 30
0.0000000349246037
  9
$LIMMIN
 10
0.0
 20
0.0
  9
$LIMMAX
 10
11.6929133858000007
 20
8.2677165353999982
  9
$ORTHOMODE
 70
     0
  9
$REGENMODE
 70
     1
  9
$FILLMODE
 70
     1
  9
$QTEXTMODE
 70
     0
  9
$MIRRTEXT
 70
     0
  9
$DRAGMODE
 70
     2
  9
$LTSCALE
 40
0.6431102362
  9
$OSMODE
 70
  4095
  9
$ATTMODE
 70
     1
  9
$TEXTSIZE
 40
0.2
  9
$TRACEWID
 40
0.05
  9
$TEXTSTYLE
  7
STANDARD
  9
$CLAYER
  8
0
  9
$CELTYPE
  6
BYLAYER
  9
$CECOLOR
 62
   256
  9
$DIMSCALE
 40
1.0
  9
$DIMASZ
 40
0.1875
  9
$DIMEXO
 40
0.0625
  9
$DIMDLI
 40
0.4443307087
  9
$DIMRND
 40
0.0
  9
$DIMDLE
 40
0.0
  9
$DIMEXE
 40
0.125
  9
$DIMTP
 40
0.01
  9
$DIMTM
 40
0.01
  9
$DIMTXT
 40
2.0
  9
$DIMCEN
 40
0.1052362205
  9
$DIMTSZ
 40
0.0
  9
$DIMTOL
 70
     1
  9
$DIMLIM
 70
     0
  9
$DIMTIH
 70
     1
  9
$DIMTOH
 70
     1
  9
$DIMSE1
 70
     0
  9
$DIMSE2
 70
     0
  9
$DIMTAD
 70
     0
  9
$DIMZIN
 70
     0
  9
$DIMBLK
  1

  9
$DIMASO
 70
     1
  9
$DIMSHO
 70
     1
  9
$DIMPOST
  1
\X
  9
$DIMAPOST
  1

  9
$DIMALT
 70
     1
  9
$DIMALTD
 70
     2
  9
$DIMALTF
 40
25.3999999999999986
  9
$DIMLFAC
 40
1.0
  9
$DIMTOFL
 70
     0
  9
$DIMTVP
 40
0.0
  9
$DIMTIX
 70
     0
  9
$DIMSOXD
 70
     0
  9
$DIMSAH
 70
     0
  9
$DIMBLK1
  1

  9
$DIMBLK2
  1

  9
$DIMSTYLE
  2
STANDARD
  9
$DIMCLRD
 70
     0
  9
$DIMCLRE
 70
     0
  9
$DIMCLRT
 70
     0
  9
$DIMTFAC
 40
1.0
  9
$DIMGAP
 40
0.09
  9
$LUNITS
 70
     2
  9
$LUPREC
 70
     4
  9
$SKETCHINC
 40
0.1
  9
$FILLETRAD
 40
0.0
  9
$AUNITS
 70
     0
  9
$AUPREC
 70
     0
  9
$MENU
  1
.
  9
$ELEVATION
 40
0.0
  9
$PELEVATION
 40
0.0
  9
$THICKNESS
 40
0.0
  9
$LIMCHECK
 70
     0
  9
$BLIPMODE
 70
     0
  9
$CHAMFERA
 40
0.0
  9
$CHAMFERB
 40
0.0
  9
$SKPOLY
 70
     0
  9
$TDCREATE
 40
2458060.468368056230247
  9
$TDUPDATE
 40
2459507.7157175932079554
  9
$TDINDWG
 40
0.7346482639
  9
$TDUSRTIMER
 40
0.7346482639
  9
$USRTIMER
 70
     1
  9
$ANGBASE
 50
0.0
  9
$ANGDIR
 70
     0
  9
$PDMODE
 70
     0
  9
$PDSIZE
 40
0.3125
  9
$PLINEWID
 40
0.0
  9
$COORDS
 70
     1
  9
$SPLFRAME
 70
     0
  9
$SPLINETYPE
 70
     6
  9
$SPLINESEGS
 70
     8
  9
$ATTDIA
 70
     1
  9
$ATTREQ
 70
     1
  9
$HANDLING
 70
     1
  9
$HANDSEED
  5
10FB7
  9
$SURFTAB1
 70
     6
  9
$SURFTAB2
 70
     6
  9
$SURFTYPE
 70
     6
  9
$SURFU
 70
     6
  9
$SURFV
 70
     6
  9
$UCSNAME
  2

  9
$UCSORG
 10
0.0
 20
0.0
 30
0.0
  9
$UCSXDIR
 10
1.0
 20
0.0
 30
0.0
  9
$UCSYDIR
 10
0.0
 20
1.0
 30
0.0
  9
$PUCSNAME
  2

  9
$PUCSORG
 10
0.0
 20
0.0
 30
0.0
  9
$PUCSXDIR
 10
1.0
 20
0.0
 30
0.0
  9
$PUCSYDIR
 10
0.0
 20
1.0
 30
0.0
  9
$USERI1
 70
     0
  9
$USERI2
 70
     0
  9
$USERI3
 70
     0
  9
$USERI4
 70
     0
  9
$USERI5
 70
     0
  9
$USERR1
 40
0.0
  9
$USERR2
 40
0.0
  9
$USERR3
 40
0.0
  9
$USERR4
 40
0.0
  9
$USERR5
 40
0.0
  9
$WORLDVIEW
 70
     1
  9
$SHADEDGE
 70
     3
  9
$SHADEDIF
 70
    70
  9
$TILEMODE
 70
     1
  9
$MAXACTVP
 70
    64
  9
$PLIMCHECK
 70
     0
  9
$PEXTMIN
 10
1.0000000000000000E+20
 20
1.0000000000000000E+20
 30
1.0000000000000000E+20
  9
$PEXTMAX
 10
-1.0000000000000000E+20
 20
-1.0000000000000000E+20
 30
-1.0000000000000000E+20
  9
$PLIMMIN
 10
0.0
 20
0.0
  9
$PLIMMAX
 10
12.0
 20
9.0
  9
$UNITMODE
 70
     0
  9
$VISRETAIN
 70
     1
  9
$PLINEGEN
 70
     0
  9
$PSLTSCALE
 70
     1
  0
ENDSEC
  0
SECTION
  2
TABLES
  0
TABLE
  2
VPORT
 70
     1
  0
VPORT
  2
*ACTIVE
 70
     0
 10
0.0
 20
0.0
 11
1.0
 21
1.0
 12
281.7659714200216854
 22
48.3603313388249774
 13
0.0
 23
0.0
 14
1.0
 24
1.0
 15
0.0
 25
0.0
 16
0.0
 26
0.0
 36
26.6346482412083887
 17
3644.0758056640620453
 27
159.9442404997975871
 37
0.0
 40
79.538636864195297
 41
2.8393393393393391
 42
50.0
 43
0.0
 44
0.0
 50
0.0
 51
0.0
 71
     0
 72
   100
 73
     1
 74
     1
 75
     0
 76
     0
 77
     0
 78
     0
  0
ENDTAB
  0
TABLE
  2
LTYPE
 70
     2
  0
LTYPE
  2
CONTINUOUS
 70
     0
  3
Solid line
 72
    65
 73
     0
 40
0.0
  0
LTYPE
  2
PHANTOM2
 70
     0
  3
___ _ _ ___ _ _ ___ _ _ ___ _ _
 72
    65
 73
     6
 40
1.25
 49
0.625
 49
-0.125
 49
0.125
 49
-0.125
 49
0.125
 49
-0.125
  0
ENDTAB
  0
TABLE
  2
LAYER
 70
     2
  0
LAYER
  2
0
 70
     0
 62
   255
  6
CONTINUOUS
  0
LAYER
  2
DEFPOINTS
 70
     0
 62
     7
  6
CONTINUOUS
  0
ENDTAB
  0
TABLE
  2
STYLE
 70
     1
  0
STYLE
  2
STANDARD
 70
     0
 40
0.0
 41
0.8
 50
0.0
 71
     0
 42
0.2
  3
txt
  4

  0
ENDTAB
  0
TABLE
  2
VIEW
 70
     0
  0
ENDTAB
  0
TABLE
  2
UCS
 70
     0
  0
ENDTAB
  0
TABLE
  2
APPID
 70
    10
  0
APPID
  2
ACAD
 70
     0
  0
APPID
  2
ACAD_MLEADERVER
 70
     0
  0
APPID
  2
ACAD_EXEMPT_FROM_CAD_STANDARDS
 70
     0
  0
APPID
  2
ACAD_NAV_VCDISPLAY
 70
     0
  0
APPID
  2
ACAECLAYERSTANDARD
 70
     0
  0
APPID
  2
ACCMTRANSPARENCY
 70
     0
  0
APPID
  2
ACAD_DSTYLE_DIMJAG
 70
     0
  0
APPID
  2
ACAD_DSTYLE_DIMTALN
 70
     0
  0
APPID
  2
ACDBATTR
 70
     0
  0
APPID
  2
ACAD_PSEXT
 70
     0
  0
ENDTAB
  0
TABLE
  2
DIMSTYLE
 70
     1
  0
DIMSTYLE
  2
STANDARD
 70
     0
  3

  4

  5

  6

  7

 40
1.0
 41
0.1875
 42
0.0625
 43
0.38
 44
0.125
 45
0.0
 46
0.0
 47
0.01
 48
0.01
140
0.15625
141
0.09
142
0.0
143
25.3999999999999986
144
1.0
145
0.0
146
1.0
147
0.09
 71
     1
 72
     0
 73
     1
 74
     1
 75
     0
 76
     0
 77
     0
 78
     4
170
     0
171
     2
172
     0
173
     0
174
     0
175
     0
176
     0
177
     0
178
     0
  0
ENDTAB
  0
ENDSEC
  0
SECTION
  2
BLOCKS
  0
BLOCK
  8
0
  2
$MODEL_SPACE
 70
     0
 10
0.0
 20
0.0
 30
0.0
  3
$MODEL_SPACE
  1

  0
ENDBLK
  5
21
  8
0
  0
BLOCK
 67
     1
  8
0
  2
$PAPER_SPACE
 70
     0
 10
0.0
 20
0.0
 30
0.0
  3
$PAPER_SPACE
  1

  0
ENDBLK
  5
1D
 67
     1
  8
0
  0
ENDSEC
  0
SECTION
  2
ENTITIES
  0
ATTDEF
  5
AA11
  8
DEFPOINTS
 10
3925.7865935802001331
 20
168.904445521467494
 30
0.0
 40
0.001
  1
K-1.1922.015
  3

  2
MODELNUMBER
 70
     0
1001
ACDBATTR
1070
     0
1070
     1
  0
ATTDEF
  5
AA12
  8
DEFPOINTS
 10
3925.7865935802001331
 20
168.9027788548009141
 30
0.0
 40
0.001
  1

  3

  2
TRADENAME
 70
     0
1001
ACDBATTR
1070
     0
1070
     1
  0
ATTDEF
  5
AA13
  8
DEFPOINTS
 10
3925.7865935802001331
 20
168.9011121881341921
 30
0.0
 40
0.001
  1
SHOWER DOOR
  3

  2
PRODUCT
 70
     0
1001
ACDBATTR
1070
     0
1070
     1
  0
LINE
  5
10E21
  8
0
 10
3905.435820738037819
 20
169.2652322215901108
 30
0.0
 11
3905.3964506593379156
 21
169.3046023002902132
 31
0.0
  0
LINE
  5
10E22
  8
0
 10
3904.5304506593379301
 20
168.8988070246900861
 30
0.0
 11
3947.0499545963380115
 21
168.8988070246900861
 31
0.0
  0
LINE
  5
10E23
  8
0
 10
3908.7625530215382241
 20
168.9775471821901078
 30
0.0
 11
3909.3137341238380031
 21
168.9775471821901078
 31
0.0
  0
LINE
  5
10E24
  8
0
 10
3908.7625530215382241
 20
169.0366023002900988
 30
0.0
 11
3909.3137341238380031
 21
169.0366023002900988
 31
0.0
  0
LINE
  5
10E25
  8
0
 10
3927.5972380609377979
 20
169.265114111290103
 30
0.0
 11
3927.8413369796380721
 21
169.265114111290103
 31
0.0
  0
LINE
  5
10E26
  8
0
 10
3905.435820738037819
 20
169.2652322215901108
 30
0.0
 11
3905.6327904435379423
 21
169.2652322215901108
 31
0.0
  0
LINE
  5
10E27
  8
0
 10
3906.4201844965377859
 20
169.2652322215901108
 30
0.0
 11
3925.0621986908381587
 21
169.2652322215901108
 31
0.0
  0
LINE
  5
10E28
  8
0
 10
3925.9283404231368877
 20
169.2652322215901108
 30
0.0
 11
3927.5972380609377979
 21
169.2652322215901108
 31
0.0
  0
LINE
  5
10E29
  8
0
 10
3927.5972380609377979
 20
169.3046023002902132
 30
0.0
 11
3925.9283404231368877
 21
169.3046023002902132
 31
0.0
  0
LINE
  5
10E2A
  8
0
 10
3925.0621986908381587
 20
169.3046023002902132
 30
0.0
 11
3906.4201844472381708
 21
169.3046023002902132
 31
0.0
  0
LINE
  5
10E2B
  8
0
 10
3905.6327904435379423
 20
169.3046023002902132
 30
0.0
 11
3905.435820738037819
 21
169.3046023002902132
 31
0.0
  0
LINE
  5
10E2C
  8
0
 10
3905.6524904435382268
 20
169.5011692293902001
 30
0.0
 11
3906.4004839357530727
 21
169.5011692293902001
 31
0.0
  0
ARC
  5
10E2D
  8
0
 10
3905.6524904435382268
 20
169.4814692293901999
 30
0.0
 40
0.0197
 50
90.0
 51
180.0
  0
LINE
  5
10E2E
  8
0
 10
3927.84133254913786
 20
169.5011692293902001
 30
0.0
 11
3945.475151446737982
 21
169.5011692293902001
 31
0.0
  0
LINE
  5
10E2F
  8
0
 10
3925.9086553837378233
 20
169.5740038750901988
 30
0.0
 11
3925.0818837302381326
 21
169.5740038750901988
 31
0.0
  0
LINE
  5
10E30
  8
0
 10
3905.3570805805379678
 20
169.580444819990106
 30
0.0
 11
3905.6155293994370368
 21
169.580444819990106
 31
0.0
  0
LINE
  5
10E31
  8
0
 10
3904.5304506593379301
 20
168.8988070246900861
 30
0.0
 11
3904.5304506593379301
 21
246.6468496036902138
 31
0.0
  0
LINE
  5
10E32
  8
0
 10
3904.5304506592378857
 20
246.6468496036902138
 30
0.0
 11
3904.5304506592378857
 21
247.6783456666900918
 31
0.0
  0
LINE
  5
10E33
  8
0
 10
3905.3570805805379678
 20
169.580444819990106
 30
0.0
 11
3905.3570805805379678
 21
246.430838520790104
 31
0.0
  0
LINE
  5
10E34
  8
0
 10
3905.3964506593379156
 20
246.6074795248902092
 30
0.0
 11
3905.3964506593379156
 21
246.430838520790104
 31
0.0
  0
LINE
  5
10E35
  8
0
 10
3905.3964506593379156
 20
169.580444819990106
 30
0.0
 11
3905.3964506593379156
 21
169.3046023002902132
 31
0.0
  0
LINE
  5
10E36
  8
0
 10
3905.435820738037819
 20
169.3046023002902132
 30
0.0
 11
3905.435820738037819
 21
169.580444819990106
 31
0.0
  0
LINE
  5
10E37
  8
0
 10
3905.435820738037819
 20
246.430838520790104
 30
0.0
 11
3905.435820738037819
 21
246.6074795248902092
 31
0.0
  0
LINE
  5
10E38
  8
0
 10
3905.6155293994370368
 20
246.430838520790104
 30
0.0
 11
3905.6155293994370368
 21
169.580444819990106
 31
0.0
  0
LINE
  5
10E39
  8
0
 10
3905.6327904435379423
 20
168.8988070246900861
 30
0.0
 11
3905.6327904435379423
 21
169.4814692293901999
 31
0.0
  0
LINE
  5
10E3A
  8
0
 10
3906.1052538089379595
 20
247.6783456666900918
 30
0.0
 11
3906.1052538089379595
 21
246.6468496036902138
 31
0.0
  0
LINE
  5
10E3B
  8
0
 10
3906.4201839357529025
 20
169.4814692494188932
 30
0.0
 11
3906.4201845281381793
 21
168.8988070246900861
 31
0.0
  0
ARC
  5
10E3C
  8
0
 10
3906.4004839357530727
 20
169.4814692293901999
 30
0.0
 40
0.0197
 50
0.0000582518445386
 51
90.0
  0
LINE
  5
10E3D
  8
0
 10
3907.5618049900381266
 20
202.7101141112902098
 30
0.0
 11
3907.5618049900381266
 21
213.9699566309901968
 31
0.0
  0
LINE
  5
10E3E
  8
0
 10
3908.3492065648379139
 20
202.7101141112902098
 30
0.0
 11
3908.3492065648379139
 21
213.9699566309901968
 31
0.0
  0
LINE
  5
10E3F
  8
0
 10
3908.6838128640370087
 20
169.2652322215901108
 30
0.0
 11
3908.6838128640370087
 21
169.1153424577902058
 31
0.0
  0
LINE
  5
10E40
  8
0
 10
3909.3924742813378543
 20
169.1153424577902058
 30
0.0
 11
3909.3924742813378543
 21
169.2652322215901108
 31
0.0
  0
LINE
  5
10E41
  8
0
 10
3907.6011750689381188
 20
202.6707440325901075
 30
0.0
 11
3908.3098364859370122
 21
202.6707440325901075
 31
0.0
  0
LINE
  5
10E42
  8
0
 10
3913.9321979626370194
 20
247.6389755878902008
 30
0.0
 11
3913.9321979626370194
 21
247.6481702725901926
 31
0.0
  0
LINE
  5
10E43
  8
0
 10
3914.3881836708378614
 20
247.6389755878902008
 30
0.0
 11
3914.3881836708378614
 21
247.6481702725901926
 31
0.0
  0
LINE
  5
10E44
  8
0
 10
3925.0621986908381587
 20
168.8988070246900861
 30
0.0
 11
3925.0621986908381587
 21
169.5543188356901112
 31
0.0
  0
LINE
  5
10E45
  8
0
 10
3925.9283404231368877
 20
169.5543188356901112
 30
0.0
 11
3925.9283404231368877
 21
168.8988070246900861
 31
0.0
  0
LINE
  5
10E46
  8
0
 10
3927.5972380609377979
 20
169.265114111290103
 30
0.0
 11
3927.5972380609377979
 21
246.4698385207902049
 31
0.0
  0
LINE
  5
10E47
  8
0
 10
3927.7586553837381871
 20
246.6940936981901018
 30
0.0
 11
3927.7586553837381871
 21
246.4698385207902049
 31
0.0
  0
LINE
  5
10E48
  8
0
 10
3927.7980254625381349
 20
246.6940936981901018
 30
0.0
 11
3927.7980254625381349
 21
246.4698385207902049
 31
0.0
  0
LINE
  5
10E49
  8
0
 10
3927.84133254913786
 20
246.4698385207902049
 30
0.0
 11
3927.84133254913786
 21
169.265114111290103
 31
0.0
  0
LINE
  5
10E4A
  8
0
 10
3905.4161356986378451
 20
169.2849172608900972
 30
0.0
 11
3905.435820738037819
 21
169.3046023002902132
 31
0.0
  0
LINE
  5
10E4B
  8
0
 10
3908.3098364859370122
 20
214.0093267096902139
 30
0.0
 11
3907.6011750689381188
 21
214.0093267096902139
 31
0.0
  0
LINE
  5
10E4C
  8
0
 10
3945.4635616334380757
 20
169.5011692293902001
 30
0.0
 11
3945.4635616334380757
 21
246.6940936981901018
 31
0.0
  0
LINE
  5
10E4D
  8
0
 10
3945.475151446737982
 20
168.8988070246900861
 30
0.0
 11
3945.475151446737982
 21
246.6271645642900978
 31
0.0
  0
LINE
  5
10E4E
  8
0
 10
3945.4751514466379376
 20
246.6271645642900978
 30
0.0
 11
3945.4751514466379376
 21
247.6783456666900918
 31
0.0
  0
LINE
  5
10E4F
  8
0
 10
3947.0499545962379671
 20
247.6783456666900918
 30
0.0
 11
3947.0499545962379671
 21
246.6271645642900978
 31
0.0
  0
LINE
  5
10E50
  8
0
 10
3947.0499545963380115
 20
246.6271645642900978
 30
0.0
 11
3947.0499545963380115
 21
168.8988070246900861
 31
0.0
  0
LINE
  5
10E51
  8
0
 10
3913.9426429411378194
 20
247.659902032890102
 30
0.0
 11
3914.1601908167381225
 21
247.6744086587900995
 31
0.0
  0
LINE
  5
10E52
  8
0
 10
3905.6155293994370368
 20
246.430838520790104
 30
0.0
 11
3905.3570805805379678
 21
246.430838520790104
 31
0.0
  0
LINE
  5
10E53
  8
0
 10
3927.8413369796380721
 20
246.4698385207902049
 30
0.0
 11
3927.5972380609377979
 21
246.4698385207902049
 31
0.0
  0
LINE
  5
10E54
  8
0
 10
3906.0658837301380117
 20
246.6074795248902092
 30
0.0
 11
3904.5698207380378335
 21
246.6074795248902092
 31
0.0
  0
LINE
  5
10E55
  8
0
 10
3945.4948364860379115
 20
246.6074795249901115
 30
0.0
 11
3947.0302695569380376
 21
246.6074795249901115
 31
0.0
  0
LINE
  5
10E56
  8
0
 10
3945.4751514466379376
 20
246.6940936981901018
 30
0.0
 11
3906.1052538089379595
 21
246.6940936981901018
 31
0.0
  0
LINE
  5
10E57
  8
0
 10
3906.1052538089379595
 20
247.6389755878902008
 30
0.0
 11
3945.4751514466379376
 21
247.6389755878902008
 31
0.0
  0
LINE
  5
10E58
  8
0
 10
3904.5698207380378335
 20
247.7177157453901089
 30
0.0
 11
3906.0658837301380117
 21
247.7177157453901089
 31
0.0
  0
LINE
  5
10E59
  8
0
 10
3945.5145215254387949
 20
247.7177157453901089
 30
0.0
 11
3947.0105845175380637
 21
247.7177157453901089
 31
0.0
  0
LINE
  5
10E5A
  8
0
 10
3914.3777386923370614
 20
247.659902032890102
 30
0.0
 11
3914.1601908167381225
 21
247.6744086587900995
 31
0.0
  0
ARC
  5
10E5B
  8
0
 10
3909.3137341238380031
 20
168.8988070246900861
 30
0.0
 40
0.0787401575
 50
0.0
 51
90.0000000001042082
  0
ARC
  5
10E5C
  8
0
 10
3908.7625530215382241
 20
168.8988070246900861
 30
0.0
 40
0.0787401575
 50
89.9999999998957776
 51
180.0
  0
ARC
  5
10E5D
  8
0
 10
3908.7625530215382241
 20
169.1153424577902058
 30
0.0
 40
0.0787401575
 50
180.0
 51
270.0
  0
ARC
  5
10E5E
  8
0
 10
3909.3137341238380031
 20
169.1153424577902058
 30
0.0
 40
0.0787401575
 50
270.0
 51
0.0
  0
ARC
  5
10E5F
  8
0
 10
3908.3098364860379661
 20
202.7101141112902098
 30
0.0
 40
0.0393700787
 50
270.0
 51
0.0
  0
ARC
  5
10E60
  8
0
 10
3907.6011750687380299
 20
202.7101141112902098
 30
0.0
 40
0.0393700787
 50
180.0
 51
270.0
  0
ARC
  5
10E61
  8
0
 10
3925.0818837302381326
 20
169.5543188356901112
 30
0.0
 40
0.0196850394
 50
89.9999999998957776
 51
180.0
  0
ARC
  5
10E62
  8
0
 10
3904.5698207380378335
 20
247.6783456666900918
 30
0.0
 40
0.0393700787
 50
90.0
 51
180.0
  0
ARC
  5
10E63
  8
0
 10
3904.5698207380378335
 20
246.6468496036902138
 30
0.0
 40
0.0393700787
 50
180.0
 51
270.0
  0
ARC
  5
10E64
  8
0
 10
3906.0658837301380117
 20
247.6783456666900918
 30
0.0
 40
0.0393700787
 50
0.0
 51
90.0
  0
ARC
  5
10E65
  8
0
 10
3906.0658837301380117
 20
246.6468496036902138
 30
0.0
 40
0.0393700787
 50
269.9999999996090878
 51
359.9999999997996838
  0
ARC
  5
10E66
  8
0
 10
3908.3098364860379661
 20
213.9699566309901968
 30
0.0
 40
0.0393700787
 50
0.0
 51
90.0
  0
ARC
  5
10E67
  8
0
 10
3907.6011750687380299
 20
213.9699566309901968
 30
0.0
 40
0.0393700787
 50
90.0
 51
180.0
  0
ARC
  5
10E68
  8
0
 10
3914.3763726472379858
 20
247.6481702725901926
 30
0.0
 40
0.0118110236
 50
0.0
 51
83.3583929154040959
  0
ARC
  5
10E69
  8
0
 10
3913.9440089862378045
 20
247.6481702725901926
 30
0.0
 40
0.0118110236
 50
96.6416070845959041
 51
180.0
  0
ARC
  5
10E6A
  8
0
 10
3925.9086553837378233
 20
169.5543188356901112
 30
0.0
 40
0.0196850394
 50
0.0
 51
90.0
  0
ARC
  5
10E6B
  8
0
 10
3947.0105845175380637
 20
247.6783456666900918
 30
0.0
 40
0.0393700787
 50
0.0
 51
90.0
  0
ARC
  5
10E6C
  8
0
 10
3945.5145215254387949
 20
247.6783456666900918
 30
0.0
 40
0.0393700787
 50
90.0
 51
180.0
  0
ARC
  5
10E6D
  8
0
 10
3945.4948364860379115
 20
246.6271645642900978
 30
0.0
 40
0.0196850394
 50
180.0000000007995027
 51
269.9999999935903929
  0
ARC
  5
10E6E
  8
0
 10
3947.0302695569380376
 20
246.6271645642900978
 30
0.0
 40
0.0196850394
 50
270.0000000070087935
 51
359.9999999998998987
  0
ENDSEC
  0
EOF
