  0
SECTION
  2
HEADER
  9
$ACADVER
  1
AC1009
  9
$INSBASE
 10
4011.3090026384297744
 20
164.3169413351199921
 30
0.0
  9
$EXTMIN
 10
3994.118252498739821
 20
164.3012846841074008
 30
-0.0000000000112498
  9
$EXTMAX
 10
4028.3035872467198715
 20
243.128374948416905
 30
0.0000000000002956
  9
$LIMMIN
 10
0.0
 20
0.0
  9
$LIMMAX
 10
11.6929133858000007
 20
8.2677165353999982
  9
$ORTHOMODE
 70
     0
  9
$REGENMODE
 70
     1
  9
$FILLMODE
 70
     1
  9
$QTEXTMODE
 70
     0
  9
$MIRRTEXT
 70
     0
  9
$DRAGMODE
 70
     2
  9
$LTSCALE
 40
0.6431102362
  9
$OSMODE
 70
  4095
  9
$ATTMODE
 70
     1
  9
$TEXTSIZE
 40
0.2
  9
$TRACEWID
 40
0.05
  9
$TEXTSTYLE
  7
STANDARD
  9
$CLAYER
  8
0
  9
$CELTYPE
  6
BYLAYER
  9
$CECOLOR
 62
   256
  9
$DIMSCALE
 40
1.0
  9
$DIMASZ
 40
0.1875
  9
$DIMEXO
 40
0.0625
  9
$DIMDLI
 40
0.4443307087
  9
$DIMRND
 40
0.0
  9
$DIMDLE
 40
0.0
  9
$DIMEXE
 40
0.125
  9
$DIMTP
 40
0.01
  9
$DIMTM
 40
0.01
  9
$DIMTXT
 40
2.0
  9
$DIMCEN
 40
0.1052362205
  9
$DIMTSZ
 40
0.0
  9
$DIMTOL
 70
     1
  9
$DIMLIM
 70
     0
  9
$DIMTIH
 70
     1
  9
$DIMTOH
 70
     1
  9
$DIMSE1
 70
     0
  9
$DIMSE2
 70
     0
  9
$DIMTAD
 70
     0
  9
$DIMZIN
 70
     0
  9
$DIMBLK
  1

  9
$DIMASO
 70
     1
  9
$DIMSHO
 70
     1
  9
$DIMPOST
  1
\X
  9
$DIMAPOST
  1

  9
$DIMALT
 70
     1
  9
$DIMALTD
 70
     2
  9
$DIMALTF
 40
25.3999999999999986
  9
$DIMLFAC
 40
1.0
  9
$DIMTOFL
 70
     0
  9
$DIMTVP
 40
0.0
  9
$DIMTIX
 70
     0
  9
$DIMSOXD
 70
     0
  9
$DIMSAH
 70
     0
  9
$DIMBLK1
  1

  9
$DIMBLK2
  1

  9
$DIMSTYLE
  2
STANDARD
  9
$DIMCLRD
 70
     0
  9
$DIMCLRE
 70
     0
  9
$DIMCLRT
 70
     0
  9
$DIMTFAC
 40
1.0
  9
$DIMGAP
 40
0.09
  9
$LUNITS
 70
     2
  9
$LUPREC
 70
     4
  9
$SKETCHINC
 40
0.1
  9
$FILLETRAD
 40
0.0
  9
$AUNITS
 70
     0
  9
$AUPREC
 70
     0
  9
$MENU
  1
.
  9
$ELEVATION
 40
0.0
  9
$PELEVATION
 40
0.0
  9
$THICKNESS
 40
0.0
  9
$LIMCHECK
 70
     0
  9
$BLIPMODE
 70
     0
  9
$CHAMFERA
 40
0.0
  9
$CHAMFERB
 40
0.0
  9
$SKPOLY
 70
     0
  9
$TDCREATE
 40
2458060.468368056230247
  9
$TDUPDATE
 40
2459507.6021643518470228
  9
$TDINDWG
 40
0.7390232638999999
  9
$TDUSRTIMER
 40
0.7390232638999999
  9
$USRTIMER
 70
     1
  9
$ANGBASE
 50
0.0
  9
$ANGDIR
 70
     0
  9
$PDMODE
 70
     0
  9
$PDSIZE
 40
0.3125
  9
$PLINEWID
 40
0.0
  9
$COORDS
 70
     1
  9
$SPLFRAME
 70
     0
  9
$SPLINETYPE
 70
     6
  9
$SPLINESEGS
 70
     8
  9
$ATTDIA
 70
     1
  9
$ATTREQ
 70
     1
  9
$HANDLING
 70
     1
  9
$HANDSEED
  5
1115A
  9
$SURFTAB1
 70
     6
  9
$SURFTAB2
 70
     6
  9
$SURFTYPE
 70
     6
  9
$SURFU
 70
     6
  9
$SURFV
 70
     6
  9
$UCSNAME
  2

  9
$UCSORG
 10
0.0
 20
0.0
 30
0.0
  9
$UCSXDIR
 10
1.0
 20
0.0
 30
0.0
  9
$UCSYDIR
 10
0.0
 20
1.0
 30
0.0
  9
$PUCSNAME
  2

  9
$PUCSORG
 10
0.0
 20
0.0
 30
0.0
  9
$PUCSXDIR
 10
1.0
 20
0.0
 30
0.0
  9
$PUCSYDIR
 10
0.0
 20
1.0
 30
0.0
  9
$USERI1
 70
     0
  9
$USERI2
 70
     0
  9
$USERI3
 70
     0
  9
$USERI4
 70
     0
  9
$USERI5
 70
     0
  9
$USERR1
 40
0.0
  9
$USERR2
 40
0.0
  9
$USERR3
 40
0.0
  9
$USERR4
 40
0.0
  9
$USERR5
 40
0.0
  9
$WORLDVIEW
 70
     1
  9
$SHADEDGE
 70
     3
  9
$SHADEDIF
 70
    70
  9
$TILEMODE
 70
     1
  9
$MAXACTVP
 70
    64
  9
$PLIMCHECK
 70
     0
  9
$PEXTMIN
 10
1.0000000000000000E+20
 20
1.0000000000000000E+20
 30
1.0000000000000000E+20
  9
$PEXTMAX
 10
-1.0000000000000000E+20
 20
-1.0000000000000000E+20
 30
-1.0000000000000000E+20
  9
$PLIMMIN
 10
0.0
 20
0.0
  9
$PLIMMAX
 10
12.0
 20
9.0
  9
$UNITMODE
 70
     0
  9
$VISRETAIN
 70
     1
  9
$PLINEGEN
 70
     0
  9
$PSLTSCALE
 70
     1
  0
ENDSEC
  0
SECTION
  2
TABLES
  0
TABLE
  2
VPORT
 70
     1
  0
VPORT
  2
*ACTIVE
 70
     0
 10
0.0
 20
0.0
 11
1.0
 21
1.0
 12
367.135114208667801
 22
43.7705893164644735
 13
0.0
 23
0.0
 14
1.0
 24
1.0
 15
0.0
 25
0.0
 16
0.0
 26
0.0
 36
26.6346482412083887
 17
3644.0758056640620453
 27
159.9442404997975871
 37
0.0
 40
79.5638668320791567
 41
2.8393393393393391
 42
50.0
 43
0.0
 44
0.0
 50
0.0
 51
0.0
 71
     0
 72
   100
 73
     1
 74
     1
 75
     0
 76
     0
 77
     0
 78
     0
  0
ENDTAB
  0
TABLE
  2
LTYPE
 70
     2
  0
LTYPE
  2
CONTINUOUS
 70
     0
  3
Solid line
 72
    65
 73
     0
 40
0.0
  0
LTYPE
  2
PHANTOM2
 70
     0
  3
___ _ _ ___ _ _ ___ _ _ ___ _ _
 72
    65
 73
     6
 40
1.25
 49
0.625
 49
-0.125
 49
0.125
 49
-0.125
 49
0.125
 49
-0.125
  0
ENDTAB
  0
TABLE
  2
LAYER
 70
     2
  0
LAYER
  2
0
 70
     0
 62
   255
  6
CONTINUOUS
  0
LAYER
  2
DEFPOINTS
 70
     0
 62
     7
  6
CONTINUOUS
  0
ENDTAB
  0
TABLE
  2
STYLE
 70
     1
  0
STYLE
  2
STANDARD
 70
     0
 40
0.0
 41
0.8
 50
0.0
 71
     0
 42
0.2
  3
txt
  4

  0
ENDTAB
  0
TABLE
  2
VIEW
 70
     0
  0
ENDTAB
  0
TABLE
  2
UCS
 70
     0
  0
ENDTAB
  0
TABLE
  2
APPID
 70
    10
  0
APPID
  2
ACAD
 70
     0
  0
APPID
  2
ACAD_MLEADERVER
 70
     0
  0
APPID
  2
ACAD_EXEMPT_FROM_CAD_STANDARDS
 70
     0
  0
APPID
  2
ACAD_NAV_VCDISPLAY
 70
     0
  0
APPID
  2
ACAECLAYERSTANDARD
 70
     0
  0
APPID
  2
ACCMTRANSPARENCY
 70
     0
  0
APPID
  2
ACAD_DSTYLE_DIMJAG
 70
     0
  0
APPID
  2
ACAD_DSTYLE_DIMTALN
 70
     0
  0
APPID
  2
ACDBATTR
 70
     0
  0
APPID
  2
ACAD_PSEXT
 70
     0
  0
ENDTAB
  0
TABLE
  2
DIMSTYLE
 70
     1
  0
DIMSTYLE
  2
STANDARD
 70
     0
  3

  4

  5

  6

  7

 40
1.0
 41
0.1875
 42
0.0625
 43
0.38
 44
0.125
 45
0.0
 46
0.0
 47
0.01
 48
0.01
140
0.15625
141
0.09
142
0.0
143
25.3999999999999986
144
1.0
145
0.0
146
1.0
147
0.09
 71
     1
 72
     0
 73
     1
 74
     1
 75
     0
 76
     0
 77
     0
 78
     4
170
     0
171
     2
172
     0
173
     0
174
     0
175
     0
176
     0
177
     0
178
     0
  0
ENDTAB
  0
ENDSEC
  0
SECTION
  2
BLOCKS
  0
BLOCK
  8
0
  2
$MODEL_SPACE
 70
     0
 10
0.0
 20
0.0
 30
0.0
  3
$MODEL_SPACE
  1

  0
ENDBLK
  5
21
  8
0
  0
BLOCK
 67
     1
  8
0
  2
$PAPER_SPACE
 70
     0
 10
0.0
 20
0.0
 30
0.0
  3
$PAPER_SPACE
  1

  0
ENDBLK
  5
1D
 67
     1
  8
0
  0
ENDSEC
  0
SECTION
  2
ENTITIES
  0
ATTDEF
  5
AA11
  8
DEFPOINTS
 10
4011.3042525665941866
 20
164.3216519972176002
 30
0.0
 40
0.001
  1
K-1.1922.014
  3

  2
MODELNUMBER
 70
     0
1001
ACDBATTR
1070
     0
1070
     1
  0
ATTDEF
  5
AA12
  8
DEFPOINTS
 10
4011.3042525665941866
 20
164.3199853305509066
 30
0.0
 40
0.001
  1

  3

  2
TRADENAME
 70
     0
1001
ACDBATTR
1070
     0
1070
     1
  0
ATTDEF
  5
AA13
  8
DEFPOINTS
 10
4011.3042525665941866
 20
164.318318663884213
 30
0.0
 40
0.001
  1
SHOWER DOOR
  3

  2
PRODUCT
 70
     0
1001
ACDBATTR
1070
     0
1070
     1
  0
LINE
  5
11039
  8
0
 10
4028.2284641450301024
 20
164.3169413351199921
 30
0.0
 11
3994.3895411318299011
 21
164.3169413351199921
 31
0.0
  0
LINE
  5
1103A
  8
0
 10
3994.3895411318299011
 20
164.9193035398199925
 30
0.0
 11
4026.6536609954300729
 21
164.9193035398199925
 31
0.0
  0
LINE
  5
1103B
  8
0
 10
3994.3698560924308367
 20
164.3366263744200069
 30
0.0
 11
3994.3698560924308367
 21
164.8996185004199901
 31
0.0
  0
LINE
  5
1103C
  8
0
 10
3994.4405980034312051
 20
164.3169413351199921
 30
0.0
 11
3994.4405980034312051
 21
242.8799334610199878
 31
0.0
  0
LINE
  5
1103D
  8
0
 10
4021.5158657200299785
 20
242.4350515712199865
 30
0.0
 11
4021.5158657200299785
 21
243.0374137760200028
 31
0.0
  0
LINE
  5
1103E
  8
0
 10
4026.6339759562288236
 20
243.0374137760200028
 30
0.0
 11
4026.6339759562288236
 21
242.4350515712199865
 31
0.0
  0
LINE
  5
1103F
  8
0
 10
4026.6536609954300729
 20
164.3169413350200045
 30
0.0
 11
4026.6536609954300729
 21
243.0374137760200028
 31
0.0
  0
LINE
  5
11040
  8
0
 10
4026.6536609954300729
 20
243.0374137760200028
 30
0.0
 11
4026.6536609954300729
 21
243.0964688941199938
 31
0.0
  0
LINE
  5
11041
  8
0
 10
4028.2166531214302267
 20
243.0964688941199938
 30
0.0
 11
4028.2166531214302267
 21
243.0374137760200028
 31
0.0
  0
LINE
  5
11042
  8
0
 10
4028.2284641451301468
 20
243.1161539334200086
 30
0.0
 11
4028.2284641451301468
 21
243.0374137760200028
 31
0.0
  0
LINE
  5
11043
  8
0
 10
4028.2284641450301024
 20
243.0374137760200028
 30
0.0
 11
4028.2284641450301024
 21
164.3169413351199921
 31
0.0
  0
LINE
  5
11044
  8
0
 10
4026.5552357987298819
 20
242.3563114138200092
 30
0.0
 11
4021.5946058774297853
 21
242.3563114138200092
 31
0.0
  0
LINE
  5
11045
  8
0
 10
3994.4405980034312051
 20
242.8799334610199878
 30
0.0
 11
4021.5158657200299785
 21
242.8799334610199878
 31
0.0
  0
LINE
  5
11046
  8
0
 10
4026.6339759562288236
 20
242.8799334610199878
 30
0.0
 11
4026.6536609955301174
 21
242.8799334610199878
 31
0.0
  0
LINE
  5
11047
  8
0
 10
4026.6536609958297959
 20
243.0315082641199922
 30
0.0
 11
4026.6339759562288236
 21
243.0315082641199922
 31
0.0
  0
LINE
  5
11048
  8
0
 10
4028.2284641450301024
 20
243.0374137760200028
 30
0.0
 11
4026.6536609954300729
 21
243.0374137760200028
 31
0.0
  0
LINE
  5
11049
  8
0
 10
4026.6536609954300729
 20
243.0374137760200028
 30
0.0
 11
4028.2121883944291767
 21
243.0374137760200028
 31
0.0
  0
LINE
  5
1104A
  8
0
 10
4021.5946058774297853
 20
243.1161539334200086
 30
0.0
 11
4028.2284641451301468
 21
243.1161539334200086
 31
0.0
  0
ARC
  5
1104B
  8
0
 10
4021.5946058774297853
 20
242.4350515713200025
 30
0.0
 40
0.0787401575
 50
180.00000001459901
 51
269.9999999756124112
  0
ARC
  5
1104C
  8
0
 10
4026.5552357987298819
 20
243.0374137759199868
 30
0.0
 40
0.0787401575
 50
0.0000000145990004
 51
89.9999999819959271
  0
ARC
  5
1104D
  8
0
 10
4026.5552357987298819
 20
242.4350515713200025
 30
0.0
 40
0.0787401575
 50
269.9999999984107149
 51
359.9999999853994268
  0
ARC
  5
1104E
  8
0
 10
4021.5946058774297853
 20
243.0374137759199868
 30
0.0
 40
0.0787401575
 50
90.0000000040906372
 51
179.9999999853993131
  0
ARC
  5
1104F
  8
0
 10
3994.3895411318299011
 20
164.8996185004199901
 30
0.0
 40
0.0196850394
 50
90.0
 51
180.0
  0
ARC
  5
11050
  8
0
 10
3994.3895411318299011
 20
164.3366263744200069
 30
0.0
 40
0.0196850394
 50
180.0
 51
270.0
  0
ARC
  5
11051
  8
0
 10
4026.6733460348291374
 20
243.0964688941199938
 30
0.0
 40
0.0196850394
 50
89.9606071242912435
 51
180.0
  0
ARC
  5
11052
  8
0
 10
4028.1969680825300202
 20
243.0964688941199938
 30
0.0
 40
0.0196850394
 50
0.0
 51
89.9999999905941053
  0
ENDSEC
  0
EOF
