  0
SECTION
  2
HEADER
  9
$ACADVER
  1
AC1009
  9
$INSBASE
 10
4000.5048184041011154
 20
170.3814700617901963
 30
0.0
  9
$EXTMIN
 10
4000.1170231290511765
 20
170.3814700617901963
 30
0.0
  9
$EXTMAX
 10
4005.4887554125498355
 20
249.1806826602903016
 30
0.0
  9
$LIMMIN
 10
0.0
 20
0.0
  9
$LIMMAX
 10
11.6929133858000007
 20
8.2677165353999982
  9
$ORTHOMODE
 70
     0
  9
$REGENMODE
 70
     1
  9
$FILLMODE
 70
     1
  9
$QTEXTMODE
 70
     0
  9
$MIRRTEXT
 70
     0
  9
$DRAGMODE
 70
     2
  9
$LTSCALE
 40
0.6431102362
  9
$OSMODE
 70
  4095
  9
$ATTMODE
 70
     1
  9
$TEXTSIZE
 40
0.2
  9
$TRACEWID
 40
0.05
  9
$TEXTSTYLE
  7
STANDARD
  9
$CLAYER
  8
0
  9
$CELTYPE
  6
BYLAYER
  9
$CECOLOR
 62
   256
  9
$DIMSCALE
 40
1.0
  9
$DIMASZ
 40
0.1875
  9
$DIMEXO
 40
0.0625
  9
$DIMDLI
 40
0.4443307087
  9
$DIMRND
 40
0.0
  9
$DIMDLE
 40
0.0
  9
$DIMEXE
 40
0.125
  9
$DIMTP
 40
0.01
  9
$DIMTM
 40
0.01
  9
$DIMTXT
 40
2.0
  9
$DIMCEN
 40
0.1052362205
  9
$DIMTSZ
 40
0.0
  9
$DIMTOL
 70
     1
  9
$DIMLIM
 70
     0
  9
$DIMTIH
 70
     1
  9
$DIMTOH
 70
     1
  9
$DIMSE1
 70
     0
  9
$DIMSE2
 70
     0
  9
$DIMTAD
 70
     0
  9
$DIMZIN
 70
     0
  9
$DIMBLK
  1

  9
$DIMASO
 70
     1
  9
$DIMSHO
 70
     1
  9
$DIMPOST
  1
\X
  9
$DIMAPOST
  1

  9
$DIMALT
 70
     1
  9
$DIMALTD
 70
     2
  9
$DIMALTF
 40
25.3999999999999986
  9
$DIMLFAC
 40
1.0
  9
$DIMTOFL
 70
     0
  9
$DIMTVP
 40
0.0
  9
$DIMTIX
 70
     0
  9
$DIMSOXD
 70
     0
  9
$DIMSAH
 70
     0
  9
$DIMBLK1
  1

  9
$DIMBLK2
  1

  9
$DIMSTYLE
  2
STANDARD
  9
$DIMCLRD
 70
     0
  9
$DIMCLRE
 70
     0
  9
$DIMCLRT
 70
     0
  9
$DIMTFAC
 40
1.0
  9
$DIMGAP
 40
0.09
  9
$LUNITS
 70
     2
  9
$LUPREC
 70
     4
  9
$SKETCHINC
 40
0.1
  9
$FILLETRAD
 40
0.0
  9
$AUNITS
 70
     0
  9
$AUPREC
 70
     0
  9
$MENU
  1
.
  9
$ELEVATION
 40
0.0
  9
$PELEVATION
 40
0.0
  9
$THICKNESS
 40
0.0
  9
$LIMCHECK
 70
     0
  9
$BLIPMODE
 70
     0
  9
$CHAMFERA
 40
0.0
  9
$CHAMFERB
 40
0.0
  9
$SKPOLY
 70
     0
  9
$TDCREATE
 40
2458060.468368056230247
  9
$TDUPDATE
 40
2459507.5852083340287209
  9
$TDINDWG
 40
0.7372640046
  9
$TDUSRTIMER
 40
0.7372640046
  9
$USRTIMER
 70
     1
  9
$ANGBASE
 50
0.0
  9
$ANGDIR
 70
     0
  9
$PDMODE
 70
     0
  9
$PDSIZE
 40
0.3125
  9
$PLINEWID
 40
0.0
  9
$COORDS
 70
     1
  9
$SPLFRAME
 70
     0
  9
$SPLINETYPE
 70
     6
  9
$SPLINESEGS
 70
     8
  9
$ATTDIA
 70
     1
  9
$ATTREQ
 70
     1
  9
$HANDLING
 70
     1
  9
$HANDSEED
  5
11175
  9
$SURFTAB1
 70
     6
  9
$SURFTAB2
 70
     6
  9
$SURFTYPE
 70
     6
  9
$SURFU
 70
     6
  9
$SURFV
 70
     6
  9
$UCSNAME
  2

  9
$UCSORG
 10
0.0
 20
0.0
 30
0.0
  9
$UCSXDIR
 10
1.0
 20
0.0
 30
0.0
  9
$UCSYDIR
 10
0.0
 20
1.0
 30
0.0
  9
$PUCSNAME
  2

  9
$PUCSORG
 10
0.0
 20
0.0
 30
0.0
  9
$PUCSXDIR
 10
1.0
 20
0.0
 30
0.0
  9
$PUCSYDIR
 10
0.0
 20
1.0
 30
0.0
  9
$USERI1
 70
     0
  9
$USERI2
 70
     0
  9
$USERI3
 70
     0
  9
$USERI4
 70
     0
  9
$USERI5
 70
     0
  9
$USERR1
 40
0.0
  9
$USERR2
 40
0.0
  9
$USERR3
 40
0.0
  9
$USERR4
 40
0.0
  9
$USERR5
 40
0.0
  9
$WORLDVIEW
 70
     1
  9
$SHADEDGE
 70
     3
  9
$SHADEDIF
 70
    70
  9
$TILEMODE
 70
     1
  9
$MAXACTVP
 70
    64
  9
$PLIMCHECK
 70
     0
  9
$PEXTMIN
 10
1.0000000000000000E+20
 20
1.0000000000000000E+20
 30
1.0000000000000000E+20
  9
$PEXTMAX
 10
-1.0000000000000000E+20
 20
-1.0000000000000000E+20
 30
-1.0000000000000000E+20
  9
$PLIMMIN
 10
0.0
 20
0.0
  9
$PLIMMAX
 10
12.0
 20
9.0
  9
$UNITMODE
 70
     0
  9
$VISRETAIN
 70
     1
  9
$PLINEGEN
 70
     0
  9
$PSLTSCALE
 70
     1
  0
ENDSEC
  0
SECTION
  2
TABLES
  0
TABLE
  2
VPORT
 70
     1
  0
VPORT
  2
*ACTIVE
 70
     0
 10
0.0
 20
0.0
 11
1.0
 21
1.0
 12
358.7270836067382902
 22
49.8368358612426192
 13
0.0
 23
0.0
 14
1.0
 24
1.0
 15
0.0
 25
0.0
 16
0.0
 26
0.0
 36
26.6346482412083887
 17
3644.0758056640620453
 27
159.9442404997975871
 37
0.0
 40
79.5080510926394481
 41
2.8393393393393391
 42
50.0
 43
0.0
 44
0.0
 50
0.0
 51
0.0
 71
     0
 72
   100
 73
     1
 74
     1
 75
     0
 76
     0
 77
     0
 78
     0
  0
ENDTAB
  0
TABLE
  2
LTYPE
 70
     2
  0
LTYPE
  2
CONTINUOUS
 70
     0
  3
Solid line
 72
    65
 73
     0
 40
0.0
  0
LTYPE
  2
PHANTOM2
 70
     0
  3
___ _ _ ___ _ _ ___ _ _ ___ _ _
 72
    65
 73
     6
 40
1.25
 49
0.625
 49
-0.125
 49
0.125
 49
-0.125
 49
0.125
 49
-0.125
  0
ENDTAB
  0
TABLE
  2
LAYER
 70
     2
  0
LAYER
  2
0
 70
     0
 62
   255
  6
CONTINUOUS
  0
LAYER
  2
DEFPOINTS
 70
     0
 62
     7
  6
CONTINUOUS
  0
ENDTAB
  0
TABLE
  2
STYLE
 70
     1
  0
STYLE
  2
STANDARD
 70
     0
 40
0.0
 41
0.8
 50
0.0
 71
     0
 42
0.2
  3
txt
  4

  0
ENDTAB
  0
TABLE
  2
VIEW
 70
     0
  0
ENDTAB
  0
TABLE
  2
UCS
 70
     0
  0
ENDTAB
  0
TABLE
  2
APPID
 70
    10
  0
APPID
  2
ACAD
 70
     0
  0
APPID
  2
ACAD_MLEADERVER
 70
     0
  0
APPID
  2
ACAD_EXEMPT_FROM_CAD_STANDARDS
 70
     0
  0
APPID
  2
ACAD_NAV_VCDISPLAY
 70
     0
  0
APPID
  2
ACAECLAYERSTANDARD
 70
     0
  0
APPID
  2
ACCMTRANSPARENCY
 70
     0
  0
APPID
  2
ACAD_DSTYLE_DIMJAG
 70
     0
  0
APPID
  2
ACAD_DSTYLE_DIMTALN
 70
     0
  0
APPID
  2
ACDBATTR
 70
     0
  0
APPID
  2
ACAD_PSEXT
 70
     0
  0
ENDTAB
  0
TABLE
  2
DIMSTYLE
 70
     1
  0
DIMSTYLE
  2
STANDARD
 70
     0
  3

  4

  5

  6

  7

 40
1.0
 41
0.1875
 42
0.0625
 43
0.38
 44
0.125
 45
0.0
 46
0.0
 47
0.01
 48
0.01
140
0.15625
141
0.09
142
0.0
143
25.3999999999999986
144
1.0
145
0.0
146
1.0
147
0.09
 71
     1
 72
     0
 73
     1
 74
     1
 75
     0
 76
     0
 77
     0
 78
     4
170
     0
171
     2
172
     0
173
     0
174
     0
175
     0
176
     0
177
     0
178
     0
  0
ENDTAB
  0
ENDSEC
  0
SECTION
  2
BLOCKS
  0
BLOCK
  8
0
  2
$MODEL_SPACE
 70
     0
 10
0.0
 20
0.0
 30
0.0
  3
$MODEL_SPACE
  1

  0
ENDBLK
  5
21
  8
0
  0
BLOCK
 67
     1
  8
0
  2
$PAPER_SPACE
 70
     0
 10
0.0
 20
0.0
 30
0.0
  3
$PAPER_SPACE
  1

  0
ENDBLK
  5
1D
 67
     1
  8
0
  0
ENDSEC
  0
SECTION
  2
ENTITIES
  0
ATTDEF
  5
AA11
  8
DEFPOINTS
 10
4000.5010696384938456
 20
170.3868890587824865
 30
0.0
 40
0.001
  1
K-1.1922.013
  3

  2
MODELNUMBER
 70
     0
1001
ACDBATTR
1070
     0
1070
     1
  0
ATTDEF
  5
AA12
  8
DEFPOINTS
 10
4000.5010696384938456
 20
170.3852223921157929
 30
0.0
 40
0.001
  1

  3

  2
TRADENAME
 70
     0
1001
ACDBATTR
1070
     0
1070
     1
  0
ATTDEF
  5
AA13
  8
DEFPOINTS
 10
4000.5010696384938456
 20
170.3835557254490993
 30
0.0
 40
0.001
  1
SHOWER DOOR
  3

  2
PRODUCT
 70
     0
1001
ACDBATTR
1070
     0
1070
     1
  0
LINE
  5
10FE2
  8
0
 10
4000.138676671751
 20
170.3814700617901963
 30
0.0
 11
4000.8709601364507762
 21
170.3814700617901963
 31
0.0
  0
LINE
  5
10FE3
  8
0
 10
4000.1170231290511765
 20
248.4405251798901872
 30
0.0
 11
4000.1170231290511765
 21
249.1609976208902992
 31
0.0
  0
LINE
  5
10FE4
  8
0
 10
4000.138676671751
 20
170.3814700617901963
 30
0.0
 11
4000.138676671751
 21
249.1609976208902992
 31
0.0
  0
LINE
  5
10FE5
  8
0
 10
4000.2311963563511199
 20
249.1019425027901946
 30
0.0
 11
4000.2311963563511199
 21
170.3814700617901963
 31
0.0
  0
LINE
  5
10FE6
  8
0
 10
4000.6288341526501426
 20
244.4298761417902881
 30
0.0
 11
4000.6288341526501426
 21
244.2858197783901915
 31
0.0
  0
LINE
  5
10FE7
  8
0
 10
4000.6504876957501438
 20
244.3152275837902891
 30
0.0
 11
4000.6504876957501438
 21
244.4004674020902996
 31
0.0
  0
LINE
  5
10FE8
  8
0
 10
4000.7784404509498017
 20
170.3814700617901963
 30
0.0
 11
4000.7784404509498017
 21
249.1019425027901946
 31
0.0
  0
LINE
  5
10FE9
  8
0
 10
4000.8709601364507762
 20
170.3814700617901963
 30
0.0
 11
4000.8709601364507762
 21
249.1019425027901946
 31
0.0
  0
LINE
  5
10FEA
  8
0
 10
4000.8709601364507762
 20
249.1019425027901946
 30
0.0
 11
4000.8709601364507762
 21
249.1609976208902992
 31
0.0
  0
LINE
  5
10FEB
  8
0
 10
4000.9044247038500544
 20
248.4208401405902009
 30
0.0
 11
4000.9044247038500544
 21
248.4995802979902066
 31
0.0
  0
LINE
  5
10FEC
  8
0
 10
4000.9044247038500544
 20
248.5054858097902013
 30
0.0
 11
4000.9044247038500544
 21
249.0960369909901999
 31
0.0
  0
LINE
  5
10FED
  8
0
 10
4000.9044247038500544
 20
249.1019425027901946
 30
0.0
 11
4000.9044247038500544
 21
249.1806826601902003
 31
0.0
  0
LINE
  5
10FEE
  8
0
 10
4001.0619050188502115
 20
248.6629661225902908
 30
0.0
 11
4001.0619050188502115
 21
248.9385566781903094
 31
0.0
  0
LINE
  5
10FEF
  8
0
 10
4002.19970029444994
 20
248.9385566803902918
 30
0.0
 11
4002.19970029444994
 21
248.6629661203901946
 31
0.0
  0
LINE
  5
10FF0
  8
0
 10
4002.7430073806499422
 20
248.8984627032901926
 30
0.0
 11
4002.7430073806499422
 21
248.7030576182903019
 31
0.0
  0
LINE
  5
10FF1
  8
0
 10
4002.7430073810510294
 20
249.1019425027901946
 30
0.0
 11
4002.7430073810510294
 21
249.0960369908902123
 31
0.0
  0
LINE
  5
10FF2
  8
0
 10
4002.7430073810510294
 20
248.5054858097902013
 30
0.0
 11
4002.7430073810510294
 21
248.4995802979902066
 31
0.0
  0
LINE
  5
10FF3
  8
0
 10
4003.0461569873509688
 20
248.6629661207902871
 30
0.0
 11
4003.0461569873509688
 21
248.9385566799901994
 31
0.0
  0
LINE
  5
10FF4
  8
0
 10
4004.1878892708509738
 20
248.9385566704901862
 30
0.0
 11
4004.1878892708509738
 21
248.6629661302901866
 31
0.0
  0
LINE
  5
10FF5
  8
0
 10
4004.9752908456512159
 20
248.6629661216902889
 30
0.0
 11
4004.9752908456512159
 21
248.9385566790903113
 31
0.0
  0
LINE
  5
10FF6
  8
0
 10
4005.1934798225502163
 20
248.4995802979902066
 30
0.0
 11
4005.1934798225502163
 21
249.1019425027901946
 31
0.0
  0
LINE
  5
10FF7
  8
0
 10
4005.4887554125498355
 20
249.1019425027901946
 30
0.0
 11
4005.4887554125498355
 21
248.4995802979902066
 31
0.0
  0
LINE
  5
10FF8
  8
0
 10
4000.4439475889507776
 20
244.2594228176901936
 30
0.0
 11
4000.5617782250501477
 21
244.2594228176901936
 31
0.0
  0
LINE
  5
10FF9
  8
0
 10
4000.5617782250501477
 20
244.4562732113901973
 30
0.0
 11
4000.4439475889507776
 21
244.4562732113901973
 31
0.0
  0
LINE
  5
10FFA
  8
0
 10
4000.138676671751
 20
248.4208401405902009
 30
0.0
 11
4000.1367081684497862
 21
248.4208401405902009
 31
0.0
  0
LINE
  5
10FFB
  8
0
 10
4000.8709601364507762
 20
248.4208401405902009
 30
0.0
 11
4005.4100152550499843
 21
248.4208401405902009
 31
0.0
  0
LINE
  5
10FFC
  8
0
 10
4000.9044247038500544
 20
248.4995802979902066
 30
0.0
 11
4005.1934798225502163
 21
248.4995802979902066
 31
0.0
  0
LINE
  5
10FFD
  8
0
 10
4000.9044247038500544
 20
248.5054858097902013
 30
0.0
 11
4005.1934798225502163
 21
248.5054858097902013
 31
0.0
  0
LINE
  5
10FFE
  8
0
 10
4000.9044247038500544
 20
248.5389503767902966
 30
0.0
 11
4000.8709601364507762
 21
248.5389503767902966
 31
0.0
  0
LINE
  5
10FFF
  8
0
 10
4000.8847396644509899
 20
248.544855888590206
 30
0.0
 11
4000.8709601364507762
 21
248.544855888590206
 31
0.0
  0
LINE
  5
11000
  8
0
 10
4004.1485191920501165
 20
248.6235960460903129
 30
0.0
 11
4003.0855270660499627
 21
248.6235960460903129
 31
0.0
  0
LINE
  5
11001
  8
0
 10
4002.1603302156509017
 20
248.6235960460903129
 30
0.0
 11
4001.1012750975510244
 21
248.6235960460903129
 31
0.0
  0
LINE
  5
11002
  8
0
 10
4005.0146609243502098
 20
248.6235960460903129
 30
0.0
 11
4005.1934798225502163
 21
248.6235960460903129
 31
0.0
  0
LINE
  5
11003
  8
0
 10
4004.6997002937509933
 20
248.702336203490205
 30
0.0
 11
4004.5028499014510999
 21
248.702336203490205
 31
0.0
  0
LINE
  5
11004
  8
0
 10
4002.7311963567508428
 20
248.702336203490205
 30
0.0
 11
4002.5343459644509494
 21
248.702336203490205
 31
0.0
  0
LINE
  5
11005
  8
0
 10
4002.5343459644509494
 20
248.8991865971902939
 30
0.0
 11
4002.7311963567508428
 21
248.8991865971902939
 31
0.0
  0
LINE
  5
11006
  8
0
 10
4004.5028499014510999
 20
248.8991865971902939
 30
0.0
 11
4004.6997002937509933
 21
248.8991865971902939
 31
0.0
  0
LINE
  5
11007
  8
0
 10
4001.1012750975510244
 20
248.9779267546902872
 30
0.0
 11
4002.1603302156509017
 21
248.9779267546902872
 31
0.0
  0
LINE
  5
11008
  8
0
 10
4003.0855270660499627
 20
248.9779267546902872
 30
0.0
 11
4004.1485191920501165
 21
248.9779267546902872
 31
0.0
  0
LINE
  5
11009
  8
0
 10
4005.0146609243502098
 20
248.9779267546902872
 30
0.0
 11
4005.1934798225502163
 21
248.9779267546902872
 31
0.0
  0
LINE
  5
1100A
  8
0
 10
4000.8709601364507762
 20
249.0566669121901953
 30
0.0
 11
4000.8847396645510344
 21
249.0566669121901953
 31
0.0
  0
LINE
  5
1100B
  8
0
 10
4000.9044247038500544
 20
249.0625724239901899
 30
0.0
 11
4000.8709601364507762
 21
249.0625724239901899
 31
0.0
  0
LINE
  5
1100C
  8
0
 10
4000.9044247038500544
 20
249.0960369908902123
 30
0.0
 11
4005.1934798225502163
 21
249.0960369908902123
 31
0.0
  0
LINE
  5
1100D
  8
0
 10
4000.8709601364507762
 20
249.1019425027901946
 30
0.0
 11
4000.138676671751
 21
249.1019425027903083
 31
0.0
  0
LINE
  5
1100E
  8
0
 10
4000.9044247038500544
 20
249.1019425027901946
 30
0.0
 11
4005.1934798225502163
 21
249.1019425027901946
 31
0.0
  0
LINE
  5
1100F
  8
0
 10
4000.1367081684497862
 20
249.1806826601902003
 30
0.0
 11
4005.4100152550499843
 21
249.1806826601902003
 31
0.0
  0
ARC
  5
11010
  8
0
 10
4004.5028499007507889
 20
248.8007614003902006
 30
0.0
 40
0.0984251969
 50
89.9999995611017738
 51
270.0000016209921796
  0
ARC
  5
11011
  8
0
 10
4004.6997002944508495
 20
248.8007614003902006
 30
0.0
 40
0.0984251969
 50
269.9999996239988036
 51
90.0000016726073966
  0
ARC
  5
11012
  8
0
 10
4002.5343459637501837
 20
248.8007614003902006
 30
0.0
 40
0.0984251969
 50
89.9999995611017738
 51
270.0000016209921796
  0
ARC
  5
11013
  8
0
 10
4002.7311963574511537
 20
248.8007614003902006
 30
0.0
 40
0.0984251969
 50
269.9999996239988036
 51
90.0000016726073966
  0
ARC
  5
11014
  8
0
 10
4000.4439475889507776
 20
244.3578480145903029
 30
0.0
 40
0.0984251969
 50
89.9999999933038168
 51
269.9999999959093202
  0
ARC
  5
11015
  8
0
 10
4000.5617782250501477
 20
244.3578480145903029
 30
0.0
 40
0.0984251969
 50
270.0000000042991246
 51
90.0000000066961547
  0
ARC
  5
11016
  8
0
 10
4005.4100152550499843
 20
248.4995802979902066
 30
0.0
 40
0.0787401575
 50
270.000000000104194
 51
359.9999999878991161
  0
ARC
  5
11017
  8
0
 10
4005.4100152550499843
 20
249.1019425027901946
 30
0.0
 40
0.0787401575
 50
0.0000000081992155
 51
90.0
  0
ARC
  5
11018
  8
0
 10
4005.0146609243502098
 20
248.6629661247903016
 30
0.0
 40
0.0393700787
 50
180.0000089568002011
 51
269.9999999978895175
  0
ARC
  5
11019
  8
0
 10
4005.0146609243502098
 20
248.9385566759902133
 30
0.0
 40
0.0393700787
 50
90.0000000020062316
 51
179.9999820821996934
  0
ARC
  5
1101A
  8
0
 10
4004.1485191920501165
 20
248.6629661247903016
 30
0.0
 40
0.0393700787
 50
270.0000000017977868
 51
0.0000319188002093
  0
ARC
  5
1101B
  8
0
 10
4004.1485191920501165
 20
248.9385566759902133
 30
0.0
 40
0.0393700787
 50
359.9999680809002029
 51
89.9999999979937542
  0
ARC
  5
1101C
  8
0
 10
4003.0855270660499627
 20
248.9385566759902133
 30
0.0
 40
0.0393700787
 50
90.0000000020062316
 51
179.9999764556000059
  0
ARC
  5
1101D
  8
0
 10
4003.0855270660499627
 20
248.6629661247903016
 30
0.0
 40
0.0393700787
 50
180.0000235410990115
 51
269.9999999978895175
  0
ARC
  5
1101E
  8
0
 10
4002.1603302156509017
 20
248.9385566759902133
 30
0.0
 40
0.0393700787
 50
0.0000129701998061
 51
89.9999999979937542
  0
ARC
  5
1101F
  8
0
 10
4001.1012750975510244
 20
248.9385566759902133
 30
0.0
 40
0.0393700787
 50
90.0000000020062316
 51
179.9999870637988124
  0
ARC
  5
11020
  8
0
 10
4001.1012750975510244
 20
248.6629661247903016
 30
0.0
 40
0.0393700787
 50
180.0000129265997941
 51
269.9999999978895175
  0
ARC
  5
11021
  8
0
 10
4002.1603302156509017
 20
248.6629661247903016
 30
0.0
 40
0.0393700787
 50
270.0000000020061748
 51
359.9999740783990774
  0
ARC
  5
11022
  8
0
 10
4000.1583617111509739
 20
249.1609976208902992
 30
0.0
 40
0.0196850394
 50
90.0
 51
180.0
  0
ARC
  5
11023
  8
0
 10
4000.8512750971508467
 20
249.1609976208902992
 30
0.0
 40
0.0196850394
 50
0.0
 51
89.9999999998957776
  0
ARC
  5
11024
  8
0
 10
4000.8847396644509899
 20
249.0369818727903066
 30
0.0
 40
0.0196850394
 50
0.0000000029002588
 51
89.999999998202199
  0
ARC
  5
11025
  8
0
 10
4000.8847396644509899
 20
248.5645409279902935
 30
0.0
 40
0.0196850394
 50
269.9999999798072849
 51
359.9999999676998073
  0
ARC
  5
11026
  8
0
 10
4000.1367081684497862
 20
248.4405251798901872
 30
0.0
 40
0.0196850394
 50
180.0000000321992104
 51
270.0000000199061105
  0
ARC
  5
11027
  8
0
 10
4000.1367081684497862
 20
249.1609976208902992
 30
0.0
 40
0.0196850394
 50
90.0
 51
179.999999967900095
  0
ARC
  5
11028
  8
0
 10
4001.14458218414984
 20
249.0822574635901958
 30
0.0
 40
0.0196850394
 50
44.4475374625029929
 51
89.9999999971078637
  0
ARC
  5
11029
  8
0
 10
4001.14458218414984
 20
248.5192653371902054
 30
0.0
 40
0.0196850394
 50
270.0000000028920795
 51
315.5524624987996276
  0
ENDSEC
  0
EOF
