  0
SECTION
  2
HEADER
  9
$ACADVER
  1
AC1009
  9
$INSBASE
 10
3936.813065281443869
 20
168.6227864076830087
 30
0.0
  9
$EXTMIN
 10
3936.2641277125790111
 20
168.6069194970833109
 30
-0.0000000000112498
  9
$EXTMAX
 10
3941.9781810253480216
 20
247.4396584062708087
 30
0.0000000000002956
  9
$LIMMIN
 10
0.0
 20
0.0
  9
$LIMMAX
 10
11.6929133858000007
 20
8.2677165353999982
  9
$ORTHOMODE
 70
     0
  9
$REGENMODE
 70
     1
  9
$FILLMODE
 70
     1
  9
$QTEXTMODE
 70
     0
  9
$MIRRTEXT
 70
     0
  9
$DRAGMODE
 70
     2
  9
$LTSCALE
 40
0.6431102362
  9
$OSMODE
 70
  4095
  9
$ATTMODE
 70
     1
  9
$TEXTSIZE
 40
0.2
  9
$TRACEWID
 40
0.05
  9
$TEXTSTYLE
  7
STANDARD
  9
$CLAYER
  8
0
  9
$CELTYPE
  6
BYLAYER
  9
$CECOLOR
 62
   256
  9
$DIMSCALE
 40
1.0
  9
$DIMASZ
 40
0.1875
  9
$DIMEXO
 40
0.0625
  9
$DIMDLI
 40
0.4443307087
  9
$DIMRND
 40
0.0
  9
$DIMDLE
 40
0.0
  9
$DIMEXE
 40
0.125
  9
$DIMTP
 40
0.01
  9
$DIMTM
 40
0.01
  9
$DIMTXT
 40
2.0
  9
$DIMCEN
 40
0.1052362205
  9
$DIMTSZ
 40
0.0
  9
$DIMTOL
 70
     1
  9
$DIMLIM
 70
     0
  9
$DIMTIH
 70
     1
  9
$DIMTOH
 70
     1
  9
$DIMSE1
 70
     0
  9
$DIMSE2
 70
     0
  9
$DIMTAD
 70
     0
  9
$DIMZIN
 70
     0
  9
$DIMBLK
  1

  9
$DIMASO
 70
     1
  9
$DIMSHO
 70
     1
  9
$DIMPOST
  1
\X
  9
$DIMAPOST
  1

  9
$DIMALT
 70
     1
  9
$DIMALTD
 70
     2
  9
$DIMALTF
 40
25.3999999999999986
  9
$DIMLFAC
 40
1.0
  9
$DIMTOFL
 70
     0
  9
$DIMTVP
 40
0.0
  9
$DIMTIX
 70
     0
  9
$DIMSOXD
 70
     0
  9
$DIMSAH
 70
     0
  9
$DIMBLK1
  1

  9
$DIMBLK2
  1

  9
$DIMSTYLE
  2
STANDARD
  9
$DIMCLRD
 70
     0
  9
$DIMCLRE
 70
     0
  9
$DIMCLRT
 70
     0
  9
$DIMTFAC
 40
1.0
  9
$DIMGAP
 40
0.09
  9
$LUNITS
 70
     2
  9
$LUPREC
 70
     4
  9
$SKETCHINC
 40
0.1
  9
$FILLETRAD
 40
0.0394
  9
$AUNITS
 70
     0
  9
$AUPREC
 70
     0
  9
$MENU
  1
.
  9
$ELEVATION
 40
0.0
  9
$PELEVATION
 40
0.0
  9
$THICKNESS
 40
0.0
  9
$LIMCHECK
 70
     0
  9
$BLIPMODE
 70
     0
  9
$CHAMFERA
 40
0.0
  9
$CHAMFERB
 40
0.0
  9
$SKPOLY
 70
     0
  9
$TDCREATE
 40
2458060.468368056230247
  9
$TDUPDATE
 40
2459506.7572106490842998
  9
$TDINDWG
 40
0.7335487268999999
  9
$TDUSRTIMER
 40
0.7335487268999999
  9
$USRTIMER
 70
     1
  9
$ANGBASE
 50
0.0
  9
$ANGDIR
 70
     0
  9
$PDMODE
 70
     0
  9
$PDSIZE
 40
0.3125
  9
$PLINEWID
 40
0.0
  9
$COORDS
 70
     1
  9
$SPLFRAME
 70
     0
  9
$SPLINETYPE
 70
     6
  9
$SPLINESEGS
 70
     8
  9
$ATTDIA
 70
     1
  9
$ATTREQ
 70
     1
  9
$HANDLING
 70
     1
  9
$HANDSEED
  5
1103D
  9
$SURFTAB1
 70
     6
  9
$SURFTAB2
 70
     6
  9
$SURFTYPE
 70
     6
  9
$SURFU
 70
     6
  9
$SURFV
 70
     6
  9
$UCSNAME
  2

  9
$UCSORG
 10
0.0
 20
0.0
 30
0.0
  9
$UCSXDIR
 10
1.0
 20
0.0
 30
0.0
  9
$UCSYDIR
 10
0.0
 20
1.0
 30
0.0
  9
$PUCSNAME
  2

  9
$PUCSORG
 10
0.0
 20
0.0
 30
0.0
  9
$PUCSXDIR
 10
1.0
 20
0.0
 30
0.0
  9
$PUCSYDIR
 10
0.0
 20
1.0
 30
0.0
  9
$USERI1
 70
     0
  9
$USERI2
 70
     0
  9
$USERI3
 70
     0
  9
$USERI4
 70
     0
  9
$USERI5
 70
     0
  9
$USERR1
 40
0.0
  9
$USERR2
 40
0.0
  9
$USERR3
 40
0.0
  9
$USERR4
 40
0.0
  9
$USERR5
 40
0.0
  9
$WORLDVIEW
 70
     1
  9
$SHADEDGE
 70
     3
  9
$SHADEDIF
 70
    70
  9
$TILEMODE
 70
     1
  9
$MAXACTVP
 70
    64
  9
$PLIMCHECK
 70
     0
  9
$PEXTMIN
 10
1.0000000000000000E+20
 20
1.0000000000000000E+20
 30
1.0000000000000000E+20
  9
$PEXTMAX
 10
-1.0000000000000000E+20
 20
-1.0000000000000000E+20
 30
-1.0000000000000000E+20
  9
$PLIMMIN
 10
0.0
 20
0.0
  9
$PLIMMAX
 10
12.0
 20
9.0
  9
$UNITMODE
 70
     0
  9
$VISRETAIN
 70
     1
  9
$PLINEGEN
 70
     0
  9
$PSLTSCALE
 70
     1
  0
ENDSEC
  0
SECTION
  2
TABLES
  0
TABLE
  2
VPORT
 70
     1
  0
VPORT
  2
*ACTIVE
 70
     0
 10
0.0
 20
0.0
 11
1.0
 21
1.0
 12
295.045348704900789
 22
48.0790484518794585
 13
0.0
 23
0.0
 14
1.0
 24
1.0
 15
0.0
 25
0.0
 16
0.0
 26
0.0
 36
26.6346482412083887
 17
3644.0758056640620453
 27
159.9442404997975871
 37
0.0
 40
79.5418789893300868
 41
2.8393393393393391
 42
50.0
 43
0.0
 44
0.0
 50
0.0
 51
0.0
 71
     0
 72
   100
 73
     1
 74
     1
 75
     0
 76
     0
 77
     0
 78
     0
  0
ENDTAB
  0
TABLE
  2
LTYPE
 70
     3
  0
LTYPE
  2
CONTINUOUS
 70
     0
  3
Solid line
 72
    65
 73
     0
 40
0.0
  0
LTYPE
  2
PHANTOM2
 70
     0
  3
___ _ _ ___ _ _ ___ _ _ ___ _ _
 72
    65
 73
     6
 40
1.25
 49
0.625
 49
-0.125
 49
0.125
 49
-0.125
 49
0.125
 49
-0.125
  0
ENDTAB
  0
TABLE
  2
LAYER
 70
     2
  0
LAYER
  2
0
 70
     0
 62
   255
  6
CONTINUOUS
  0
LAYER
  2
DEFPOINTS
 70
     0
 62
     7
  6
CONTINUOUS
  0
ENDTAB
  0
TABLE
  2
STYLE
 70
     1
  0
STYLE
  2
STANDARD
 70
     0
 40
0.0
 41
0.8
 50
0.0
 71
     0
 42
0.2
  3
txt
  4

  0
ENDTAB
  0
TABLE
  2
VIEW
 70
     0
  0
ENDTAB
  0
TABLE
  2
UCS
 70
     0
  0
ENDTAB
  0
TABLE
  2
APPID
 70
    10
  0
APPID
  2
ACAD
 70
     0
  0
APPID
  2
ACAD_MLEADERVER
 70
     0
  0
APPID
  2
ACAD_EXEMPT_FROM_CAD_STANDARDS
 70
     0
  0
APPID
  2
ACAD_NAV_VCDISPLAY
 70
     0
  0
APPID
  2
ACAECLAYERSTANDARD
 70
     0
  0
APPID
  2
ACCMTRANSPARENCY
 70
     0
  0
APPID
  2
ACAD_DSTYLE_DIMJAG
 70
     0
  0
APPID
  2
ACAD_DSTYLE_DIMTALN
 70
     0
  0
APPID
  2
ACDBATTR
 70
     0
  0
APPID
  2
ACAD_PSEXT
 70
     0
  0
ENDTAB
  0
TABLE
  2
DIMSTYLE
 70
     2
  0
DIMSTYLE
  2
STANDARD
 70
     0
  3

  4

  5

  6

  7

 40
1.0
 41
0.1875
 42
0.0625
 43
0.38
 44
0.125
 45
0.0
 46
0.0
 47
0.01
 48
0.01
140
0.15625
141
0.09
142
0.0
143
25.3999999999999986
144
1.0
145
0.0
146
1.0
147
0.09
 71
     1
 72
     0
 73
     1
 74
     1
 75
     0
 76
     0
 77
     0
 78
     4
170
     0
171
     2
172
     0
173
     0
174
     0
175
     0
176
     0
177
     0
178
     0
  0
ENDTAB
  0
ENDSEC
  0
SECTION
  2
BLOCKS
  0
BLOCK
  8
0
  2
$MODEL_SPACE
 70
     0
 10
0.0
 20
0.0
 30
0.0
  3
$MODEL_SPACE
  1

  0
ENDBLK
  5
21
  8
0
  0
BLOCK
 67
     1
  8
0
  2
$PAPER_SPACE
 70
     0
 10
0.0
 20
0.0
 30
0.0
  3
$PAPER_SPACE
  1

  0
ENDBLK
  5
1D
 67
     1
  8
0
  0
ENDSEC
  0
SECTION
  2
ENTITIES
  0
ATTDEF
  5
AA11
  8
DEFPOINTS
 10
3936.807588507930177
 20
168.6192408866882886
 30
0.0
 40
0.001
  1
K-1.1922.012
  3

  2
MODELNUMBER
 70
     0
1001
ACDBATTR
1070
     0
1070
     1
  0
ATTDEF
  5
AA12
  8
DEFPOINTS
 10
3936.807588507930177
 20
168.617574220021595
 30
0.0
 40
0.001
  1

  3

  2
TRADENAME
 70
     0
1001
ACDBATTR
1070
     0
1070
     1
  0
ATTDEF
  5
AA13
  8
DEFPOINTS
 10
3936.807588507930177
 20
168.6159075533549867
 30
0.0
 40
0.001
  1
SHOWER DOOR
  3

  2
PRODUCT
 70
     0
1001
ACDBATTR
1070
     0
1070
     1
  0
LINE
  5
10E9A
  8
0
 10
3936.4469235490942083
 20
168.6227864076830087
 30
0.0
 11
3937.1792070137939845
 21
168.6227864076830087
 31
0.0
  0
LINE
  5
10E9B
  8
0
 10
3936.4252700063939301
 20
246.6818415257831134
 30
0.0
 11
3936.4252700063939301
 21
247.4023139667831117
 31
0.0
  0
LINE
  5
10E9C
  8
0
 10
3936.4469235490942083
 20
168.6227864076830087
 30
0.0
 11
3936.4469235490942083
 21
247.4023139667831117
 31
0.0
  0
LINE
  5
10E9D
  8
0
 10
3936.5394432336938735
 20
247.3432588486830923
 30
0.0
 11
3936.5394432336938735
 21
168.6227864076830087
 31
0.0
  0
LINE
  5
10E9E
  8
0
 10
3936.9370810299938057
 20
242.6711924876831006
 30
0.0
 11
3936.9370810299938057
 21
242.5271361242830892
 31
0.0
  0
LINE
  5
10E9F
  8
0
 10
3936.9587345730938068
 20
242.5565439296831016
 30
0.0
 11
3936.9587345730938068
 21
242.6417837479831121
 31
0.0
  0
LINE
  5
10EA0
  8
0
 10
3937.0866873282939196
 20
168.6227864076830087
 30
0.0
 11
3937.0866873282939196
 21
247.3432588486830923
 31
0.0
  0
LINE
  5
10EA1
  8
0
 10
3937.1792070137939845
 20
168.6227864076830087
 30
0.0
 11
3937.1792070137939845
 21
247.3432588486830923
 31
0.0
  0
LINE
  5
10EA2
  8
0
 10
3937.1792070137939845
 20
247.3432588486830923
 30
0.0
 11
3937.1792070137939845
 21
247.4023139667831117
 31
0.0
  0
LINE
  5
10EA3
  8
0
 10
3937.2126715811941722
 20
246.6621564864830987
 30
0.0
 11
3937.2126715811941722
 21
246.7408966438831044
 31
0.0
  0
LINE
  5
10EA4
  8
0
 10
3937.2126715811941722
 20
246.746802155683099
 30
0.0
 11
3937.2126715811941722
 21
247.3373533368830977
 31
0.0
  0
LINE
  5
10EA5
  8
0
 10
3937.2126715811941722
 20
247.3432588486830923
 30
0.0
 11
3937.2126715811941722
 21
247.421999006083098
 31
0.0
  0
LINE
  5
10EA6
  8
0
 10
3937.3701518961938746
 20
246.9042824684831032
 30
0.0
 11
3937.3701518961938746
 21
247.1798730240830935
 31
0.0
  0
LINE
  5
10EA7
  8
0
 10
3938.5079471717940578
 20
247.1798730262831043
 30
0.0
 11
3938.5079471717940578
 21
246.9043123919830975
 31
0.0
  0
LINE
  5
10EA8
  8
0
 10
3939.0512542579931505
 20
247.1397790491830904
 30
0.0
 11
3939.0512542579931505
 21
246.9443739641830007
 31
0.0
  0
LINE
  5
10EA9
  8
0
 10
3939.0512542583937829
 20
247.3432588486830923
 30
0.0
 11
3939.0512542583937829
 21
247.3373533367831101
 31
0.0
  0
LINE
  5
10EAA
  8
0
 10
3939.0512542583937829
 20
246.746802155683099
 30
0.0
 11
3939.0512542583937829
 21
246.7408966438831044
 31
0.0
  0
LINE
  5
10EAB
  8
0
 10
3939.3544038646941772
 20
246.9043123919830975
 30
0.0
 11
3939.3544038646941772
 21
247.1798431005830992
 31
0.0
  0
LINE
  5
10EAC
  8
0
 10
3940.4961361481941822
 20
247.1798431005830992
 30
0.0
 11
3940.4961361481941822
 21
246.9043123919830975
 31
0.0
  0
LINE
  5
10EAD
  8
0
 10
3941.2835377229939695
 20
246.9043123919830975
 30
0.0
 11
3941.2835377229939695
 21
247.1798431005830992
 31
0.0
  0
LINE
  5
10EAE
  8
0
 10
3941.5017266998938794
 20
246.7408966438831044
 30
0.0
 11
3941.5017266998938794
 21
247.3432588486830923
 31
0.0
  0
LINE
  5
10EAF
  8
0
 10
3941.7970022898939533
 20
247.3432588486830923
 30
0.0
 11
3941.7970022898939533
 21
246.7408966438831044
 31
0.0
  0
LINE
  5
10EB0
  8
0
 10
3936.7521944662939859
 20
242.5007391635830913
 30
0.0
 11
3936.8700251023938108
 21
242.5007391635830913
 31
0.0
  0
LINE
  5
10EB1
  8
0
 10
3936.8700251023938108
 20
242.697589557283095
 30
0.0
 11
3936.7521944662939859
 21
242.697589557283095
 31
0.0
  0
LINE
  5
10EB2
  8
0
 10
3936.4469235490942083
 20
246.6621564864830987
 30
0.0
 11
3936.444955045793904
 21
246.6621564864830987
 31
0.0
  0
LINE
  5
10EB3
  8
0
 10
3937.1792070137939845
 20
246.6621564864830987
 30
0.0
 11
3941.7182621323941021
 21
246.6621564864830987
 31
0.0
  0
LINE
  5
10EB4
  8
0
 10
3937.2126715811941722
 20
246.7408966438831044
 30
0.0
 11
3941.5017266998938794
 21
246.7408966438831044
 31
0.0
  0
LINE
  5
10EB5
  8
0
 10
3937.2126715811941722
 20
246.746802155683099
 30
0.0
 11
3941.5017266998938794
 21
246.746802155683099
 31
0.0
  0
LINE
  5
10EB6
  8
0
 10
3937.2126715811941722
 20
246.780266722683109
 30
0.0
 11
3937.1792070137939845
 21
246.780266722683109
 31
0.0
  0
LINE
  5
10EB7
  8
0
 10
3937.1929865417941983
 20
246.7861722344831037
 30
0.0
 11
3937.1792070137939845
 21
246.7861722344831037
 31
0.0
  0
LINE
  5
10EB8
  8
0
 10
3940.4567361481940679
 20
246.864912391983097
 30
0.0
 11
3939.3938038646938367
 21
246.864912391983097
 31
0.0
  0
LINE
  5
10EB9
  8
0
 10
3938.4685471717939436
 20
246.864912391983097
 30
0.0
 11
3937.409521974893778
 21
246.864912391983097
 31
0.0
  0
LINE
  5
10EBA
  8
0
 10
3941.3229377229940837
 20
246.864912391983097
 30
0.0
 11
3941.5017266998938794
 21
246.864912391983097
 31
0.0
  0
LINE
  5
10EBB
  8
0
 10
3941.0079471710942016
 20
246.9436525493831027
 30
0.0
 11
3940.8110967787938534
 21
246.9436525493831027
 31
0.0
  0
LINE
  5
10EBC
  8
0
 10
3939.0394432340940511
 20
246.9436525493831027
 30
0.0
 11
3938.8425928417941577
 21
246.9436525493831027
 31
0.0
  0
LINE
  5
10EBD
  8
0
 10
3938.8425928417941577
 20
247.1405029430831064
 30
0.0
 11
3939.0394432340940511
 21
247.1405029430831064
 31
0.0
  0
LINE
  5
10EBE
  8
0
 10
3940.8110967787938534
 20
247.1405029430831064
 30
0.0
 11
3941.0079471710942016
 21
247.1405029430831064
 31
0.0
  0
LINE
  5
10EBF
  8
0
 10
3937.409521974893778
 20
247.2192431005830997
 30
0.0
 11
3938.46857709299411
 21
247.2192431005830997
 31
0.0
  0
LINE
  5
10EC0
  8
0
 10
3939.3938038646938367
 20
247.2192431005830997
 30
0.0
 11
3940.4567361481940679
 21
247.2192431005830997
 31
0.0
  0
LINE
  5
10EC1
  8
0
 10
3941.3229377229940837
 20
247.2192431005830997
 30
0.0
 11
3941.5017266998938794
 21
247.2192431005830997
 31
0.0
  0
LINE
  5
10EC2
  8
0
 10
3937.1792070137939845
 20
247.2979832580830077
 30
0.0
 11
3937.1929865418937879
 21
247.2979832580830077
 31
0.0
  0
LINE
  5
10EC3
  8
0
 10
3937.2126715811941722
 20
247.3038887698830877
 30
0.0
 11
3937.1792070137939845
 21
247.3038887698830877
 31
0.0
  0
LINE
  5
10EC4
  8
0
 10
3937.2126715811941722
 20
247.3373533367831101
 30
0.0
 11
3941.5017266998938794
 21
247.3373533367831101
 31
0.0
  0
LINE
  5
10EC5
  8
0
 10
3937.1792070137939845
 20
247.3432588486830923
 30
0.0
 11
3936.4469235490942083
 21
247.3432588486830923
 31
0.0
  0
LINE
  5
10EC6
  8
0
 10
3937.2126715811941722
 20
247.3432588486830923
 30
0.0
 11
3941.5017266998938794
 21
247.3432588486830923
 31
0.0
  0
LINE
  5
10EC7
  8
0
 10
3936.444955045793904
 20
247.421999006083098
 30
0.0
 11
3941.7182621323941021
 21
247.421999006083098
 31
0.0
  0
ARC
  5
10EC8
  8
0
 10
3940.8110967780939973
 20
247.0420777462830983
 30
0.0
 40
0.0984251969
 50
89.9999995611017738
 51
270.0000016209921796
  0
ARC
  5
10EC9
  8
0
 10
3941.0079471717940578
 20
247.0420777462830983
 30
0.0
 40
0.0984251969
 50
269.9999996239988036
 51
90.0000016726073966
  0
ARC
  5
10ECA
  8
0
 10
3938.8425928410938468
 20
247.0420777462830983
 30
0.0
 40
0.0984251969
 50
89.9999995611017738
 51
270.0000016209921796
  0
ARC
  5
10ECB
  8
0
 10
3939.0394432347939073
 20
247.0420777462830983
 30
0.0
 40
0.0984251969
 50
269.9999996239988036
 51
90.0000016726073966
  0
ARC
  5
10ECC
  8
0
 10
3936.7521944662939859
 20
242.599164360483087
 30
0.0
 40
0.0984251969
 50
89.9999999933038168
 51
269.9999999959093202
  0
ARC
  5
10ECD
  8
0
 10
3936.8700251023938108
 20
242.599164360483087
 30
0.0
 40
0.0984251969
 50
270.0000000042991246
 51
90.0000000066961547
  0
ARC
  5
10ECE
  8
0
 10
3941.7182621323941021
 20
246.7408966438831044
 30
0.0
 40
0.0787401575
 50
270.000000000104194
 51
359.9999999878991161
  0
ARC
  5
10ECF
  8
0
 10
3941.7182621323941021
 20
247.3432588486830923
 30
0.0
 40
0.0787401575
 50
0.0000000081992155
 51
90.0
  0
ARC
  5
10ED6
  8
0
 10
3938.46857709299411
 20
247.1798730218831111
 30
0.0
 40
0.0393700787
 50
0.0000129701998061
 51
89.9999999979937542
  0
ARC
  5
10ED7
  8
0
 10
3937.409521974893778
 20
247.1798730218831111
 30
0.0
 40
0.0393700787
 50
90.0000000020062316
 51
179.9999870638004893
  0
ARC
  5
10ED8
  8
0
 10
3937.409521974893778
 20
246.9042824706831141
 30
0.0
 40
0.0393700787
 50
180.0000129265997941
 51
269.9999999978895175
  0
ARC
  5
10EDA
  8
0
 10
3936.4666085884941822
 20
247.4023139667831117
 30
0.0
 40
0.0196850394
 50
90.0
 51
180.0
  0
ARC
  5
10EDB
  8
0
 10
3937.159521974494055
 20
247.4023139667831117
 30
0.0
 40
0.0196850394
 50
0.0
 51
89.9999999998957776
  0
ARC
  5
10EDC
  8
0
 10
3937.1929865417941983
 20
247.2782982186830907
 30
0.0
 40
0.0196850394
 50
0.0000000029002588
 51
89.999999998202199
  0
ARC
  5
10EDD
  8
0
 10
3937.1929865417941983
 20
246.805857273883106
 30
0.0
 40
0.0196850394
 50
269.9999999798072849
 51
359.9999999676998073
  0
ARC
  5
10EDE
  8
0
 10
3936.444955045793904
 20
246.6818415257831134
 30
0.0
 40
0.0196850394
 50
180.0000000321992104
 51
270.0000000199061105
  0
ARC
  5
10EDF
  8
0
 10
3936.444955045793904
 20
247.4023139667831117
 30
0.0
 40
0.0196850394
 50
90.0
 51
179.999999967900095
  0
ARC
  5
10EE0
  8
0
 10
3937.4528290614939579
 20
247.3235738094830936
 30
0.0
 40
0.0196850394
 50
44.4475374625018205
 51
89.9999999971078637
  0
ARC
  5
10EE1
  8
0
 10
3937.4528290614939579
 20
246.7605816830831031
 30
0.0
 40
0.0196850394
 50
270.0000000028920795
 51
315.5524624987996276
  0
ARC
  5
10FAF
  8
0
 10
3938.4685471717939436
 20
246.9043123919830975
 30
0.0
 40
0.0394
 50
270.0
 51
0.0
  0
ARC
  5
10FB0
  8
0
 10
3940.4567361481940679
 20
246.9043123919830975
 30
0.0
 40
0.0394
 50
270.0
 51
0.0
  0
ARC
  5
10FB1
  8
0
 10
3940.4567361481940679
 20
247.1798431005830992
 30
0.0
 40
0.0394
 50
0.0
 51
90.0
  0
ARC
  5
10FB2
  8
0
 10
3939.3938038646938367
 20
247.1798431005830992
 30
0.0
 40
0.0394
 50
90.0
 51
180.0
  0
ARC
  5
10FB3
  8
0
 10
3939.3938038646938367
 20
246.9043123919830975
 30
0.0
 40
0.0394
 50
180.0
 51
270.0
  0
ARC
  5
10FB4
  8
0
 10
3941.3229377229940837
 20
246.9043123919830975
 30
0.0
 40
0.0394
 50
180.0
 51
270.0
  0
ARC
  5
10FB5
  8
0
 10
3941.3229377229940837
 20
247.1798431005830992
 30
0.0
 40
0.0394
 50
90.0
 51
180.0
  0
ENDSEC
  0
EOF
