  0
SECTION
  2
HEADER
  9
$ACADVER
  1
AC1009
  9
$INSBASE
 10
4171.7965682547337565
 20
164.0662293221168113
 30
0.0
  9
$EXTMIN
 10
4169.4305161112060887
 20
164.048178621708189
 30
-0.0000000000112498
  9
$EXTMAX
 10
4176.7094344865618041
 20
242.87095785623859
 30
0.0000000000002956
  9
$LIMMIN
 10
0.0
 20
0.0
  9
$LIMMAX
 10
11.6929133858000007
 20
8.2677165353999982
  9
$ORTHOMODE
 70
     0
  9
$REGENMODE
 70
     1
  9
$FILLMODE
 70
     1
  9
$QTEXTMODE
 70
     0
  9
$MIRRTEXT
 70
     0
  9
$DRAGMODE
 70
     2
  9
$LTSCALE
 40
0.6431102362
  9
$OSMODE
 70
  4095
  9
$ATTMODE
 70
     1
  9
$TEXTSIZE
 40
0.2
  9
$TRACEWID
 40
0.05
  9
$TEXTSTYLE
  7
STANDARD
  9
$CLAYER
  8
0
  9
$CELTYPE
  6
BYLAYER
  9
$CECOLOR
 62
   256
  9
$DIMSCALE
 40
1.0
  9
$DIMASZ
 40
0.1875
  9
$DIMEXO
 40
0.0625
  9
$DIMDLI
 40
0.4443307087
  9
$DIMRND
 40
0.0
  9
$DIMDLE
 40
0.0
  9
$DIMEXE
 40
0.125
  9
$DIMTP
 40
0.01
  9
$DIMTM
 40
0.01
  9
$DIMTXT
 40
2.0
  9
$DIMCEN
 40
0.1052362205
  9
$DIMTSZ
 40
0.0
  9
$DIMTOL
 70
     1
  9
$DIMLIM
 70
     0
  9
$DIMTIH
 70
     1
  9
$DIMTOH
 70
     1
  9
$DIMSE1
 70
     0
  9
$DIMSE2
 70
     0
  9
$DIMTAD
 70
     0
  9
$DIMZIN
 70
     0
  9
$DIMBLK
  1

  9
$DIMASO
 70
     1
  9
$DIMSHO
 70
     1
  9
$DIMPOST
  1
\X
  9
$DIMAPOST
  1

  9
$DIMALT
 70
     1
  9
$DIMALTD
 70
     2
  9
$DIMALTF
 40
25.3999999999999986
  9
$DIMLFAC
 40
1.0
  9
$DIMTOFL
 70
     0
  9
$DIMTVP
 40
0.0
  9
$DIMTIX
 70
     0
  9
$DIMSOXD
 70
     0
  9
$DIMSAH
 70
     0
  9
$DIMBLK1
  1

  9
$DIMBLK2
  1

  9
$DIMSTYLE
  2
STANDARD
  9
$DIMCLRD
 70
     0
  9
$DIMCLRE
 70
     0
  9
$DIMCLRT
 70
     0
  9
$DIMTFAC
 40
1.0
  9
$DIMGAP
 40
0.09
  9
$LUNITS
 70
     2
  9
$LUPREC
 70
     4
  9
$SKETCHINC
 40
0.1
  9
$FILLETRAD
 40
0.0
  9
$AUNITS
 70
     0
  9
$AUPREC
 70
     0
  9
$MENU
  1
.
  9
$ELEVATION
 40
0.0
  9
$PELEVATION
 40
0.0
  9
$THICKNESS
 40
0.0
  9
$LIMCHECK
 70
     0
  9
$BLIPMODE
 70
     0
  9
$CHAMFERA
 40
0.0
  9
$CHAMFERB
 40
0.0
  9
$SKPOLY
 70
     0
  9
$TDCREATE
 40
2458060.468368056230247
  9
$TDUPDATE
 40
2459532.5844560191035271
  9
$TDINDWG
 40
0.748421412
  9
$TDUSRTIMER
 40
0.748421412
  9
$USRTIMER
 70
     1
  9
$ANGBASE
 50
0.0
  9
$ANGDIR
 70
     0
  9
$PDMODE
 70
     0
  9
$PDSIZE
 40
0.3125
  9
$PLINEWID
 40
0.0
  9
$COORDS
 70
     1
  9
$SPLFRAME
 70
     0
  9
$SPLINETYPE
 70
     6
  9
$SPLINESEGS
 70
     8
  9
$ATTDIA
 70
     1
  9
$ATTREQ
 70
     1
  9
$HANDLING
 70
     1
  9
$HANDSEED
  5
11CA2
  9
$SURFTAB1
 70
     6
  9
$SURFTAB2
 70
     6
  9
$SURFTYPE
 70
     6
  9
$SURFU
 70
     6
  9
$SURFV
 70
     6
  9
$UCSNAME
  2

  9
$UCSORG
 10
0.0
 20
0.0
 30
0.0
  9
$UCSXDIR
 10
1.0
 20
0.0
 30
0.0
  9
$UCSYDIR
 10
0.0
 20
1.0
 30
0.0
  9
$PUCSNAME
  2

  9
$PUCSORG
 10
0.0
 20
0.0
 30
0.0
  9
$PUCSXDIR
 10
1.0
 20
0.0
 30
0.0
  9
$PUCSYDIR
 10
0.0
 20
1.0
 30
0.0
  9
$USERI1
 70
     0
  9
$USERI2
 70
     0
  9
$USERI3
 70
     0
  9
$USERI4
 70
     0
  9
$USERI5
 70
     0
  9
$USERR1
 40
0.0
  9
$USERR2
 40
0.0
  9
$USERR3
 40
0.0
  9
$USERR4
 40
0.0
  9
$USERR5
 40
0.0
  9
$WORLDVIEW
 70
     1
  9
$SHADEDGE
 70
     3
  9
$SHADEDIF
 70
    70
  9
$TILEMODE
 70
     1
  9
$MAXACTVP
 70
    64
  9
$PLIMCHECK
 70
     0
  9
$PEXTMIN
 10
1.0000000000000000E+20
 20
1.0000000000000000E+20
 30
1.0000000000000000E+20
  9
$PEXTMAX
 10
-1.0000000000000000E+20
 20
-1.0000000000000000E+20
 30
-1.0000000000000000E+20
  9
$PLIMMIN
 10
0.0
 20
0.0
  9
$PLIMMAX
 10
12.0
 20
9.0
  9
$UNITMODE
 70
     0
  9
$VISRETAIN
 70
     1
  9
$PLINEGEN
 70
     0
  9
$PSLTSCALE
 70
     1
  0
ENDSEC
  0
SECTION
  2
TABLES
  0
TABLE
  2
VPORT
 70
     1
  0
VPORT
  2
*ACTIVE
 70
     0
 10
0.0
 20
0.0
 11
1.0
 21
1.0
 12
528.9941696348214464
 22
43.5153277391757598
 13
0.0
 23
0.0
 14
1.0
 24
1.0
 15
0.0
 25
0.0
 16
0.0
 26
0.0
 36
26.6346482412083887
 17
3644.0758056640620453
 27
159.9442404997975871
 37
0.0
 40
79.531814943610641
 41
2.6486111111111108
 42
50.0
 43
0.0
 44
0.0
 50
0.0
 51
0.0
 71
     0
 72
   100
 73
     1
 74
     1
 75
     0
 76
     0
 77
     0
 78
     0
  0
ENDTAB
  0
TABLE
  2
LTYPE
 70
     2
  0
LTYPE
  2
CONTINUOUS
 70
     0
  3
Solid line
 72
    65
 73
     0
 40
0.0
  0
LTYPE
  2
PHANTOM2
 70
     0
  3
___ _ _ ___ _ _ ___ _ _ ___ _ _
 72
    65
 73
     6
 40
1.25
 49
0.625
 49
-0.125
 49
0.125
 49
-0.125
 49
0.125
 49
-0.125
  0
ENDTAB
  0
TABLE
  2
LAYER
 70
     2
  0
LAYER
  2
0
 70
     0
 62
   255
  6
CONTINUOUS
  0
LAYER
  2
DEFPOINTS
 70
     0
 62
     7
  6
CONTINUOUS
  0
ENDTAB
  0
TABLE
  2
STYLE
 70
     1
  0
STYLE
  2
STANDARD
 70
     0
 40
0.0
 41
0.8
 50
0.0
 71
     0
 42
0.2
  3
txt
  4

  0
ENDTAB
  0
TABLE
  2
VIEW
 70
     0
  0
ENDTAB
  0
TABLE
  2
UCS
 70
     0
  0
ENDTAB
  0
TABLE
  2
APPID
 70
    10
  0
APPID
  2
ACAD
 70
     0
  0
APPID
  2
ACAD_MLEADERVER
 70
     0
  0
APPID
  2
ACAD_EXEMPT_FROM_CAD_STANDARDS
 70
     0
  0
APPID
  2
ACAD_NAV_VCDISPLAY
 70
     0
  0
APPID
  2
ACAECLAYERSTANDARD
 70
     0
  0
APPID
  2
ACCMTRANSPARENCY
 70
     0
  0
APPID
  2
ACAD_DSTYLE_DIMJAG
 70
     0
  0
APPID
  2
ACAD_DSTYLE_DIMTALN
 70
     0
  0
APPID
  2
ACDBATTR
 70
     0
  0
APPID
  2
ACAD_PSEXT
 70
     0
  0
ENDTAB
  0
TABLE
  2
DIMSTYLE
 70
     1
  0
DIMSTYLE
  2
STANDARD
 70
     0
  3

  4

  5

  6

  7

 40
1.0
 41
0.1875
 42
0.0625
 43
0.38
 44
0.125
 45
0.0
 46
0.0
 47
0.01
 48
0.01
140
0.15625
141
0.09
142
0.0
143
25.3999999999999986
144
1.0
145
0.0
146
1.0
147
0.09
 71
     1
 72
     0
 73
     1
 74
     1
 75
     0
 76
     0
 77
     0
 78
     4
170
     0
171
     2
172
     0
173
     0
174
     0
175
     0
176
     0
177
     0
178
     0
  0
ENDTAB
  0
ENDSEC
  0
SECTION
  2
BLOCKS
  0
BLOCK
  8
0
  2
$MODEL_SPACE
 70
     0
 10
0.0
 20
0.0
 30
0.0
  3
$MODEL_SPACE
  1

  0
ENDBLK
  5
21
  8
0
  0
BLOCK
 67
     1
  8
0
  2
$PAPER_SPACE
 70
     0
 10
0.0
 20
0.0
 30
0.0
  3
$PAPER_SPACE
  1

  0
ENDBLK
  5
1D
 67
     1
  8
0
  0
ENDSEC
  0
SECTION
  2
ENTITIES
  0
ATTDEF
  5
AA11
  8
DEFPOINTS
 10
4171.7937103910526275
 20
164.0710136518881939
 30
0.0
 40
0.001
  1
K-1.1922.010
  3

  2
MODELNUMBER
 70
     0
1001
ACDBATTR
1070
     0
1070
     1
  0
ATTDEF
  5
AA12
  8
DEFPOINTS
 10
4171.7937103910526275
 20
164.069346985221614
 30
0.0
 40
0.001
  1

  3

  2
TRADENAME
 70
     0
1001
ACDBATTR
1070
     0
1070
     1
  0
ATTDEF
  5
AA13
  8
DEFPOINTS
 10
4171.7937103910526275
 20
164.067680318554892
 30
0.0
 40
0.001
  1
SHOWER DOOR
  3

  2
PRODUCT
 70
     0
1001
ACDBATTR
1070
     0
1070
     1
  0
LINE
  5
11B3C
  8
0
 10
4171.3664255383346244
 20
164.8344261725167996
 30
0.0
 11
4172.5475279005340781
 21
164.8344261725167996
 31
0.0
  0
LINE
  5
11B3D
  8
0
 10
4171.5153012044347633
 20
165.0745836528168127
 30
0.0
 11
4171.4783739382337444
 21
165.0745836528168127
 31
0.0
  0
LINE
  5
11B3E
  8
0
 10
4171.5153012044347633
 20
165.110016723616809
 30
0.0
 11
4171.4392012044336298
 21
165.110016723616809
 31
0.0
  0
LINE
  5
11B3F
  8
0
 10
4171.4353405411347921
 20
165.110016723616809
 30
0.0
 11
4171.4392012045336742
 21
165.110016723616809
 31
0.0
  0
LINE
  5
11B40
  8
0
 10
4171.5101263256337916
 20
242.6690718417169137
 30
0.0
 11
4171.4707562469347977
 21
242.6297017630168966
 31
0.0
  0
LINE
  5
11B41
  8
0
 10
4171.4707562469347977
 20
242.6297017630168966
 30
0.0
 11
4171.5101263256337916
 21
242.6690718417169137
 31
0.0
  0
LINE
  5
11B42
  8
0
 10
4171.4353405411347921
 20
175.8383631803168043
 30
0.0
 11
4171.2739058532342824
 21
175.8383631803168043
 31
0.0
  0
LINE
  5
11B43
  8
0
 10
4171.2739058532342824
 20
178.003717511016788
 30
0.0
 11
4171.4353405411347921
 21
178.003717511016788
 31
0.0
  0
LINE
  5
11B44
  8
0
 10
4171.2542208138347632
 20
177.9840324717168016
 30
0.0
 11
4171.2542208138347632
 21
175.8580482197168067
 31
0.0
  0
LINE
  5
11B45
  8
0
 10
4171.2542208138347632
 20
229.7556860150168916
 30
0.0
 11
4171.2542208138347632
 21
231.881670266916899
 31
0.0
  0
LINE
  5
11B46
  8
0
 10
4171.3132759319341858
 20
242.1257647551169043
 30
0.0
 11
4171.3132759319341858
 21
242.8462371961169026
 31
0.0
  0
LINE
  5
11B47
  8
0
 10
4171.3349294751342313
 20
164.0662293221168113
 30
0.0
 11
4171.3349294751342313
 21
175.8383631803168043
 31
0.0
  0
LINE
  5
11B48
  8
0
 10
4171.3349294751342313
 20
178.003717511016788
 30
0.0
 11
4171.3349294751342313
 21
198.2005804243167972
 31
0.0
  0
LINE
  5
11B49
  8
0
 10
4171.3349294751342313
 20
198.9092418417168062
 30
0.0
 11
4171.3349294751342313
 21
208.8305016842168982
 31
0.0
  0
LINE
  5
11B4A
  8
0
 10
4171.3349294751342313
 20
209.5391631016167935
 30
0.0
 11
4171.3349294751342313
 21
229.7360009756168893
 31
0.0
  0
LINE
  5
11B4B
  8
0
 10
4171.3349294751342313
 20
231.9013553063169013
 30
0.0
 11
4171.3349294751342313
 21
242.1060797158168896
 31
0.0
  0
LINE
  5
11B4C
  8
0
 10
4171.3467404989341958
 20
164.0667096370167997
 30
0.0
 11
4171.3467404989341958
 21
164.8147411331167973
 31
0.0
  0
LINE
  5
11B4D
  8
0
 10
4171.3488357954338426
 20
164.8234845882167861
 30
0.0
 11
4171.3488357954338426
 21
175.8383631803168043
 31
0.0
  0
LINE
  5
11B4E
  8
0
 10
4171.3488357954338426
 20
178.003717511016788
 30
0.0
 11
4171.3488357954338426
 21
198.2005804243167972
 31
0.0
  0
LINE
  5
11B4F
  8
0
 10
4171.3488357954338426
 20
198.9092418417168062
 30
0.0
 11
4171.3488357954338426
 21
208.8305016842168982
 31
0.0
  0
LINE
  5
11B50
  8
0
 10
4171.3488357954338426
 20
209.5391631016167935
 30
0.0
 11
4171.3488357954338426
 21
229.7360009756168893
 31
0.0
  0
LINE
  5
11B51
  8
0
 10
4171.3488357954338426
 20
231.9013553063169013
 30
0.0
 11
4171.3488357954338426
 21
242.1060797158168896
 31
0.0
  0
LINE
  5
11B52
  8
0
 10
4171.36851156393368
 20
242.1060797158168896
 30
0.0
 11
4171.36851156393368
 21
231.9013553063169013
 31
0.0
  0
LINE
  5
11B53
  8
0
 10
4171.36851156393368
 20
229.7360009756168893
 30
0.0
 11
4171.36851156393368
 21
209.5391631016167935
 31
0.0
  0
LINE
  5
11B54
  8
0
 10
4171.36851156393368
 20
208.8305016842168982
 30
0.0
 11
4171.36851156393368
 21
198.9092418417168062
 31
0.0
  0
LINE
  5
11B55
  8
0
 10
4171.36851156393368
 20
198.2005804243167972
 30
0.0
 11
4171.36851156393368
 21
178.003717511016788
 31
0.0
  0
LINE
  5
11B56
  8
0
 10
4171.36851156393368
 20
175.8383631803168043
 30
0.0
 11
4171.36851156393368
 21
164.8344261725167996
 31
0.0
  0
LINE
  5
11B57
  8
0
 10
4171.4353405411347921
 20
242.6297017630168966
 30
0.0
 11
4171.4353405411347921
 21
165.110016723616809
 31
0.0
  0
LINE
  5
11B58
  8
0
 10
4171.4487900713347699
 20
164.8344261725167996
 30
0.0
 11
4171.4487900713347699
 21
165.0879899085167892
 31
0.0
  0
LINE
  5
11B59
  8
0
 10
4171.515168410233855
 20
164.8344261725167996
 30
0.0
 11
4171.515168410233855
 21
242.6292529441168995
 31
0.0
  0
LINE
  5
11B5A
  8
0
 10
4171.574223528334187
 20
242.6292529441168995
 30
0.0
 11
4171.574223528334187
 21
164.8344261725167996
 31
0.0
  0
LINE
  5
11B5B
  8
0
 10
4171.9022030973337678
 20
164.8344261725167996
 30
0.0
 11
4171.9022030973337678
 21
242.6292529441168995
 31
0.0
  0
LINE
  5
11B5C
  8
0
 10
4172.2582070343341911
 20
242.6292529441168995
 30
0.0
 11
4172.2582070343341911
 21
164.8344261725167996
 31
0.0
  0
LINE
  5
11B5D
  8
0
 10
4172.4392601839335839
 20
242.1257647551169043
 30
0.0
 11
4172.4392601839335839
 21
242.8462371961169026
 31
0.0
  0
LINE
  5
11B5E
  8
0
 10
4172.5672129398335528
 20
164.8147411331167973
 30
0.0
 11
4172.5672129398335528
 21
164.0662293221168113
 31
0.0
  0
LINE
  5
11B5F
  8
0
 10
4176.685008215434209
 20
242.7871820780169116
 30
0.0
 11
4176.685008215434209
 21
242.1848198732168953
 31
0.0
  0
LINE
  5
11B60
  8
0
 10
4171.4353405411347921
 20
229.7360009756168893
 30
0.0
 11
4171.2739058532342824
 21
229.7360009756168893
 31
0.0
  0
LINE
  5
11B61
  8
0
 10
4171.2739058532342824
 20
231.9013553063169013
 30
0.0
 11
4171.4353405411347921
 21
231.9013553063169013
 31
0.0
  0
LINE
  5
11B62
  8
0
 10
4171.8250869555340614
 20
242.6690718417169137
 30
0.0
 11
4171.8644570343349187
 21
242.6297017630168966
 31
0.0
  0
LINE
  5
11B63
  8
0
 10
4171.8644570343349187
 20
242.6297017630168966
 30
0.0
 11
4171.8250869555340614
 21
242.6690718417169137
 31
0.0
  0
LINE
  5
11B64
  8
0
 10
4171.4353405411347921
 20
242.1060797158168896
 30
0.0
 11
4171.3329609713337049
 21
242.1060797158168896
 31
0.0
  0
LINE
  5
11B65
  8
0
 10
4172.2582070343341911
 20
242.1060797158168896
 30
0.0
 11
4176.6062680579343578
 21
242.1060797158168896
 31
0.0
  0
LINE
  5
11B66
  8
0
 10
4172.2582070343341911
 20
242.6292529441168995
 30
0.0
 11
4171.515168410233855
 21
242.6292529441168995
 31
0.0
  0
LINE
  5
11B67
  8
0
 10
4171.9035121524348142
 20
242.6297017630168966
 30
0.0
 11
4171.9000034742348362
 21
242.6297017630168966
 31
0.0
  0
LINE
  5
11B68
  8
0
 10
4171.8978415995343312
 20
242.6297017630168966
 30
0.0
 11
4171.4353405411347921
 21
242.6297017630168966
 31
0.0
  0
LINE
  5
11B69
  8
0
 10
4171.8250869555340614
 20
242.6690718417169137
 30
0.0
 11
4171.5101263256337916
 21
242.6690718417169137
 31
0.0
  0
LINE
  5
11B6A
  8
0
 10
4171.8250869555340614
 20
242.6690718417169137
 30
0.0
 11
4171.5101263256337916
 21
242.6690718417169137
 31
0.0
  0
LINE
  5
11B6B
  8
0
 10
4171.3329609713337049
 20
242.8659222355169049
 30
0.0
 11
4176.6062680579343578
 21
242.8659222355169049
 31
0.0
  0
ARC
  5
11B6C
  8
0
 10
4176.6062680579343578
 20
242.7871820780169116
 30
0.0
 40
0.0787401575
 50
0.0
 51
90.0
  0
ARC
  5
11B6D
  8
0
 10
4176.6062680579343578
 20
242.1848198732168953
 30
0.0
 40
0.0787401575
 50
270.0
 51
0.0
  0
ARC
  5
11B6E
  8
0
 10
4171.4783739382337444
 20
165.1139537315168013
 30
0.0
 40
0.0393700787
 50
185.7391704714981131
 51
269.999999997602913
  0
ARC
  5
11B6F
  8
0
 10
4171.3329609713337049
 20
242.8462371961169026
 30
0.0
 40
0.0196850394
 50
90.0
 51
180.0000000006986056
  0
ARC
  5
11B70
  8
0
 10
4171.3329609713337049
 20
242.1257647551169043
 30
0.0
 40
0.0196850394
 50
179.9999999992998028
 51
270.0
  0
ARC
  5
11B71
  8
0
 10
4172.5475279005340781
 20
164.8147411331167973
 30
0.0
 40
0.0196850394
 50
0.0
 51
90.0
  0
ARC
  5
11B72
  8
0
 10
4171.3664255383346244
 20
164.8147411331167973
 30
0.0
 40
0.0196850394
 50
90.0000000003126672
 51
180.0
  0
ARC
  5
11B73
  8
0
 10
4171.2739058532342824
 20
229.7556860150168916
 30
0.0
 40
0.0196850394
 50
179.9999999987998081
 51
270.0
  0
ARC
  5
11B74
  8
0
 10
4171.2739058532342824
 20
231.881670266916899
 30
0.0
 40
0.0196850394
 50
90.0
 51
180.0000000002995932
  0
ARC
  5
11B75
  8
0
 10
4171.2739058532342824
 20
175.8580482197168067
 30
0.0
 40
0.0196850394
 50
179.9999999987998081
 51
270.0
  0
ARC
  5
11B76
  8
0
 10
4171.2739058532342824
 20
177.9840324717168016
 30
0.0
 40
0.0196850394
 50
90.0
 51
180.0000000002995932
  0
ARC
  5
11B77
  8
0
 10
4172.4195751445340647
 20
242.8462371961169026
 30
0.0
 40
0.0196850394
 50
0.0000000002002986
 51
90.0
  0
ARC
  5
11B78
  8
0
 10
4172.4195751445340647
 20
242.1257647551169043
 30
0.0
 40
0.0196850394
 50
270.0
 51
0.0
  0
LINE
  5
11B79
  8
0
 10
4171.3349294751342313
 20
164.0662293221168113
 30
0.0
 11
4172.5672129398335528
 21
164.0662293221168113
 31
0.0
  0
LINE
  5
11B7A
  8
0
 10
4169.5416223886340958
 20
198.2005804243167972
 30
0.0
 11
4171.4353405411347921
 21
198.2005804243167972
 31
0.0
  0
LINE
  5
11B7B
  8
0
 10
4169.5022523099341925
 20
198.2399505031168019
 30
0.0
 11
4169.5022523099341925
 21
209.4997930228167888
 31
0.0
  0
LINE
  5
11B7C
  8
0
 10
4170.1280807429347988
 20
198.2005804243167972
 30
0.0
 11
4170.1280807429347988
 21
198.8705225197871869
 31
0.0
  0
LINE
  5
11B7D
  8
0
 10
4170.289653884735344
 20
198.9486119204167949
 30
0.0
 11
4170.289653884735344
 21
208.7911316055169095
 31
0.0
  0
LINE
  5
11B7E
  8
0
 10
4170.2493079023806786
 20
198.9092418417168062
 30
0.0
 11
4171.4353405411347921
 21
198.9092418417168062
 31
0.0
  0
ARC
  5
11B7F
  8
0
 10
4169.5416223886340958
 20
198.2399505031168019
 30
0.0
 40
0.0393700787
 50
180.0
 51
270.0
  0
ARC
  5
11B80
  8
0
 10
4170.3290239634343379
 20
198.9486119204167949
 30
0.0
 40
0.0393700787
 50
180.0
 51
270.0
  0
LINE
  5
11B81
  8
0
 10
4170.2006806311737819
 20
198.8998046406844082
 30
0.0
 11
4170.1280807429347988
 21
198.8705225197871869
 31
0.0
  0
ARC
  5
11B82
  8
0
 10
4170.2493079023806786
 20
198.779241841716896
 30
0.0
 40
0.13
 50
90.0
 51
111.9659757108939004
  0
LINE
  5
11B83
  8
0
 10
4169.5416223886340958
 20
209.5391631016167935
 30
0.0
 11
4171.4353405411347921
 21
209.5391631016167935
 31
0.0
  0
LINE
  5
11B84
  8
0
 10
4170.1280807429347988
 20
209.5391631016167935
 30
0.0
 11
4170.1280807429347988
 21
208.8692210061464891
 31
0.0
  0
LINE
  5
11B85
  8
0
 10
4170.2493079023806786
 20
208.8305016842168982
 30
0.0
 11
4171.4353405411347921
 21
208.8305016842168982
 31
0.0
  0
ARC
  5
11B86
  8
0
 10
4169.5416223886340958
 20
209.4997930228167888
 30
0.0
 40
0.0393700787
 50
90.0
 51
180.0
  0
ARC
  5
11B87
  8
0
 10
4170.3290239634343379
 20
208.7911316055169095
 30
0.0
 40
0.0393700787
 50
90.0
 51
180.0
  0
LINE
  5
11B88
  8
0
 10
4170.2006806311737819
 20
208.8399388852492109
 30
0.0
 11
4170.1280807429347988
 21
208.8692210061464891
 31
0.0
  0
ARC
  5
11B89
  8
0
 10
4170.2493079023806786
 20
208.9605016842168084
 30
0.0
 40
0.13
 50
248.0340242891060996
 51
270.0
  0
LINE
  5
11B8A
  8
0
 10
4173.7935908926347111
 20
198.2005804243167972
 30
0.0
 11
4172.2582070343341911
 21
198.2005804243167972
 31
0.0
  0
LINE
  5
11B8B
  8
0
 10
4173.8329609713337049
 20
198.2399505031168019
 30
0.0
 11
4173.8329609713337049
 21
209.4997930228167888
 31
0.0
  0
LINE
  5
11B8C
  8
0
 10
4173.2071325383349176
 20
198.2005804243167972
 30
0.0
 11
4173.2071325383349176
 21
198.8705225197871869
 31
0.0
  0
LINE
  5
11B8D
  8
0
 10
4173.0455593965343724
 20
198.9486119204167949
 30
0.0
 11
4173.0455593965343724
 21
208.7911316055169095
 31
0.0
  0
LINE
  5
11B8E
  8
0
 10
4173.0859053788872188
 20
198.9092418417168062
 30
0.0
 11
4172.2582070343341911
 21
198.9092418417168062
 31
0.0
  0
LINE
  5
11B8F
  8
0
 10
4171.2637403272337906
 20
198.9092418417168062
 30
0.0
 11
4171.2637403272337906
 21
208.8305016842168982
 31
0.0
  0
ARC
  5
11B90
  8
0
 10
4173.7935908926347111
 20
198.2399505031168019
 30
0.0
 40
0.0393700787
 50
270.0
 51
0.0
  0
ARC
  5
11B91
  8
0
 10
4173.0061893178335595
 20
198.9486119204167949
 30
0.0
 40
0.0393700787
 50
270.0
 51
0.0
  0
LINE
  5
11B92
  8
0
 10
4173.1345326500941155
 20
198.8998046406844082
 30
0.0
 11
4173.2071325383349176
 21
198.8705225197871869
 31
0.0
  0
ARC
  5
11B93
  8
0
 10
4173.0859053788872188
 20
198.779241841716896
 30
0.0
 40
0.13
 50
68.0340242891061138
 51
90.0
  0
LINE
  5
11B94
  8
0
 10
4173.7935908926347111
 20
209.5391631016167935
 30
0.0
 11
4172.2582070343341911
 21
209.5391631016167935
 31
0.0
  0
LINE
  5
11B95
  8
0
 10
4173.2071325383349176
 20
209.5391631016167935
 30
0.0
 11
4173.2071325383349176
 21
208.8692210061464891
 31
0.0
  0
LINE
  5
11B96
  8
0
 10
4173.0859053788872188
 20
208.8305016842168982
 30
0.0
 11
4172.2582070343341911
 21
208.8305016842168982
 31
0.0
  0
ARC
  5
11B97
  8
0
 10
4173.7935908926347111
 20
209.4997930228167888
 30
0.0
 40
0.0393700787
 50
0.0
 51
90.0
  0
ARC
  5
11B98
  8
0
 10
4173.0061893178335595
 20
208.7911316055169095
 30
0.0
 40
0.0393700787
 50
0.0
 51
90.0
  0
LINE
  5
11B99
  8
0
 10
4173.1345326500941155
 20
208.8399388852492109
 30
0.0
 11
4173.2071325383349176
 21
208.8692210061464891
 31
0.0
  0
ARC
  5
11B9A
  8
0
 10
4173.0859053788872188
 20
208.9605016842168084
 30
0.0
 40
0.13
 50
270.0
 51
291.965975710893872
  0
ENDSEC
  0
EOF
