  0
SECTION
  2
HEADER
  9
$ACADVER
  1
AC1009
  9
$INSBASE
 10
4124.6641891603003387
 20
163.3104607542173881
 30
0.0
  9
$EXTMIN
 10
4101.3015307249588659
 20
163.309550067662002
 30
-0.0000000349181948
  9
$EXTMAX
 10
4148.1000918860827369
 20
242.1246624032403929
 30
0.0000000814935746
  9
$LIMMIN
 10
0.0
 20
0.0
  9
$LIMMAX
 10
11.6929133858000007
 20
8.2677165353999982
  9
$ORTHOMODE
 70
     0
  9
$REGENMODE
 70
     1
  9
$FILLMODE
 70
     1
  9
$QTEXTMODE
 70
     0
  9
$MIRRTEXT
 70
     0
  9
$DRAGMODE
 70
     2
  9
$LTSCALE
 40
0.6431102362
  9
$OSMODE
 70
  4095
  9
$ATTMODE
 70
     1
  9
$TEXTSIZE
 40
0.2
  9
$TRACEWID
 40
0.05
  9
$TEXTSTYLE
  7
STANDARD
  9
$CLAYER
  8
0
  9
$CELTYPE
  6
BYLAYER
  9
$CECOLOR
 62
   256
  9
$DIMSCALE
 40
1.0
  9
$DIMASZ
 40
0.1875
  9
$DIMEXO
 40
0.0625
  9
$DIMDLI
 40
0.4443307087
  9
$DIMRND
 40
0.0
  9
$DIMDLE
 40
0.0
  9
$DIMEXE
 40
0.125
  9
$DIMTP
 40
0.01
  9
$DIMTM
 40
0.01
  9
$DIMTXT
 40
2.0
  9
$DIMCEN
 40
0.1052362205
  9
$DIMTSZ
 40
0.0
  9
$DIMTOL
 70
     1
  9
$DIMLIM
 70
     0
  9
$DIMTIH
 70
     1
  9
$DIMTOH
 70
     1
  9
$DIMSE1
 70
     0
  9
$DIMSE2
 70
     0
  9
$DIMTAD
 70
     0
  9
$DIMZIN
 70
     0
  9
$DIMBLK
  1

  9
$DIMASO
 70
     1
  9
$DIMSHO
 70
     1
  9
$DIMPOST
  1
\X
  9
$DIMAPOST
  1

  9
$DIMALT
 70
     1
  9
$DIMALTD
 70
     2
  9
$DIMALTF
 40
25.3999999999999986
  9
$DIMLFAC
 40
1.0
  9
$DIMTOFL
 70
     0
  9
$DIMTVP
 40
0.0
  9
$DIMTIX
 70
     0
  9
$DIMSOXD
 70
     0
  9
$DIMSAH
 70
     0
  9
$DIMBLK1
  1

  9
$DIMBLK2
  1

  9
$DIMSTYLE
  2
STANDARD
  9
$DIMCLRD
 70
     0
  9
$DIMCLRE
 70
     0
  9
$DIMCLRT
 70
     0
  9
$DIMTFAC
 40
1.0
  9
$DIMGAP
 40
0.09
  9
$LUNITS
 70
     2
  9
$LUPREC
 70
     4
  9
$SKETCHINC
 40
0.1
  9
$FILLETRAD
 40
0.0
  9
$AUNITS
 70
     0
  9
$AUPREC
 70
     0
  9
$MENU
  1
.
  9
$ELEVATION
 40
0.0
  9
$PELEVATION
 40
0.0
  9
$THICKNESS
 40
0.0
  9
$LIMCHECK
 70
     0
  9
$BLIPMODE
 70
     0
  9
$CHAMFERA
 40
0.0
  9
$CHAMFERB
 40
0.0
  9
$SKPOLY
 70
     0
  9
$TDCREATE
 40
2458060.468368056230247
  9
$TDUPDATE
 40
2459532.5845486111938953
  9
$TDINDWG
 40
0.7487107639
  9
$TDUSRTIMER
 40
0.7487107639
  9
$USRTIMER
 70
     1
  9
$ANGBASE
 50
0.0
  9
$ANGDIR
 70
     0
  9
$PDMODE
 70
     0
  9
$PDSIZE
 40
0.3125
  9
$PLINEWID
 40
0.0
  9
$COORDS
 70
     1
  9
$SPLFRAME
 70
     0
  9
$SPLINETYPE
 70
     6
  9
$SPLINESEGS
 70
     8
  9
$ATTDIA
 70
     1
  9
$ATTREQ
 70
     1
  9
$HANDLING
 70
     1
  9
$HANDSEED
  5
11B55
  9
$SURFTAB1
 70
     6
  9
$SURFTAB2
 70
     6
  9
$SURFTYPE
 70
     6
  9
$SURFU
 70
     6
  9
$SURFV
 70
     6
  9
$UCSNAME
  2

  9
$UCSORG
 10
0.0
 20
0.0
 30
0.0
  9
$UCSXDIR
 10
1.0
 20
0.0
 30
0.0
  9
$UCSYDIR
 10
0.0
 20
1.0
 30
0.0
  9
$PUCSNAME
  2

  9
$PUCSORG
 10
0.0
 20
0.0
 30
0.0
  9
$PUCSXDIR
 10
1.0
 20
0.0
 30
0.0
  9
$PUCSYDIR
 10
0.0
 20
1.0
 30
0.0
  9
$USERI1
 70
     0
  9
$USERI2
 70
     0
  9
$USERI3
 70
     0
  9
$USERI4
 70
     0
  9
$USERI5
 70
     0
  9
$USERR1
 40
0.0
  9
$USERR2
 40
0.0
  9
$USERR3
 40
0.0
  9
$USERR4
 40
0.0
  9
$USERR5
 40
0.0
  9
$WORLDVIEW
 70
     1
  9
$SHADEDGE
 70
     3
  9
$SHADEDIF
 70
    70
  9
$TILEMODE
 70
     1
  9
$MAXACTVP
 70
    64
  9
$PLIMCHECK
 70
     0
  9
$PEXTMIN
 10
1.0000000000000000E+20
 20
1.0000000000000000E+20
 30
1.0000000000000000E+20
  9
$PEXTMAX
 10
-1.0000000000000000E+20
 20
-1.0000000000000000E+20
 30
-1.0000000000000000E+20
  9
$PLIMMIN
 10
0.0
 20
0.0
  9
$PLIMMAX
 10
12.0
 20
9.0
  9
$UNITMODE
 70
     0
  9
$VISRETAIN
 70
     1
  9
$PLINEGEN
 70
     0
  9
$PSLTSCALE
 70
     1
  0
ENDSEC
  0
SECTION
  2
TABLES
  0
TABLE
  2
VPORT
 70
     1
  0
VPORT
  2
*ACTIVE
 70
     0
 10
0.0
 20
0.0
 11
1.0
 21
1.0
 12
480.6250056414581877
 22
42.7728657356535891
 13
0.0
 23
0.0
 14
1.0
 24
1.0
 15
0.0
 25
0.0
 16
0.0
 26
0.0
 36
26.6346482412083887
 17
3644.0758056640620453
 27
159.9442404997975871
 37
0.0
 40
79.5125633846154614
 41
2.6486111111111108
 42
50.0
 43
0.0
 44
0.0
 50
0.0
 51
0.0
 71
     0
 72
   100
 73
     1
 74
     1
 75
     0
 76
     0
 77
     0
 78
     0
  0
ENDTAB
  0
TABLE
  2
LTYPE
 70
     2
  0
LTYPE
  2
CONTINUOUS
 70
     0
  3
Solid line
 72
    65
 73
     0
 40
0.0
  0
LTYPE
  2
PHANTOM2
 70
     0
  3
___ _ _ ___ _ _ ___ _ _ ___ _ _
 72
    65
 73
     6
 40
1.25
 49
0.625
 49
-0.125
 49
0.125
 49
-0.125
 49
0.125
 49
-0.125
  0
ENDTAB
  0
TABLE
  2
LAYER
 70
     2
  0
LAYER
  2
0
 70
     0
 62
   255
  6
CONTINUOUS
  0
LAYER
  2
DEFPOINTS
 70
     0
 62
     7
  6
CONTINUOUS
  0
ENDTAB
  0
TABLE
  2
STYLE
 70
     1
  0
STYLE
  2
STANDARD
 70
     0
 40
0.0
 41
0.8
 50
0.0
 71
     0
 42
0.2
  3
txt
  4

  0
ENDTAB
  0
TABLE
  2
VIEW
 70
     0
  0
ENDTAB
  0
TABLE
  2
UCS
 70
     0
  0
ENDTAB
  0
TABLE
  2
APPID
 70
    10
  0
APPID
  2
ACAD
 70
     0
  0
APPID
  2
ACAD_MLEADERVER
 70
     0
  0
APPID
  2
ACAD_EXEMPT_FROM_CAD_STANDARDS
 70
     0
  0
APPID
  2
ACAD_NAV_VCDISPLAY
 70
     0
  0
APPID
  2
ACAECLAYERSTANDARD
 70
     0
  0
APPID
  2
ACCMTRANSPARENCY
 70
     0
  0
APPID
  2
ACAD_DSTYLE_DIMJAG
 70
     0
  0
APPID
  2
ACAD_DSTYLE_DIMTALN
 70
     0
  0
APPID
  2
ACDBATTR
 70
     0
  0
APPID
  2
ACAD_PSEXT
 70
     0
  0
ENDTAB
  0
TABLE
  2
DIMSTYLE
 70
     1
  0
DIMSTYLE
  2
STANDARD
 70
     0
  3

  4

  5

  6

  7

 40
1.0
 41
0.1875
 42
0.0625
 43
0.38
 44
0.125
 45
0.0
 46
0.0
 47
0.01
 48
0.01
140
0.15625
141
0.09
142
0.0
143
25.3999999999999986
144
1.0
145
0.0
146
1.0
147
0.09
 71
     1
 72
     0
 73
     1
 74
     1
 75
     0
 76
     0
 77
     0
 78
     4
170
     0
171
     2
172
     0
173
     0
174
     0
175
     0
176
     0
177
     0
178
     0
  0
ENDTAB
  0
ENDSEC
  0
SECTION
  2
BLOCKS
  0
BLOCK
  8
0
  2
$MODEL_SPACE
 70
     0
 10
0.0
 20
0.0
 30
0.0
  3
$MODEL_SPACE
  1

  0
ENDBLK
  5
21
  8
0
  0
BLOCK
 67
     1
  8
0
  2
$PAPER_SPACE
 70
     0
 10
0.0
 20
0.0
 30
0.0
  3
$PAPER_SPACE
  1

  0
ENDBLK
  5
1D
 67
     1
  8
0
  0
ENDSEC
  0
SECTION
  2
ENTITIES
  0
ATTDEF
  5
AA11
  8
DEFPOINTS
 10
4124.6613312966201192
 20
163.315245083988799
 30
0.0
 40
0.001
  1
K-1.1922.010
  3

  2
MODELNUMBER
 70
     0
1001
ACDBATTR
1070
     0
1070
     1
  0
ATTDEF
  5
AA12
  8
DEFPOINTS
 10
4124.6613312966201192
 20
163.3135784173221907
 30
0.0
 40
0.001
  1

  3

  2
TRADENAME
 70
     0
1001
ACDBATTR
1070
     0
1070
     1
  0
ATTDEF
  5
AA13
  8
DEFPOINTS
 10
4124.6613312966201192
 20
163.3119117506554971
 30
0.0
 40
0.001
  1
SHOWER DOOR
  3

  2
PRODUCT
 70
     0
1001
ACDBATTR
1070
     0
1070
     1
  0
LINE
  5
11981
  8
0
 10
4147.8904884146004406
 20
163.3104607542173881
 30
0.0
 11
4101.4378899060011463
 21
163.3104607542173881
 31
0.0
  0
LINE
  5
11982
  8
0
 10
4103.012693055600721
 20
163.9128229589173884
 30
0.0
 11
4146.3944254224998076
 21
163.9128229589173884
 31
0.0
  0
LINE
  5
11983
  8
0
 10
4121.7922678587001428
 20
163.9521930376174055
 30
0.0
 11
4121.8355749453003227
 21
163.9521930376174055
 31
0.0
  0
LINE
  5
11984
  8
0
 10
4121.5914804570011256
 20
163.9605473683174068
 30
0.0
 11
4121.8355771616998027
 21
163.9605473683174068
 31
0.0
  0
LINE
  5
11985
  8
0
 10
4121.8355749454003671
 20
164.0191221715174095
 30
0.0
 11
4146.3944254224998076
 21
164.0191221715174095
 31
0.0
  0
LINE
  5
11986
  8
0
 10
4146.3944254224998076
 20
164.0392875258174001
 30
0.0
 11
4122.028267858800973
 21
164.0392875258174001
 31
0.0
  0
LINE
  5
11987
  8
0
 10
4146.3944254224998076
 20
164.0786576046174048
 30
0.0
 11
4147.8708033752009214
 21
164.0786576046174048
 31
0.0
  0
LINE
  5
11988
  8
0
 10
4146.963858410001194
 20
164.3542481557174142
 30
0.0
 11
4147.3198131345998263
 21
164.3542481557174142
 31
0.0
  0
LINE
  5
11989
  8
0
 10
4146.9799626297008217
 20
164.3542481557174142
 30
0.0
 11
4147.6813430433003305
 21
164.3542481557174142
 31
0.0
  0
LINE
  5
1198A
  8
0
 10
4147.6477927033010928
 20
164.3542481557174142
 30
0.0
 11
4147.7119289332003973
 21
164.3542481557174142
 31
0.0
  0
LINE
  5
1198B
  8
0
 10
4122.028267858800973
 20
164.3598255836174076
 30
0.0
 11
4146.963858410001194
 21
164.3598255836174076
 31
0.0
  0
LINE
  5
1198C
  8
0
 10
4146.963858410001194
 20
164.5904686282175078
 30
0.0
 11
4122.028267858800973
 21
164.5904686282175078
 31
0.0
  0
LINE
  5
1198D
  8
0
 10
4126.6660631344002468
 20
175.0825946124174095
 30
0.0
 11
4122.0302363626997249
 21
175.0825946124174095
 31
0.0
  0
LINE
  5
1198E
  8
0
 10
4121.8530710083996382
 20
175.0825946124174095
 30
0.0
 11
4117.2172442367009353
 21
175.0825946124174095
 31
0.0
  0
LINE
  5
1198F
  8
0
 10
4120.9869292761004544
 20
175.6514922502175011
 30
0.0
 11
4121.8530710083996382
 21
175.6514922502175011
 31
0.0
  0
LINE
  5
11990
  8
0
 10
4121.6462520564000442
 20
175.6534607542174058
 30
0.0
 11
4121.1148975369997061
 21
175.6534607542174058
 31
0.0
  0
LINE
  5
11991
  8
0
 10
4120.9869292761004544
 20
175.6534607542174058
 30
0.0
 11
4121.1149036846009039
 21
175.6534607542174058
 31
0.0
  0
LINE
  5
11992
  8
0
 10
4121.6462106526996649
 20
175.6534607542174058
 30
0.0
 11
4121.7940158903011252
 21
175.6534607542174058
 31
0.0
  0
LINE
  5
11993
  8
0
 10
4121.0577954177997526
 20
175.6593662660174004
 30
0.0
 11
4120.9869292761004544
 21
175.6593662660174004
 31
0.0
  0
LINE
  5
11994
  8
0
 10
4121.0656694336003056
 20
175.6928308329175081
 30
0.0
 11
4122.0302363626997249
 21
175.6928308329175081
 31
0.0
  0
LINE
  5
11995
  8
0
 10
4121.0656694336003056
 20
176.6377127227173958
 30
0.0
 11
4122.028267858800973
 21
176.6377127227173958
 31
0.0
  0
LINE
  5
11996
  8
0
 10
4120.9869292761004544
 20
176.6751142975174105
 30
0.0
 11
4121.0577954177997526
 21
176.6751142975174105
 31
0.0
  0
LINE
  5
11997
  8
0
 10
4121.7940158903011252
 20
176.6770828014174128
 30
0.0
 11
4121.1149054535007963
 21
176.6770828014174128
 31
0.0
  0
LINE
  5
11998
  8
0
 10
4120.9869292761004544
 20
176.6770828014174128
 30
0.0
 11
4121.1149054535007963
 21
176.6770828014174128
 31
0.0
  0
LINE
  5
11999
  8
0
 10
4121.8530710083996382
 20
176.6790513053173868
 30
0.0
 11
4120.9869292761004544
 21
176.6790513053173868
 31
0.0
  0
LINE
  5
1199A
  8
0
 10
4117.2172442367009353
 20
177.2479489431175068
 30
0.0
 11
4121.8530710083996382
 21
177.2479489431175068
 31
0.0
  0
LINE
  5
1199B
  8
0
 10
4122.0302363626997249
 20
177.2479489431175068
 30
0.0
 11
4126.6660631344002468
 21
177.2479489431175068
 31
0.0
  0
LINE
  5
1199C
  8
0
 10
4101.4378899060011463
 20
163.3104607542173881
 30
0.0
 11
4101.4378899060011463
 21
242.0309331951175125
 31
0.0
  0
LINE
  5
1199D
  8
0
 10
4101.4378899060011463
 20
242.0314135101174884
 30
0.0
 11
4101.4378899060011463
 21
242.1101536676175101
 31
0.0
  0
LINE
  5
1199E
  8
0
 10
4101.4497009296010219
 20
242.0309331951175125
 30
0.0
 11
4101.4497009296010219
 21
242.0904536676175098
 31
0.0
  0
ARC
  5
1199F
  8
0
 10
4101.4694009296008517
 20
242.0904536676175098
 30
0.0
 40
0.0197
 50
90.0
 51
180.0
  0
LINE
  5
119A0
  8
0
 10
4103.012693055600721
 20
242.0904536676175098
 30
0.0
 11
4103.012693055600721
 21
242.0309331951175125
 31
0.0
  0
LINE
  5
119A1
  8
0
 10
4103.012693055600721
 20
242.0309331951175125
 30
0.0
 11
4103.012693055600721
 21
163.3104607542173881
 31
0.0
  0
LINE
  5
119A2
  8
0
 10
4103.0323780950011496
 20
241.4290513053175005
 30
0.0
 11
4103.0323780950011496
 21
242.0314135101174884
 31
0.0
  0
LINE
  5
119A3
  8
0
 10
4117.0203938430013295
 20
175.2794450061174132
 30
0.0
 11
4117.0203938430013295
 21
177.0510985494173894
 31
0.0
  0
LINE
  5
119A4
  8
0
 10
4117.0203938430013295
 20
229.1770828014174981
 30
0.0
 11
4117.0203938430013295
 21
230.9487363447175028
 31
0.0
  0
LINE
  5
119A5
  8
0
 10
4108.1504883311999947
 20
242.0314536676175123
 30
0.0
 11
4108.1504883311999947
 21
241.4290513053175005
 31
0.0
  0
ARC
  5
119A6
  8
0
 10
4108.071788331200878
 20
242.0314536676175123
 30
0.0
 40
0.0787
 50
0.0
 51
90.0
  0
LINE
  5
119A7
  8
0
 10
4120.9869292761004544
 20
230.5766891006175001
 30
0.0
 11
4120.9869292761004544
 21
229.5491300455175008
 31
0.0
  0
LINE
  5
119A8
  8
0
 10
4120.9869292761004544
 20
175.6790513053173868
 30
0.0
 11
4120.9869292761004544
 21
176.6554292581174082
 31
0.0
  0
LINE
  5
119A9
  8
0
 10
4120.9869292761004544
 20
176.6790513053173868
 30
0.0
 11
4120.9869292761004544
 21
175.6514922502175011
 31
0.0
  0
LINE
  5
119AA
  8
0
 10
4120.9869292761004544
 20
229.5766891006175001
 30
0.0
 11
4120.9869292761004544
 21
230.5530670534174078
 31
0.0
  0
LINE
  5
119AB
  8
0
 10
4121.0262993548012673
 20
230.5766891006175001
 30
0.0
 11
4121.0262993548012673
 21
230.5747205967174978
 31
0.0
  0
LINE
  5
119AC
  8
0
 10
4121.0262993548012673
 20
229.5510985494175031
 30
0.0
 11
4121.0262993548012673
 21
229.5491300455175008
 31
0.0
  0
LINE
  5
119AD
  8
0
 10
4121.0262993548012673
 20
176.6790513053173868
 30
0.0
 11
4121.0262993548012673
 21
176.6770828014174128
 31
0.0
  0
LINE
  5
119AE
  8
0
 10
4121.0262993548012673
 20
175.6534607542174058
 30
0.0
 11
4121.0262993548012673
 21
175.6514922502175011
 31
0.0
  0
LINE
  5
119AF
  8
0
 10
4121.0577954177997526
 20
175.6593662660174004
 30
0.0
 11
4121.0577954177997526
 21
176.6751142975174105
 31
0.0
  0
LINE
  5
119B0
  8
0
 10
4121.0577954177997526
 20
229.5570040612174978
 30
0.0
 11
4121.0577954177997526
 21
230.5727520927175078
 31
0.0
  0
LINE
  5
119B1
  8
0
 10
4121.0656694336003056
 20
175.6928308329175081
 30
0.0
 11
4121.0656694336003056
 21
176.6377127227173958
 31
0.0
  0
LINE
  5
119B2
  8
0
 10
4121.0656694336003056
 20
229.5904686282175078
 30
0.0
 11
4121.0656694336003056
 21
230.5353505179174931
 31
0.0
  0
LINE
  5
119B3
  8
0
 10
4121.0853544728997804
 20
230.5629095731175084
 30
0.0
 11
4121.0853544728997804
 21
230.5471615416174984
 31
0.0
  0
LINE
  5
119B4
  8
0
 10
4121.0853544728997804
 20
175.6652717778173951
 30
0.0
 11
4121.0853544728997804
 21
175.6810198093174051
 31
0.0
  0
LINE
  5
119B5
  8
0
 10
4121.0853544728997804
 20
176.6652717778175088
 30
0.0
 11
4121.0853544728997804
 21
176.6495237463174988
 31
0.0
  0
LINE
  5
119B6
  8
0
 10
4121.0853544728997804
 20
229.5629095731175084
 30
0.0
 11
4121.0853544728997804
 21
229.5786576046174901
 31
0.0
  0
LINE
  5
119B7
  8
0
 10
4121.2351737390999915
 20
175.6514922502175011
 30
0.0
 11
4121.2351737390999915
 21
175.6534607542174058
 31
0.0
  0
LINE
  5
119B8
  8
0
 10
4121.2351737390999915
 20
229.5491300455175008
 30
0.0
 11
4121.2351737390999915
 21
229.5510985494175031
 31
0.0
  0
LINE
  5
119B9
  8
0
 10
4121.2469847626998671
 20
229.5510985494175031
 30
0.0
 11
4121.2469847626998671
 21
229.5491300455175008
 31
0.0
  0
LINE
  5
119BA
  8
0
 10
4121.2469847626998671
 20
175.6534607542174058
 30
0.0
 11
4121.2469847626998671
 21
175.6514922502175011
 31
0.0
  0
LINE
  5
119BB
  8
0
 10
4121.257697031999669
 20
229.5510985494175031
 30
0.0
 11
4121.257697031999669
 21
229.5491300455175008
 31
0.0
  0
LINE
  5
119BC
  8
0
 10
4121.257697031999669
 20
175.6534607542174058
 30
0.0
 11
4121.257697031999669
 21
175.6514922502175011
 31
0.0
  0
LINE
  5
119BD
  8
0
 10
4121.2837924738996662
 20
176.6770828014174128
 30
0.0
 11
4121.2837924738996662
 21
176.6790513053173868
 31
0.0
  0
LINE
  5
119BE
  8
0
 10
4121.2837924738996662
 20
230.5747205967174978
 30
0.0
 11
4121.2837924738996662
 21
230.5766891006175001
 31
0.0
  0
LINE
  5
119BF
  8
0
 10
4121.2956034975004513
 20
230.5766891006175001
 30
0.0
 11
4121.2956034975004513
 21
230.5747205967174978
 31
0.0
  0
LINE
  5
119C0
  8
0
 10
4121.2956034975004513
 20
176.6790513053173868
 30
0.0
 11
4121.2956034975004513
 21
176.6770828014174128
 31
0.0
  0
LINE
  5
119C1
  8
0
 10
4121.3018899060007243
 20
230.5353505179174931
 30
0.0
 11
4121.3018899060007243
 21
229.5904686282175078
 31
0.0
  0
LINE
  5
119C2
  8
0
 10
4121.3153421738998077
 20
230.5766891006175001
 30
0.0
 11
4121.3153421738998077
 21
230.5747205967174978
 31
0.0
  0
LINE
  5
119C3
  8
0
 10
4121.3153421738998077
 20
176.6790513053173868
 30
0.0
 11
4121.3153421738998077
 21
176.6770828014174128
 31
0.0
  0
LINE
  5
119C4
  8
0
 10
4144.5622883314008504
 20
197.4448118565175037
 30
0.0
 11
4145.2709492907997628
 21
197.4448118565175037
 31
0.0
  0
LINE
  5
119C5
  8
0
 10
4121.4459179531004338
 20
176.6770828014174128
 30
0.0
 11
4121.4459179531004338
 21
176.6790513053173868
 31
0.0
  0
LINE
  5
119C6
  8
0
 10
4121.4459179531004338
 20
230.5747205967174978
 30
0.0
 11
4121.4459179531004338
 21
230.5766891006175001
 31
0.0
  0
LINE
  5
119C7
  8
0
 10
4121.4656566294006552
 20
230.5766891006175001
 30
0.0
 11
4121.4656566294006552
 21
230.5747205967174978
 31
0.0
  0
LINE
  5
119C8
  8
0
 10
4121.4656566294006552
 20
176.6790513053173868
 30
0.0
 11
4121.4656566294006552
 21
176.6770828014174128
 31
0.0
  0
LINE
  5
119C9
  8
0
 10
4121.4774676530996658
 20
230.5766891006175001
 30
0.0
 11
4121.4774676530996658
 21
230.5747205967174978
 31
0.0
  0
LINE
  5
119CA
  8
0
 10
4121.4774676530996658
 20
176.6790513053173868
 30
0.0
 11
4121.4774676530996658
 21
176.6770828014174128
 31
0.0
  0
LINE
  5
119CB
  8
0
 10
4121.503563094999663
 20
175.6514922502175011
 30
0.0
 11
4121.503563094999663
 21
175.6534607542174058
 31
0.0
  0
LINE
  5
119CC
  8
0
 10
4121.503563094999663
 20
229.5491300455175008
 30
0.0
 11
4121.503563094999663
 21
229.5510985494175031
 31
0.0
  0
LINE
  5
119CD
  8
0
 10
4121.5142753643003743
 20
229.5510985494175031
 30
0.0
 11
4121.5142753643003743
 21
229.5491300455175008
 31
0.0
  0
LINE
  5
119CE
  8
0
 10
4121.5142753643003743
 20
175.6534607542174058
 30
0.0
 11
4121.5142753643003743
 21
175.6514922502175011
 31
0.0
  0
LINE
  5
119CF
  8
0
 10
4121.5260863879011595
 20
229.5510985494175031
 30
0.0
 11
4121.5260863879011595
 21
229.5491300455175008
 31
0.0
  0
LINE
  5
119D0
  8
0
 10
4121.5260863879011595
 20
175.6534607542174058
 30
0.0
 11
4121.5260863879011595
 21
175.6514922502175011
 31
0.0
  0
LINE
  5
119D1
  8
0
 10
4121.591480457200305
 20
163.9605473683174068
 30
0.0
 11
4121.591480457200305
 21
175.0825946124174095
 31
0.0
  0
LINE
  5
119D2
  8
0
 10
4121.591480457200305
 20
177.2479489431175068
 30
0.0
 11
4121.591480457200305
 21
228.9802324077174944
 31
0.0
  0
LINE
  5
119D3
  8
0
 10
4121.591480457200305
 20
231.1455867384175065
 30
0.0
 11
4121.591480457200305
 21
241.8739331951175018
 31
0.0
  0
LINE
  5
119D4
  8
0
 10
4121.6759056540004167
 20
230.5629095731175084
 30
0.0
 11
4121.6759056540004167
 21
230.5471615416174984
 31
0.0
  0
LINE
  5
119D5
  8
0
 10
4121.6759056540004167
 20
175.6652717778173951
 30
0.0
 11
4121.6759056540004167
 21
175.6810198093174051
 31
0.0
  0
LINE
  5
119D6
  8
0
 10
4121.6759056540004167
 20
176.6652717778175088
 30
0.0
 11
4121.6759056540004167
 21
176.6495237463174988
 31
0.0
  0
LINE
  5
119D7
  8
0
 10
4121.6759056540004167
 20
229.5629095731175084
 30
0.0
 11
4121.6759056540004167
 21
229.5786576046174901
 31
0.0
  0
LINE
  5
119D8
  8
0
 10
4121.7528977799011045
 20
163.9128229589173884
 30
0.0
 11
4121.7528977799011045
 21
163.9605473683174068
 31
0.0
  0
LINE
  5
119D9
  8
0
 10
4121.7688782608011024
 20
177.2479489431175068
 30
0.0
 11
4121.7688780430007682
 21
228.9802324077174944
 31
0.0
  0
LINE
  5
119DA
  8
0
 10
4121.7688780705011595
 20
231.1455867384175065
 30
0.0
 11
4121.7688780421003685
 21
241.8739331951175018
 31
0.0
  0
LINE
  5
119DB
  8
0
 10
4121.7688780420003241
 20
163.9605473683174068
 30
0.0
 11
4121.7688782578006794
 21
175.0825946124174095
 31
0.0
  0
LINE
  5
119DC
  8
0
 10
4121.7700119532009921
 20
175.6534607542174058
 30
0.0
 11
4121.7700119532009921
 21
175.6928308329175081
 31
0.0
  0
LINE
  5
119DD
  8
0
 10
4121.7700119532009921
 20
176.6377127227173958
 30
0.0
 11
4121.7700119532009921
 21
176.6770828014174128
 31
0.0
  0
LINE
  5
119DE
  8
0
 10
4121.7700119532009921
 20
229.5510985494175031
 30
0.0
 11
4121.7700119532009921
 21
229.5904686282175078
 31
0.0
  0
LINE
  5
119DF
  8
0
 10
4121.7700119532009921
 20
230.5353505179174931
 30
0.0
 11
4121.7700119532009921
 21
230.5747205967174978
 31
0.0
  0
LINE
  5
119E0
  8
0
 10
4121.7922678588010967
 20
175.6534607542174058
 30
0.0
 11
4121.7922678588010967
 21
175.6928308329175081
 31
0.0
  0
LINE
  5
119E1
  8
0
 10
4121.7922678588010967
 20
176.6377127227173958
 30
0.0
 11
4121.7922678588010967
 21
176.6770828014174128
 31
0.0
  0
LINE
  5
119E2
  8
0
 10
4121.7922678587001428
 20
163.9605473683174068
 30
0.0
 11
4121.7922678587001428
 21
163.9128229589173884
 31
0.0
  0
LINE
  5
119E3
  8
0
 10
4121.7922678588010967
 20
229.5510985494175031
 30
0.0
 11
4121.7922678588010967
 21
229.5904686282175078
 31
0.0
  0
LINE
  5
119E4
  8
0
 10
4121.7922678588010967
 20
230.5353505179174931
 30
0.0
 11
4121.7922678588010967
 21
230.5747205967174978
 31
0.0
  0
LINE
  5
119E5
  8
0
 10
4121.7940158903011252
 20
230.5747205967174978
 30
0.0
 11
4121.7940158903011252
 21
230.5747205967174978
 31
0.0
  0
LINE
  5
119E6
  8
0
 10
4121.7940158903011252
 20
229.5510985494175031
 30
0.0
 11
4121.7940158903011252
 21
229.5491300455175008
 31
0.0
  0
LINE
  5
119E7
  8
0
 10
4121.7940158903011252
 20
176.6790513053173868
 30
0.0
 11
4121.7940158903011252
 21
176.6770828014174128
 31
0.0
  0
LINE
  5
119E8
  8
0
 10
4121.7940158903011252
 20
175.6534607542174058
 30
0.0
 11
4121.7940158903011252
 21
175.6514922502175011
 31
0.0
  0
LINE
  5
119E9
  8
0
 10
4121.8328662289995918
 20
175.6514922502175011
 30
0.0
 11
4121.8328662076010005
 21
175.6928308329175081
 31
0.0
  0
LINE
  5
119EA
  8
0
 10
4121.8328663598013009
 20
229.5491300455175008
 30
0.0
 11
4121.8328663597003469
 21
229.5904686282175078
 31
0.0
  0
LINE
  5
119EB
  8
0
 10
4121.8328663584998139
 20
230.5353505179174931
 30
0.0
 11
4121.832866358400679
 21
230.5766891006175001
 31
0.0
  0
LINE
  5
119EC
  8
0
 10
4121.8355749454003671
 20
241.8739331951175018
 30
0.0
 11
4121.8355749454003671
 21
231.1455867384175065
 31
0.0
  0
LINE
  5
119ED
  8
0
 10
4121.8355749454003671
 20
230.5766891006175001
 30
0.0
 11
4121.8355749454003671
 21
230.5353505179174931
 31
0.0
  0
LINE
  5
119EE
  8
0
 10
4121.8355749454003671
 20
229.5904686282175078
 30
0.0
 11
4121.8355749454003671
 21
229.5491300455175008
 31
0.0
  0
LINE
  5
119EF
  8
0
 10
4121.8355749454003671
 20
228.9802324077174944
 30
0.0
 11
4121.8355749454003671
 21
177.2479489431175068
 31
0.0
  0
LINE
  5
119F0
  8
0
 10
4121.8355749454003671
 20
176.6790513053173868
 30
0.0
 11
4121.8355749454003671
 21
176.6377127227173958
 31
0.0
  0
LINE
  5
119F1
  8
0
 10
4121.8355749454003671
 20
175.6928308329175081
 30
0.0
 11
4121.8355749454003671
 21
175.6514922502175011
 31
0.0
  0
LINE
  5
119F2
  8
0
 10
4121.8355749454003671
 20
175.0825946124174095
 30
0.0
 11
4121.8355749454003671
 21
164.0191221715174095
 31
0.0
  0
LINE
  5
119F3
  8
0
 10
4121.8355749453003227
 20
164.0191221715174095
 30
0.0
 11
4121.8355749453003227
 21
163.9128229589173884
 31
0.0
  0
LINE
  5
119F4
  8
0
 10
4121.8530710083996382
 20
175.0825946124174095
 30
0.0
 11
4121.8530710083996382
 21
175.6514922502175011
 31
0.0
  0
LINE
  5
119F5
  8
0
 10
4121.8530710083996382
 20
176.6790513053173868
 30
0.0
 11
4121.8530710083996382
 21
177.2479489431175068
 31
0.0
  0
LINE
  5
119F6
  8
0
 10
4121.8530710083996382
 20
228.9802324077174944
 30
0.0
 11
4121.8530710083996382
 21
229.5491300455175008
 31
0.0
  0
LINE
  5
119F7
  8
0
 10
4121.8530710083996382
 20
230.5766891006175001
 30
0.0
 11
4121.8530710083996382
 21
231.1455867384175065
 31
0.0
  0
LINE
  5
119F8
  8
0
 10
4122.0088032918010867
 20
164.0191221715174095
 30
0.0
 11
4122.0088032918010867
 21
175.6928308329175081
 31
0.0
  0
LINE
  5
119F9
  8
0
 10
4122.0088032918010867
 20
230.5353505179174931
 30
0.0
 11
4122.0088032918010867
 21
241.8739331951175018
 31
0.0
  0
LINE
  5
119FA
  8
0
 10
4122.028267858800973
 20
229.5904686282175078
 30
0.0
 11
4122.028267858800973
 21
176.6377127227173958
 31
0.0
  0
LINE
  5
119FB
  8
0
 10
4122.028267858800973
 20
175.6928308329175081
 30
0.0
 11
4122.028267858800973
 21
164.5904686282175078
 31
0.0
  0
LINE
  5
119FC
  8
0
 10
4122.0282678587009286
 20
164.5904686282175078
 30
0.0
 11
4122.0282678587009286
 21
164.0392875258174001
 31
0.0
  0
LINE
  5
119FD
  8
0
 10
4122.0302363626997249
 20
175.6928308329175081
 30
0.0
 11
4122.0302363626997249
 21
175.0825946124174095
 31
0.0
  0
LINE
  5
119FE
  8
0
 10
4122.0302363626997249
 20
228.9802324077174944
 30
0.0
 11
4122.0302363626997249
 21
229.5904686282175078
 31
0.0
  0
LINE
  5
119FF
  8
0
 10
4122.0302363626997249
 20
230.5353505179174931
 30
0.0
 11
4122.0302363626997249
 21
231.1455867384175065
 31
0.0
  0
LINE
  5
11A00
  8
0
 10
4122.1269135279007969
 20
164.0191221715174095
 30
0.0
 11
4122.1269135279007969
 21
164.0392875258174001
 31
0.0
  0
LINE
  5
11A01
  8
0
 10
4126.8629135281007621
 20
230.9487363447175028
 30
0.0
 11
4126.8629135281007621
 21
229.1770828014174981
 31
0.0
  0
LINE
  5
11A02
  8
0
 10
4126.8629135281007621
 20
177.0510985494173894
 30
0.0
 11
4126.8629135281007621
 21
175.2794450061174132
 31
0.0
  0
LINE
  5
11A03
  8
0
 10
4145.2709497484011081
 20
208.7833945337175123
 30
0.0
 11
4144.5622883314008504
 21
208.7833945337175123
 31
0.0
  0
LINE
  5
11A04
  8
0
 10
4144.5229182524999487
 20
197.4841819353173946
 30
0.0
 11
4144.5229182524999487
 21
208.7440244549175077
 31
0.0
  0
LINE
  5
11A05
  8
0
 10
4145.3103198273011003
 20
197.4841819353173946
 30
0.0
 11
4145.3103198273011003
 21
208.7440244549175077
 31
0.0
  0
LINE
  5
11A06
  8
0
 10
4146.3944254224998076
 20
164.0786576046174048
 30
0.0
 11
4146.3944254224998076
 21
163.3109410691174048
 31
0.0
  0
LINE
  5
11A07
  8
0
 10
4146.9638091973010887
 20
164.5904686282175078
 30
0.0
 11
4146.9638091973010887
 21
241.8739331951175018
 31
0.0
  0
LINE
  5
11A08
  8
0
 10
4146.963858410001194
 20
164.3542481557174142
 30
0.0
 11
4146.963858410001194
 21
164.5904686282175078
 31
0.0
  0
LINE
  5
11A09
  8
0
 10
4147.319813134299693
 20
241.8739331951175018
 30
0.0
 11
4147.319813134299693
 21
164.3542481557174142
 31
0.0
  0
LINE
  5
11A0A
  8
0
 10
4147.6477927033010928
 20
164.3542481557174142
 30
0.0
 11
4147.6477927033010928
 21
241.8739331951175018
 31
0.0
  0
LINE
  5
11A0B
  8
0
 10
4147.6951888147996215
 20
164.0786576046174048
 30
0.0
 11
4147.6951888147996215
 21
164.3188150849175031
 31
0.0
  0
LINE
  5
11A0C
  8
0
 10
4147.7068478215005598
 20
241.8739331951175018
 30
0.0
 11
4147.7068478215005598
 21
164.3542481557174142
 31
0.0
  0
LINE
  5
11A0D
  8
0
 10
4147.7119289332003973
 20
164.3188150849175031
 30
0.0
 11
4147.7119289332003973
 21
164.3542481557174142
 31
0.0
  0
LINE
  5
11A0E
  8
0
 10
4147.7979513644995677
 20
164.0786576046174048
 30
0.0
 11
4147.7979513644995677
 21
241.8739331951175018
 31
0.0
  0
LINE
  5
11A0F
  8
0
 10
4147.8904884146004406
 20
164.0589725652174025
 30
0.0
 11
4147.8904884146004406
 21
163.3104607542173881
 31
0.0
  0
LINE
  5
11A10
  8
0
 10
4126.6660631344002468
 20
228.9802324077174944
 30
0.0
 11
4122.0302363626997249
 21
228.9802324077174944
 31
0.0
  0
LINE
  5
11A11
  8
0
 10
4121.8530710083996382
 20
228.9802324077174944
 30
0.0
 11
4117.2172442367009353
 21
228.9802324077174944
 31
0.0
  0
LINE
  5
11A12
  8
0
 10
4120.9869292761004544
 20
229.5491300455175008
 30
0.0
 11
4121.8530710083996382
 21
229.5491300455175008
 31
0.0
  0
LINE
  5
11A13
  8
0
 10
4121.6462520564000442
 20
229.5510985494175031
 30
0.0
 11
4121.1148975369997061
 21
229.5510985494175031
 31
0.0
  0
LINE
  5
11A14
  8
0
 10
4120.9869292761004544
 20
229.5510985494175031
 30
0.0
 11
4121.1149036846009039
 21
229.5510985494175031
 31
0.0
  0
LINE
  5
11A15
  8
0
 10
4121.6462106526996649
 20
229.5510985494175031
 30
0.0
 11
4121.7940158903011252
 21
229.5510985494175031
 31
0.0
  0
LINE
  5
11A16
  8
0
 10
4121.0577954177997526
 20
229.5570040612174978
 30
0.0
 11
4120.9869292761004544
 21
229.5570040612174978
 31
0.0
  0
LINE
  5
11A17
  8
0
 10
4120.9869292761004544
 20
229.5766891006175001
 30
0.0
 11
4121.0577954177997526
 21
229.5766891006175001
 31
0.0
  0
LINE
  5
11A18
  8
0
 10
4121.0656694336003056
 20
229.5904686282175078
 30
0.0
 11
4122.0302363626997249
 21
229.5904686282175078
 31
0.0
  0
LINE
  5
11A19
  8
0
 10
4121.0656694336003056
 20
230.5353505179174931
 30
0.0
 11
4122.0302363626997249
 21
230.5353505179174931
 31
0.0
  0
LINE
  5
11A1A
  8
0
 10
4121.0577954177997526
 20
230.5530670534174078
 30
0.0
 11
4120.9869292761004544
 21
230.5530670534174078
 31
0.0
  0
LINE
  5
11A1B
  8
0
 10
4120.9869292761004544
 20
230.5727520927175078
 30
0.0
 11
4121.0577954177997526
 21
230.5727520927175078
 31
0.0
  0
LINE
  5
11A1C
  8
0
 10
4121.7940158903011252
 20
230.5747205967174978
 30
0.0
 11
4121.1149054535007963
 21
230.5747205967174978
 31
0.0
  0
LINE
  5
11A1D
  8
0
 10
4120.9869292761004544
 20
230.5747205967174978
 30
0.0
 11
4121.1149054535007963
 21
230.5747205967174978
 31
0.0
  0
LINE
  5
11A1E
  8
0
 10
4121.8530710083996382
 20
230.5766891006175001
 30
0.0
 11
4120.9869292761004544
 21
230.5766891006175001
 31
0.0
  0
LINE
  5
11A1F
  8
0
 10
4117.2172442367009353
 20
231.1455867384175065
 30
0.0
 11
4121.8530710083996382
 21
231.1455867384175065
 31
0.0
  0
LINE
  5
11A20
  8
0
 10
4122.0302363626997249
 20
231.1455867384175065
 30
0.0
 11
4126.6660631344002468
 21
231.1455867384175065
 31
0.0
  0
LINE
  5
11A21
  8
0
 10
4108.071748173701053
 20
241.3503111479174947
 30
0.0
 11
4103.1111182525010008
 21
241.3503111479174947
 31
0.0
  0
LINE
  5
11A22
  8
0
 10
4121.591480457200305
 20
241.8345631164175131
 30
0.0
 11
4108.1504883311999947
 21
241.8345631164175131
 31
0.0
  0
LINE
  5
11A23
  8
0
 10
4103.0323780950011496
 20
241.8345631164175131
 30
0.0
 11
4103.012693055600721
 21
241.8345631164175131
 31
0.0
  0
LINE
  5
11A24
  8
0
 10
4147.7979513644995677
 20
241.8739331951175018
 30
0.0
 11
4108.1504883311999947
 21
241.8739331951175018
 31
0.0
  0
LINE
  5
11A25
  8
0
 10
4103.0323780950011496
 20
241.8739331951175018
 30
0.0
 11
4103.012693055600721
 21
241.8739331951175018
 31
0.0
  0
LINE
  5
11A26
  8
0
 10
4103.012693055600721
 20
242.0255079983174937
 30
0.0
 11
4103.0323780950011496
 21
242.0255079983174937
 31
0.0
  0
LINE
  5
11A27
  8
0
 10
4101.4595285665000119
 20
242.0309331951175125
 30
0.0
 11
4103.012693055600721
 21
242.0309331951175125
 31
0.0
  0
LINE
  5
11A28
  8
0
 10
4103.012693055600721
 20
242.0309331951175125
 30
0.0
 11
4101.4378899060011463
 21
242.0309331951175125
 31
0.0
  0
LINE
  5
11A29
  8
0
 10
4101.4378899060011463
 20
242.0314135101174884
 30
0.0
 11
4101.4497009296010219
 21
242.0314135101174884
 31
0.0
  0
LINE
  5
11A2A
  8
0
 10
4103.0323780950011496
 20
242.0314135101174884
 30
0.0
 11
4103.012693055600721
 21
242.0314135101174884
 31
0.0
  0
LINE
  5
11A2B
  8
0
 10
4101.4378899060011463
 20
242.1101536676175101
 30
0.0
 11
4108.071788331200878
 21
242.1101536676175101
 31
0.0
  0
ARC
  5
11A2C
  8
0
 10
4102.9929930555999817
 20
242.0904536676175098
 30
0.0
 40
0.0197
 50
0.0
 51
90.0
  0
ARC
  5
11A2D
  8
0
 10
4117.2172442367009353
 20
177.0510985494173894
 30
0.0
 40
0.1968503937
 50
90.0
 51
180.0
  0
ARC
  5
11A2E
  8
0
 10
4117.2172442367009353
 20
175.2794450061174132
 30
0.0
 40
0.1968503937
 50
180.0
 51
270.0
  0
ARC
  5
11A2F
  8
0
 10
4121.6640946303996316
 20
175.6652717778173951
 30
0.0
 40
0.0118110236
 50
270.0
 51
0.0
  0
ARC
  5
11A30
  8
0
 10
4121.0971654966006099
 20
175.6652717778173951
 30
0.0
 40
0.0118110236
 50
180.0
 51
270.0
  0
ARC
  5
11A31
  8
0
 10
4121.6640946303996316
 20
175.6810198093174051
 30
0.0
 40
0.0118110236
 50
0.0
 51
90.0
  0
ARC
  5
11A32
  8
0
 10
4121.0971654966006099
 20
175.6810198093174051
 30
0.0
 40
0.0118110236
 50
90.0
 51
180.0
  0
ARC
  5
11A33
  8
0
 10
4121.0971654966006099
 20
176.6652717778175088
 30
0.0
 40
0.0118110236
 50
90.0
 51
180.0
  0
ARC
  5
11A34
  8
0
 10
4121.6640946303996316
 20
176.6652717778175088
 30
0.0
 40
0.0118110236
 50
0.0
 51
90.0
  0
ARC
  5
11A35
  8
0
 10
4121.0971654966006099
 20
176.6495237463174988
 30
0.0
 40
0.0118110236
 50
180.0
 51
270.0
  0
ARC
  5
11A36
  8
0
 10
4121.6640946303996316
 20
176.6495237463174988
 30
0.0
 40
0.0118110236
 50
270.0
 51
0.0
  0
ARC
  5
11A37
  8
0
 10
4117.2172442367009353
 20
230.9487363447175028
 30
0.0
 40
0.1968503937
 50
90.0
 51
180.0
  0
ARC
  5
11A38
  8
0
 10
4117.2172442367009353
 20
229.1770828014174981
 30
0.0
 40
0.1968503937
 50
180.0
 51
270.0
  0
ARC
  5
11A39
  8
0
 10
4103.1111182525010008
 20
241.4290513053175005
 30
0.0
 40
0.0787401575
 50
180.0
 51
270.0
  0
ARC
  5
11A3A
  8
0
 10
4108.071748173701053
 20
241.4290513053175005
 30
0.0
 40
0.0787401575
 50
270.0
 51
0.0
  0
ARC
  5
11A3B
  8
0
 10
4103.1111182525010008
 20
242.0314135101174884
 30
0.0
 40
0.0787401575
 50
90.0
 51
180.0
  0
ARC
  5
11A3C
  8
0
 10
4121.6640946303996316
 20
229.5629095731175084
 30
0.0
 40
0.0118110236
 50
270.0
 51
0.0
  0
ARC
  5
11A3D
  8
0
 10
4121.0971654966006099
 20
229.5629095731175084
 30
0.0
 40
0.0118110236
 50
180.0
 51
270.0
  0
ARC
  5
11A3E
  8
0
 10
4121.6640946303996316
 20
229.5786576046174901
 30
0.0
 40
0.0118110236
 50
0.0
 51
90.0
  0
ARC
  5
11A3F
  8
0
 10
4121.0971654966006099
 20
229.5786576046174901
 30
0.0
 40
0.0118110236
 50
90.0
 51
180.0
  0
ARC
  5
11A40
  8
0
 10
4121.0971654966006099
 20
230.5629095731175084
 30
0.0
 40
0.0118110236
 50
90.0
 51
180.0
  0
ARC
  5
11A41
  8
0
 10
4121.6640946303996316
 20
230.5629095731175084
 30
0.0
 40
0.0118110236
 50
0.0
 51
90.0
  0
ARC
  5
11A42
  8
0
 10
4121.0971654966006099
 20
230.5471615416174984
 30
0.0
 40
0.0118110236
 50
180.0
 51
270.0
  0
ARC
  5
11A43
  8
0
 10
4121.6640946303996316
 20
230.5471615416174984
 30
0.0
 40
0.0118110236
 50
270.0
 51
0.0
  0
ARC
  5
11A44
  8
0
 10
4126.6660631344002468
 20
175.2794450061174132
 30
0.0
 40
0.1968503937
 50
270.0
 51
0.0
  0
ARC
  5
11A45
  8
0
 10
4126.6660631344002468
 20
177.0510985494173894
 30
0.0
 40
0.1968503937
 50
0.0
 51
90.0
  0
ARC
  5
11A46
  8
0
 10
4145.2709497485011525
 20
197.4841819353173946
 30
0.0
 40
0.0393700787
 50
270.0
 51
0.0
  0
ARC
  5
11A47
  8
0
 10
4144.5622883311998521
 20
197.4841819353173946
 30
0.0
 40
0.0393700787
 50
180.0
 51
270.0
  0
ARC
  5
11A48
  8
0
 10
4147.8708033752009214
 20
164.0589725652174025
 30
0.0
 40
0.0196850394
 50
0.0
 51
90.0
  0
ARC
  5
11A49
  8
0
 10
4126.6660631344002468
 20
229.1770828014174981
 30
0.0
 40
0.1968503937
 50
270.0
 51
0.0
  0
ARC
  5
11A4A
  8
0
 10
4126.6660631344002468
 20
230.9487363447175028
 30
0.0
 40
0.1968503937
 50
0.0
 51
90.0
  0
ARC
  5
11A4B
  8
0
 10
4145.2709497485011525
 20
208.7440244549175077
 30
0.0
 40
0.0393700787
 50
0.0
 51
90.0
  0
ARC
  5
11A4C
  8
0
 10
4144.5622883311998521
 20
208.7440244549175077
 30
0.0
 40
0.0393700787
 50
90.0
 51
180.0
  0
LINE
  5
11A4E
  8
0
 10
4147.7119289332003973
 20
164.3188150849175031
 30
0.0
 11
4122.0282678587009286
 21
164.3188150849175031
 31
0.0
  0
ENDSEC
  0
EOF
