  0
SECTION
  2
HEADER
  9
$ACADVER
  1
AC1009
  9
$INSBASE
 10
4275.5919574924928384
 20
151.4526476766318126
 30
0.0
  9
$EXTMIN
 10
4273.2766713722721761
 20
151.4423252247653977
 30
-0.0015258207003583
  9
$EXTMAX
 10
4280.7881962188330363
 20
230.2676632020684906
 30
0.0000000349246037
  9
$LIMMIN
 10
0.0
 20
0.0
  9
$LIMMAX
 10
11.6929133858000007
 20
8.2677165353999982
  9
$ORTHOMODE
 70
     0
  9
$REGENMODE
 70
     1
  9
$FILLMODE
 70
     1
  9
$QTEXTMODE
 70
     0
  9
$MIRRTEXT
 70
     0
  9
$DRAGMODE
 70
     2
  9
$LTSCALE
 40
0.6431102362
  9
$OSMODE
 70
  4095
  9
$ATTMODE
 70
     1
  9
$TEXTSIZE
 40
0.2
  9
$TRACEWID
 40
0.05
  9
$TEXTSTYLE
  7
STANDARD
  9
$CLAYER
  8
0
  9
$CELTYPE
  6
BYLAYER
  9
$CECOLOR
 62
   256
  9
$DIMSCALE
 40
1.0
  9
$DIMASZ
 40
0.1875
  9
$DIMEXO
 40
0.0625
  9
$DIMDLI
 40
0.4443307087
  9
$DIMRND
 40
0.0
  9
$DIMDLE
 40
0.0
  9
$DIMEXE
 40
0.125
  9
$DIMTP
 40
0.01
  9
$DIMTM
 40
0.01
  9
$DIMTXT
 40
2.0
  9
$DIMCEN
 40
0.1052362205
  9
$DIMTSZ
 40
0.0
  9
$DIMTOL
 70
     1
  9
$DIMLIM
 70
     0
  9
$DIMTIH
 70
     1
  9
$DIMTOH
 70
     1
  9
$DIMSE1
 70
     0
  9
$DIMSE2
 70
     0
  9
$DIMTAD
 70
     0
  9
$DIMZIN
 70
     0
  9
$DIMBLK
  1

  9
$DIMASO
 70
     1
  9
$DIMSHO
 70
     1
  9
$DIMPOST
  1
\X
  9
$DIMAPOST
  1

  9
$DIMALT
 70
     1
  9
$DIMALTD
 70
     2
  9
$DIMALTF
 40
25.3999999999999986
  9
$DIMLFAC
 40
1.0
  9
$DIMTOFL
 70
     0
  9
$DIMTVP
 40
0.0
  9
$DIMTIX
 70
     0
  9
$DIMSOXD
 70
     0
  9
$DIMSAH
 70
     0
  9
$DIMBLK1
  1

  9
$DIMBLK2
  1

  9
$DIMSTYLE
  2
STANDARD
  9
$DIMCLRD
 70
     0
  9
$DIMCLRE
 70
     0
  9
$DIMCLRT
 70
     0
  9
$DIMTFAC
 40
1.0
  9
$DIMGAP
 40
0.09
  9
$LUNITS
 70
     2
  9
$LUPREC
 70
     4
  9
$SKETCHINC
 40
0.1
  9
$FILLETRAD
 40
0.0
  9
$AUNITS
 70
     0
  9
$AUPREC
 70
     0
  9
$MENU
  1
.
  9
$ELEVATION
 40
0.0
  9
$PELEVATION
 40
0.0
  9
$THICKNESS
 40
0.0
  9
$LIMCHECK
 70
     0
  9
$BLIPMODE
 70
     0
  9
$CHAMFERA
 40
0.0
  9
$CHAMFERB
 40
0.0
  9
$SKPOLY
 70
     0
  9
$TDCREATE
 40
2458060.468368056230247
  9
$TDUPDATE
 40
2459548.6431712959893048
  9
$TDINDWG
 40
0.7507709491
  9
$TDUSRTIMER
 40
0.7507709491
  9
$USRTIMER
 70
     1
  9
$ANGBASE
 50
0.0
  9
$ANGDIR
 70
     0
  9
$PDMODE
 70
     0
  9
$PDSIZE
 40
0.3125
  9
$PLINEWID
 40
0.0
  9
$COORDS
 70
     1
  9
$SPLFRAME
 70
     0
  9
$SPLINETYPE
 70
     6
  9
$SPLINESEGS
 70
     8
  9
$ATTDIA
 70
     1
  9
$ATTREQ
 70
     1
  9
$HANDLING
 70
     1
  9
$HANDSEED
  5
120BF
  9
$SURFTAB1
 70
     6
  9
$SURFTAB2
 70
     6
  9
$SURFTYPE
 70
     6
  9
$SURFU
 70
     6
  9
$SURFV
 70
     6
  9
$UCSNAME
  2

  9
$UCSORG
 10
0.0
 20
0.0
 30
0.0
  9
$UCSXDIR
 10
1.0
 20
0.0
 30
0.0
  9
$UCSYDIR
 10
0.0
 20
1.0
 30
0.0
  9
$PUCSNAME
  2

  9
$PUCSORG
 10
0.0
 20
0.0
 30
0.0
  9
$PUCSXDIR
 10
1.0
 20
0.0
 30
0.0
  9
$PUCSYDIR
 10
0.0
 20
1.0
 30
0.0
  9
$USERI1
 70
     0
  9
$USERI2
 70
     0
  9
$USERI3
 70
     0
  9
$USERI4
 70
     0
  9
$USERI5
 70
     0
  9
$USERR1
 40
0.0
  9
$USERR2
 40
0.0
  9
$USERR3
 40
0.0
  9
$USERR4
 40
0.0
  9
$USERR5
 40
0.0
  9
$WORLDVIEW
 70
     1
  9
$SHADEDGE
 70
     3
  9
$SHADEDIF
 70
    70
  9
$TILEMODE
 70
     1
  9
$MAXACTVP
 70
    64
  9
$PLIMCHECK
 70
     0
  9
$PEXTMIN
 10
1.0000000000000000E+20
 20
1.0000000000000000E+20
 30
1.0000000000000000E+20
  9
$PEXTMAX
 10
-1.0000000000000000E+20
 20
-1.0000000000000000E+20
 30
-1.0000000000000000E+20
  9
$PLIMMIN
 10
0.0
 20
0.0
  9
$PLIMMAX
 10
12.0
 20
9.0
  9
$UNITMODE
 70
     0
  9
$VISRETAIN
 70
     1
  9
$PLINEGEN
 70
     0
  9
$PSLTSCALE
 70
     1
  0
ENDSEC
  0
SECTION
  2
TABLES
  0
TABLE
  2
VPORT
 70
     1
  0
VPORT
  2
*ACTIVE
 70
     0
 10
0.0
 20
0.0
 11
1.0
 21
1.0
 12
632.9566281314899925
 22
30.9107537136193606
 13
0.0
 23
0.0
 14
1.0
 24
1.0
 15
0.0
 25
0.0
 16
0.0
 26
0.0
 36
26.6346482412083887
 17
3644.0758056640620453
 27
159.9442404997975871
 37
0.0
 40
79.5058444922150613
 41
2.7247838616714688
 42
50.0
 43
0.0
 44
0.0
 50
0.0
 51
0.0
 71
     0
 72
   100
 73
     1
 74
     1
 75
     0
 76
     0
 77
     0
 78
     0
  0
ENDTAB
  0
TABLE
  2
LTYPE
 70
     2
  0
LTYPE
  2
CONTINUOUS
 70
     0
  3
Solid line
 72
    65
 73
     0
 40
0.0
  0
LTYPE
  2
PHANTOM2
 70
     0
  3
___ _ _ ___ _ _ ___ _ _ ___ _ _
 72
    65
 73
     6
 40
1.25
 49
0.625
 49
-0.125
 49
0.125
 49
-0.125
 49
0.125
 49
-0.125
  0
ENDTAB
  0
TABLE
  2
LAYER
 70
     2
  0
LAYER
  2
0
 70
     0
 62
   255
  6
CONTINUOUS
  0
LAYER
  2
DEFPOINTS
 70
     0
 62
     7
  6
CONTINUOUS
  0
ENDTAB
  0
TABLE
  2
STYLE
 70
     1
  0
STYLE
  2
STANDARD
 70
     0
 40
0.0
 41
0.8
 50
0.0
 71
     0
 42
0.2
  3
txt
  4

  0
ENDTAB
  0
TABLE
  2
VIEW
 70
     0
  0
ENDTAB
  0
TABLE
  2
UCS
 70
     0
  0
ENDTAB
  0
TABLE
  2
APPID
 70
    10
  0
APPID
  2
ACAD
 70
     0
  0
APPID
  2
ACAD_MLEADERVER
 70
     0
  0
APPID
  2
ACAD_EXEMPT_FROM_CAD_STANDARDS
 70
     0
  0
APPID
  2
ACAD_NAV_VCDISPLAY
 70
     0
  0
APPID
  2
ACAECLAYERSTANDARD
 70
     0
  0
APPID
  2
ACCMTRANSPARENCY
 70
     0
  0
APPID
  2
ACAD_DSTYLE_DIMJAG
 70
     0
  0
APPID
  2
ACAD_DSTYLE_DIMTALN
 70
     0
  0
APPID
  2
ACDBATTR
 70
     0
  0
APPID
  2
ACAD_PSEXT
 70
     0
  0
ENDTAB
  0
TABLE
  2
DIMSTYLE
 70
     1
  0
DIMSTYLE
  2
STANDARD
 70
     0
  3

  4

  5

  6

  7

 40
1.0
 41
0.1875
 42
0.0625
 43
0.38
 44
0.125
 45
0.0
 46
0.0
 47
0.01
 48
0.01
140
0.15625
141
0.09
142
0.0
143
25.3999999999999986
144
1.0
145
0.0
146
1.0
147
0.09
 71
     1
 72
     0
 73
     1
 74
     1
 75
     0
 76
     0
 77
     0
 78
     4
170
     0
171
     2
172
     0
173
     0
174
     0
175
     0
176
     0
177
     0
178
     0
  0
ENDTAB
  0
ENDSEC
  0
SECTION
  2
BLOCKS
  0
BLOCK
  8
0
  2
$MODEL_SPACE
 70
     0
 10
0.0
 20
0.0
 30
0.0
  3
$MODEL_SPACE
  1

  0
ENDBLK
  5
21
  8
0
  0
BLOCK
 67
     1
  8
0
  2
$PAPER_SPACE
 70
     0
 10
0.0
 20
0.0
 30
0.0
  3
$PAPER_SPACE
  1

  0
ENDBLK
  5
1D
 67
     1
  8
0
  0
ENDSEC
  0
SECTION
  2
ENTITIES
  0
ATTDEF
  5
AA11
  8
DEFPOINTS
 10
4275.5885336101418943
 20
151.4579571518476087
 30
0.0
 40
0.001
  1
K-1.1922.009
  3

  2
MODELNUMBER
 70
     0
1001
ACDBATTR
1070
     0
1070
     1
  0
ATTDEF
  5
AA12
  8
DEFPOINTS
 10
4275.5885336101418943
 20
151.4562904851808867
 30
0.0
 40
0.001
  1

  3

  2
TRADENAME
 70
     0
1001
ACDBATTR
1070
     0
1070
     1
  0
ATTDEF
  5
AA13
  8
DEFPOINTS
 10
4275.5885336101418943
 20
151.4546238185143068
 30
0.0
 40
0.001
  1
SHOWER DOOR
  3

  2
PRODUCT
 70
     0
1001
ACDBATTR
1070
     0
1070
     1
  0
LINE
  5
11EC2
  8
0
 10
4275.1618147760927968
 20
152.2208445270318009
 30
0.0
 11
4276.34291713829316
 21
152.2208445270318009
 31
0.0
  0
LINE
  5
11EC3
  8
0
 10
4275.3106904421938452
 20
152.461002007331814
 30
0.0
 11
4275.2737631759928263
 21
152.461002007331814
 31
0.0
  0
LINE
  5
11EC4
  8
0
 10
4275.3106904421938452
 20
152.4964350781318103
 30
0.0
 11
4275.2345904421936211
 21
152.4964350781318103
 31
0.0
  0
LINE
  5
11EC5
  8
0
 10
4275.2307297788929645
 20
152.4964350781318103
 30
0.0
 11
4275.2345904422936655
 21
152.4964350781318103
 31
0.0
  0
LINE
  5
11EC6
  8
0
 10
4275.3055155633937829
 20
230.0554901962318866
 30
0.0
 11
4275.2661454846929701
 21
230.0161201175318126
 31
0.0
  0
LINE
  5
11EC7
  8
0
 10
4275.2661454846929701
 20
230.0161201175318126
 30
0.0
 11
4275.3055155633937829
 21
230.0554901962318866
 31
0.0
  0
LINE
  5
11EC8
  8
0
 10
4275.2307297788929645
 20
163.2247815348318056
 30
0.0
 11
4275.0692950909942738
 21
163.2247815348318056
 31
0.0
  0
LINE
  5
11EC9
  8
0
 10
4275.0692950909942738
 20
165.3901358655317892
 30
0.0
 11
4275.2307297788929645
 21
165.3901358655317892
 31
0.0
  0
LINE
  5
11ECA
  8
0
 10
4275.0496100515938451
 20
165.3704508262318029
 30
0.0
 11
4275.0496100515938451
 21
163.244466574231808
 31
0.0
  0
LINE
  5
11ECB
  8
0
 10
4275.0496100515938451
 20
217.1421043695318076
 30
0.0
 11
4275.0496100515938451
 21
219.2680886214319003
 31
0.0
  0
LINE
  5
11ECC
  8
0
 10
4275.1086651696941772
 20
229.5121831096317919
 30
0.0
 11
4275.1086651696941772
 21
230.2326555506319039
 31
0.0
  0
LINE
  5
11ECD
  8
0
 10
4275.1303187128942227
 20
151.4526476766318126
 30
0.0
 11
4275.1303187128942227
 21
163.2247815348318056
 31
0.0
  0
LINE
  5
11ECE
  8
0
 10
4275.1303187128942227
 20
165.3901358655317892
 30
0.0
 11
4275.1303187128942227
 21
185.5869987788317985
 31
0.0
  0
LINE
  5
11ECF
  8
0
 10
4275.1303187128942227
 20
186.2956601962318075
 30
0.0
 11
4275.1303187128942227
 21
196.2169200387318142
 31
0.0
  0
LINE
  5
11ED0
  8
0
 10
4275.1303187128942227
 20
196.9255814561317948
 30
0.0
 11
4275.1303187128942227
 21
217.1224193301318053
 31
0.0
  0
LINE
  5
11ED1
  8
0
 10
4275.1303187128942227
 20
219.2877736608319026
 30
0.0
 11
4275.1303187128942227
 21
229.4924980703318056
 31
0.0
  0
LINE
  5
11ED2
  8
0
 10
4275.1421297366941872
 20
151.4531279915318009
 30
0.0
 11
4275.1421297366941872
 21
152.2011594876317986
 31
0.0
  0
LINE
  5
11ED3
  8
0
 10
4275.1442250331929245
 20
152.2099029427317873
 30
0.0
 11
4275.1442250331929245
 21
163.2247815348318056
 31
0.0
  0
LINE
  5
11ED4
  8
0
 10
4275.1639008016927619
 20
163.2247815348318056
 30
0.0
 11
4275.1639008016927619
 21
152.2208445270318009
 31
0.0
  0
LINE
  5
11ED5
  8
0
 10
4275.2307297788929645
 20
230.0161201175318126
 30
0.0
 11
4275.2307297788929645
 21
152.4964350781318103
 31
0.0
  0
LINE
  5
11ED6
  8
0
 10
4275.2441793090929423
 20
152.2208445270318009
 30
0.0
 11
4275.2441793090929423
 21
152.4744082630317905
 31
0.0
  0
LINE
  5
11ED7
  8
0
 10
4275.3105576479929368
 20
152.2208445270318009
 30
0.0
 11
4275.3105576479929368
 21
230.0156712986317871
 31
0.0
  0
LINE
  5
11ED8
  8
0
 10
4275.3389801303937929
 20
152.2208445270318009
 30
0.0
 11
4275.3389801303937929
 21
151.4531279915318009
 31
0.0
  0
LINE
  5
11ED9
  8
0
 10
4275.3696127660941784
 20
230.0156712986317871
 30
0.0
 11
4275.3696127660941784
 21
152.2208445270318009
 31
0.0
  0
LINE
  5
11EDA
  8
0
 10
4276.0535962720941825
 20
230.0156712986317871
 30
0.0
 11
4276.0535962720941825
 21
152.2208445270318009
 31
0.0
  0
LINE
  5
11EDB
  8
0
 10
4276.2346494216926658
 20
229.5121831096317919
 30
0.0
 11
4276.2346494216926658
 21
230.2326555506319039
 31
0.0
  0
LINE
  5
11EDC
  8
0
 10
4276.3626021775926347
 20
152.2011594876317986
 30
0.0
 11
4276.3626021775926347
 21
151.4526476766318126
 31
0.0
  0
LINE
  5
11EDD
  8
0
 10
4280.4803974531942004
 20
230.1736004325319129
 30
0.0
 11
4280.4803974531942004
 21
229.5712382277318966
 31
0.0
  0
LINE
  5
11EDE
  8
0
 10
4275.2307297788929645
 20
217.1224193301318053
 30
0.0
 11
4275.0692950909942738
 21
217.1224193301318053
 31
0.0
  0
LINE
  5
11EDF
  8
0
 10
4275.0692950909942738
 20
219.2877736608319026
 30
0.0
 11
4275.2307297788929645
 21
219.2877736608319026
 31
0.0
  0
LINE
  5
11EE0
  8
0
 10
4275.6204761932940528
 20
230.0554901962318866
 30
0.0
 11
4275.6598462720940006
 21
230.0161201175318126
 31
0.0
  0
LINE
  5
11EE1
  8
0
 10
4275.6598462720940006
 20
230.0161201175318126
 30
0.0
 11
4275.6204761932940528
 21
230.0554901962318866
 31
0.0
  0
LINE
  5
11EE2
  8
0
 10
4275.2307297788929645
 20
229.4924980703318056
 30
0.0
 11
4275.1283502090927868
 21
229.4924980703318056
 31
0.0
  0
LINE
  5
11EE3
  8
0
 10
4276.0535962720941825
 20
229.4924980703318056
 30
0.0
 11
4280.4016572956943492
 21
229.4924980703318056
 31
0.0
  0
LINE
  5
11EE4
  8
0
 10
4276.0535962720941825
 20
230.0156712986317871
 30
0.0
 11
4275.3105576479929368
 21
230.0156712986317871
 31
0.0
  0
LINE
  5
11EE5
  8
0
 10
4275.6989013901929866
 20
230.0161201175318126
 30
0.0
 11
4275.6953927119939181
 21
230.0161201175318126
 31
0.0
  0
LINE
  5
11EE6
  8
0
 10
4275.6932308372943226
 20
230.0161201175318126
 30
0.0
 11
4275.2307297788929645
 21
230.0161201175318126
 31
0.0
  0
LINE
  5
11EE7
  8
0
 10
4275.6204761932940528
 20
230.0554901962318866
 30
0.0
 11
4275.3055155633937829
 21
230.0554901962318866
 31
0.0
  0
LINE
  5
11EE8
  8
0
 10
4275.6204761932940528
 20
230.0554901962318866
 30
0.0
 11
4275.3055155633937829
 21
230.0554901962318866
 31
0.0
  0
LINE
  5
11EE9
  8
0
 10
4275.1283502090927868
 20
230.2523405900319062
 30
0.0
 11
4280.4016572956943492
 21
230.2523405900319062
 31
0.0
  0
ARC
  5
11EEA
  8
0
 10
4280.4016572956943492
 20
230.1736004325319129
 30
0.0
 40
0.0787401575
 50
0.0
 51
90.0
  0
ARC
  5
11EEB
  8
0
 10
4280.4016572956943492
 20
229.5712382277318966
 30
0.0
 40
0.0787401575
 50
270.0
 51
0.0
  0
ARC
  5
11EEC
  8
0
 10
4275.2737631759928263
 20
152.5003720860318026
 30
0.0
 40
0.0393700787
 50
185.7391704714989089
 51
269.999999997602913
  0
ARC
  5
11EED
  8
0
 10
4275.1283502090927868
 20
230.2326555506319039
 30
0.0
 40
0.0196850394
 50
90.0
 51
180.0000000006994014
  0
ARC
  5
11EEE
  8
0
 10
4275.1283502090927868
 20
229.5121831096317919
 30
0.0
 40
0.0196850394
 50
179.9999999992998028
 51
270.0
  0
ARC
  5
11EEF
  8
0
 10
4276.34291713829316
 20
152.2011594876317986
 30
0.0
 40
0.0196850394
 50
0.0
 51
90.0
  0
ARC
  5
11EF0
  8
0
 10
4275.1618147760927968
 20
152.2011594876317986
 30
0.0
 40
0.0196850394
 50
90.0000000003126672
 51
180.0
  0
ARC
  5
11EF1
  8
0
 10
4275.0692950909942738
 20
217.1421043695318076
 30
0.0
 40
0.0196850394
 50
179.9999999987998081
 51
270.0
  0
ARC
  5
11EF2
  8
0
 10
4275.0692950909942738
 20
219.2680886214319003
 30
0.0
 40
0.0196850394
 50
90.0
 51
180.0000000002995932
  0
ARC
  5
11EF3
  8
0
 10
4275.0692950909942738
 20
163.244466574231808
 30
0.0
 40
0.0196850394
 50
179.9999999987998081
 51
270.0
  0
ARC
  5
11EF4
  8
0
 10
4275.0692950909942738
 20
165.3704508262318029
 30
0.0
 40
0.0196850394
 50
90.0
 51
180.0000000002995932
  0
ARC
  5
11EF5
  8
0
 10
4276.2149643822940561
 20
230.2326555506319039
 30
0.0
 40
0.0196850394
 50
0.0000000002002986
 51
90.0
  0
ARC
  5
11EF6
  8
0
 10
4276.2149643822940561
 20
229.5121831096317919
 30
0.0
 40
0.0196850394
 50
270.0
 51
0.0
  0
LINE
  5
11EF7
  8
0
 10
4275.1303187128942227
 20
151.4526476766318126
 30
0.0
 11
4276.3626021775926347
 21
151.4526476766318126
 31
0.0
  0
LINE
  5
11EF8
  8
0
 10
4273.3370116263940872
 20
185.5869987788317985
 30
0.0
 11
4275.2307297788929645
 21
185.5869987788317985
 31
0.0
  0
LINE
  5
11EF9
  8
0
 10
4273.2976415476941838
 20
185.6263688576318032
 30
0.0
 11
4273.2976415476941838
 21
196.8862113773317901
 31
0.0
  0
LINE
  5
11EFB
  8
0
 10
4274.0850431224926069
 20
186.3350302749317962
 30
0.0
 11
4274.0850431224926069
 21
196.1775499600317971
 31
0.0
  0
LINE
  5
11EFC
  8
0
 10
4274.1244412970363555
 20
186.2956601962318075
 30
0.0
 11
4275.2307297788929645
 21
186.2956601962318075
 31
0.0
  0
ARC
  5
11EFD
  8
0
 10
4273.3370116263940872
 20
185.6263688576318032
 30
0.0
 40
0.0393700787
 50
180.0
 51
270.0
  0
ARC
  5
11EFE
  8
0
 10
4274.1244132011943293
 20
186.3350302749317962
 30
0.0
 40
0.0393700787
 50
180.0
 51
270.0408882314407037
  0
LINE
  5
11F01
  8
0
 10
4273.3370116263940872
 20
196.9255814561317948
 30
0.0
 11
4275.2307297788929645
 21
196.9255814561317948
 31
0.0
  0
LINE
  5
11F03
  8
0
 10
4274.1244412971027486
 20
196.2169200387318142
 30
0.0
 11
4275.2307297788929645
 21
196.2169200387318142
 31
0.0
  0
ARC
  5
11F04
  8
0
 10
4273.3370116263940872
 20
196.8862113773317901
 30
0.0
 40
0.0393700787
 50
90.0
 51
180.0
  0
ARC
  5
11F05
  8
0
 10
4274.1244132011943293
 20
196.1775499600317971
 30
0.0
 40
0.0393700787
 50
89.9591116706129554
 51
180.0
  0
LINE
  5
11F08
  8
0
 10
4277.5889801303937929
 20
185.5869987788317985
 30
0.0
 11
4276.0535962720941825
 21
185.5869987788317985
 31
0.0
  0
LINE
  5
11F09
  8
0
 10
4277.6283502090936963
 20
185.6263688576318032
 30
0.0
 11
4277.6283502090936963
 21
196.8862113773317901
 31
0.0
  0
LINE
  5
11F0B
  8
0
 10
4276.8409486342943637
 20
186.3350302749317962
 30
0.0
 11
4276.8409486342943637
 21
196.1775499600317971
 31
0.0
  0
LINE
  5
11F0C
  8
0
 10
4276.8015504597497056
 20
186.2956601962318075
 30
0.0
 11
4276.0535962720941825
 21
186.2956601962318075
 31
0.0
  0
LINE
  5
11F0D
  8
0
 10
4275.059129564993782
 20
186.2956601962318075
 30
0.0
 11
4275.059129564993782
 21
196.2169200387318142
 31
0.0
  0
ARC
  5
11F0E
  8
0
 10
4277.5889801303937929
 20
185.6263688576318032
 30
0.0
 40
0.0393700787
 50
270.0
 51
0.0
  0
ARC
  5
11F0F
  8
0
 10
4276.8015785555935508
 20
186.3350302749317962
 30
0.0
 40
0.0393700787
 50
269.9591117672356972
 51
0.0
  0
LINE
  5
11F12
  8
0
 10
4277.5889801303937929
 20
196.9255814561317948
 30
0.0
 11
4276.0535962720941825
 21
196.9255814561317948
 31
0.0
  0
LINE
  5
11F14
  8
0
 10
4276.8015504597024119
 20
196.2169200387318142
 30
0.0
 11
4276.0535962720941825
 21
196.2169200387318142
 31
0.0
  0
ARC
  5
11F15
  8
0
 10
4277.5889801303937929
 20
196.8862113773317901
 30
0.0
 40
0.0393700787
 50
0.0
 51
90.0
  0
ARC
  5
11F16
  8
0
 10
4276.8015785555935508
 20
196.1775499600317971
 30
0.0
 40
0.0393700787
 50
0.0
 51
90.0408883029150644
  0
ENDSEC
  0
EOF
