  0
SECTION
  2
HEADER
  9
$ACADVER
  1
AC1009
  9
$INSBASE
 10
4337.797639039367823
 20
206.1366181991020028
 30
0.0
  9
$EXTMIN
 10
4318.3268569532701804
 20
203.9928755672245018
 30
-0.0015258207003583
  9
$EXTMAX
 10
4357.2199161794942484
 20
211.1951260171296951
 30
0.0000000349246037
  9
$LIMMIN
 10
0.0
 20
0.0
  9
$LIMMAX
 10
11.6929133858000007
 20
8.2677165353999982
  9
$ORTHOMODE
 70
     0
  9
$REGENMODE
 70
     1
  9
$FILLMODE
 70
     1
  9
$QTEXTMODE
 70
     0
  9
$MIRRTEXT
 70
     0
  9
$DRAGMODE
 70
     2
  9
$LTSCALE
 40
0.6431102362
  9
$OSMODE
 70
  4095
  9
$ATTMODE
 70
     1
  9
$TEXTSIZE
 40
0.2
  9
$TRACEWID
 40
0.05
  9
$TEXTSTYLE
  7
STANDARD
  9
$CLAYER
  8
0
  9
$CELTYPE
  6
BYLAYER
  9
$CECOLOR
 62
   256
  9
$DIMSCALE
 40
1.0
  9
$DIMASZ
 40
0.1875
  9
$DIMEXO
 40
0.0625
  9
$DIMDLI
 40
0.4443307087
  9
$DIMRND
 40
0.0
  9
$DIMDLE
 40
0.0
  9
$DIMEXE
 40
0.125
  9
$DIMTP
 40
0.01
  9
$DIMTM
 40
0.01
  9
$DIMTXT
 40
2.0
  9
$DIMCEN
 40
0.1052362205
  9
$DIMTSZ
 40
0.0
  9
$DIMTOL
 70
     1
  9
$DIMLIM
 70
     0
  9
$DIMTIH
 70
     1
  9
$DIMTOH
 70
     1
  9
$DIMSE1
 70
     0
  9
$DIMSE2
 70
     0
  9
$DIMTAD
 70
     0
  9
$DIMZIN
 70
     0
  9
$DIMBLK
  1

  9
$DIMASO
 70
     1
  9
$DIMSHO
 70
     1
  9
$DIMPOST
  1
\X
  9
$DIMAPOST
  1

  9
$DIMALT
 70
     1
  9
$DIMALTD
 70
     2
  9
$DIMALTF
 40
25.3999999999999986
  9
$DIMLFAC
 40
1.0
  9
$DIMTOFL
 70
     0
  9
$DIMTVP
 40
0.0
  9
$DIMTIX
 70
     0
  9
$DIMSOXD
 70
     0
  9
$DIMSAH
 70
     0
  9
$DIMBLK1
  1

  9
$DIMBLK2
  1

  9
$DIMSTYLE
  2
STANDARD
  9
$DIMCLRD
 70
     0
  9
$DIMCLRE
 70
     0
  9
$DIMCLRT
 70
     0
  9
$DIMTFAC
 40
1.0
  9
$DIMGAP
 40
0.09
  9
$LUNITS
 70
     2
  9
$LUPREC
 70
     4
  9
$SKETCHINC
 40
0.1
  9
$FILLETRAD
 40
0.0
  9
$AUNITS
 70
     0
  9
$AUPREC
 70
     0
  9
$MENU
  1
.
  9
$ELEVATION
 40
0.0
  9
$PELEVATION
 40
0.0
  9
$THICKNESS
 40
0.0
  9
$LIMCHECK
 70
     0
  9
$BLIPMODE
 70
     0
  9
$CHAMFERA
 40
0.0
  9
$CHAMFERB
 40
0.0
  9
$SKPOLY
 70
     0
  9
$TDCREATE
 40
2458060.468368056230247
  9
$TDUPDATE
 40
2459548.6433564820326865
  9
$TDINDWG
 40
0.7506783565
  9
$TDUSRTIMER
 40
0.7506783565
  9
$USRTIMER
 70
     1
  9
$ANGBASE
 50
0.0
  9
$ANGDIR
 70
     0
  9
$PDMODE
 70
     0
  9
$PDSIZE
 40
0.3125
  9
$PLINEWID
 40
0.0
  9
$COORDS
 70
     1
  9
$SPLFRAME
 70
     0
  9
$SPLINETYPE
 70
     6
  9
$SPLINESEGS
 70
     8
  9
$ATTDIA
 70
     1
  9
$ATTREQ
 70
     1
  9
$HANDLING
 70
     1
  9
$HANDSEED
  5
12358
  9
$SURFTAB1
 70
     6
  9
$SURFTAB2
 70
     6
  9
$SURFTYPE
 70
     6
  9
$SURFU
 70
     6
  9
$SURFV
 70
     6
  9
$UCSNAME
  2

  9
$UCSORG
 10
0.0
 20
0.0
 30
0.0
  9
$UCSXDIR
 10
1.0
 20
0.0
 30
0.0
  9
$UCSYDIR
 10
0.0
 20
1.0
 30
0.0
  9
$PUCSNAME
  2

  9
$PUCSORG
 10
0.0
 20
0.0
 30
0.0
  9
$PUCSXDIR
 10
1.0
 20
0.0
 30
0.0
  9
$PUCSYDIR
 10
0.0
 20
1.0
 30
0.0
  9
$USERI1
 70
     0
  9
$USERI2
 70
     0
  9
$USERI3
 70
     0
  9
$USERI4
 70
     0
  9
$USERI5
 70
     0
  9
$USERR1
 40
0.0
  9
$USERR2
 40
0.0
  9
$USERR3
 40
0.0
  9
$USERR4
 40
0.0
  9
$USERR5
 40
0.0
  9
$WORLDVIEW
 70
     1
  9
$SHADEDGE
 70
     3
  9
$SHADEDIF
 70
    70
  9
$TILEMODE
 70
     1
  9
$MAXACTVP
 70
    64
  9
$PLIMCHECK
 70
     0
  9
$PEXTMIN
 10
1.0000000000000000E+20
 20
1.0000000000000000E+20
 30
1.0000000000000000E+20
  9
$PEXTMAX
 10
-1.0000000000000000E+20
 20
-1.0000000000000000E+20
 30
-1.0000000000000000E+20
  9
$PLIMMIN
 10
0.0
 20
0.0
  9
$PLIMMAX
 10
12.0
 20
9.0
  9
$UNITMODE
 70
     0
  9
$VISRETAIN
 70
     1
  9
$PLINEGEN
 70
     0
  9
$PSLTSCALE
 70
     1
  0
ENDSEC
  0
SECTION
  2
TABLES
  0
TABLE
  2
VPORT
 70
     1
  0
VPORT
  2
*ACTIVE
 70
     0
 10
0.0
 20
0.0
 11
1.0
 21
1.0
 12
693.6975809023197144
 22
47.6497602923794474
 13
0.0
 23
0.0
 14
1.0
 24
1.0
 15
0.0
 25
0.0
 16
0.0
 26
0.0
 36
26.6346482412083887
 17
3644.0758056640620453
 27
159.9442404997975871
 37
0.0
 40
14.3190390071152098
 41
2.7247838616714688
 42
50.0
 43
0.0
 44
0.0
 50
0.0
 51
0.0
 71
     0
 72
   100
 73
     1
 74
     1
 75
     0
 76
     0
 77
     0
 78
     0
  0
ENDTAB
  0
TABLE
  2
LTYPE
 70
     3
  0
LTYPE
  2
CONTINUOUS
 70
     0
  3
Solid line
 72
    65
 73
     0
 40
0.0
  0
LTYPE
  2
PHANTOM2
 70
     0
  3
___ _ _ ___ _ _ ___ _ _ ___ _ _
 72
    65
 73
     6
 40
1.25
 49
0.625
 49
-0.125
 49
0.125
 49
-0.125
 49
0.125
 49
-0.125
  0
ENDTAB
  0
TABLE
  2
LAYER
 70
     2
  0
LAYER
  2
0
 70
     0
 62
   255
  6
CONTINUOUS
  0
LAYER
  2
DEFPOINTS
 70
     0
 62
     7
  6
CONTINUOUS
  0
ENDTAB
  0
TABLE
  2
STYLE
 70
     1
  0
STYLE
  2
STANDARD
 70
     0
 40
0.0
 41
0.8
 50
0.0
 71
     0
 42
0.2
  3
txt
  4

  0
ENDTAB
  0
TABLE
  2
VIEW
 70
     0
  0
ENDTAB
  0
TABLE
  2
UCS
 70
     0
  0
ENDTAB
  0
TABLE
  2
APPID
 70
    10
  0
APPID
  2
ACAD
 70
     0
  0
APPID
  2
ACAD_MLEADERVER
 70
     0
  0
APPID
  2
ACAD_EXEMPT_FROM_CAD_STANDARDS
 70
     0
  0
APPID
  2
ACAD_NAV_VCDISPLAY
 70
     0
  0
APPID
  2
ACAECLAYERSTANDARD
 70
     0
  0
APPID
  2
ACCMTRANSPARENCY
 70
     0
  0
APPID
  2
ACAD_DSTYLE_DIMJAG
 70
     0
  0
APPID
  2
ACAD_DSTYLE_DIMTALN
 70
     0
  0
APPID
  2
ACDBATTR
 70
     0
  0
APPID
  2
ACAD_PSEXT
 70
     0
  0
ENDTAB
  0
TABLE
  2
DIMSTYLE
 70
     2
  0
DIMSTYLE
  2
STANDARD
 70
     0
  3

  4

  5

  6

  7

 40
1.0
 41
0.1875
 42
0.0625
 43
0.38
 44
0.125
 45
0.0
 46
0.0
 47
0.01
 48
0.01
140
0.15625
141
0.09
142
0.0
143
25.3999999999999986
144
1.0
145
0.0
146
1.0
147
0.09
 71
     1
 72
     0
 73
     1
 74
     1
 75
     0
 76
     0
 77
     0
 78
     4
170
     0
171
     2
172
     0
173
     0
174
     0
175
     0
176
     0
177
     0
178
     0
  0
ENDTAB
  0
ENDSEC
  0
SECTION
  2
BLOCKS
  0
BLOCK
  8
0
  2
$MODEL_SPACE
 70
     0
 10
0.0
 20
0.0
 30
0.0
  3
$MODEL_SPACE
  1

  0
ENDBLK
  5
21
  8
0
  0
BLOCK
 67
     1
  8
0
  2
$PAPER_SPACE
 70
     0
 10
0.0
 20
0.0
 30
0.0
  3
$PAPER_SPACE
  1

  0
ENDBLK
  5
1D
 67
     1
  8
0
  0
ENDSEC
  0
SECTION
  2
ENTITIES
  0
ATTDEF
  5
AA11
  8
DEFPOINTS
 10
4337.792414798331265
 20
206.1330090830441861
 30
0.0
 40
0.001
  1
K-1.1922.009
  3

  2
MODELNUMBER
 70
     0
1001
ACDBATTR
1070
     0
1070
     1
  0
ATTDEF
  5
AA12
  8
DEFPOINTS
 10
4337.792414798331265
 20
206.1313424163774926
 30
0.0
 40
0.001
  1

  3

  2
TRADENAME
 70
     0
1001
ACDBATTR
1070
     0
1070
     1
  0
ATTDEF
  5
AA13
  8
DEFPOINTS
 10
4337.792414798331265
 20
206.129675749710799
 30
0.0
 40
0.001
  1
SHOWER DOOR
  3

  2
PRODUCT
 70
     0
1001
ACDBATTR
1070
     0
1070
     1
  0
LINE
  5
12124
  8
0
 10
4318.5083397850676192
 20
211.1886805583521038
 30
0.0
 11
4318.5083397850676192
 21
206.6830900071520034
 31
0.0
  0
LINE
  5
12125
  8
0
 10
4318.5083397850676192
 20
205.8721839069519888
 30
0.0
 11
4318.5083397850676192
 21
205.9193104794520934
 31
0.0
  0
LINE
  5
12126
  8
0
 10
4318.5083397850676192
 20
206.4901766214520933
 30
0.0
 11
4318.5083397850676192
 21
206.5412115798521029
 31
0.0
  0
LINE
  5
12127
  8
0
 10
4318.5201508087684488
 20
205.8641628647521031
 30
0.0
 11
4318.5201508087684488
 21
206.5491904361520028
 31
0.0
  0
LINE
  5
12128
  8
0
 10
4318.984717737867868
 20
208.4389955189521118
 30
0.0
 11
4318.984717737867868
 21
211.1689955189519878
 31
0.0
  0
LINE
  5
12129
  8
0
 10
4320.0831429347681478
 20
206.5412115798521029
 30
0.0
 11
4320.0831429347681478
 21
205.8721839068520865
 31
0.0
  0
LINE
  5
1212A
  8
0
 10
4320.1028279740676226
 20
205.8366333142521114
 30
0.0
 11
4320.1028279740676226
 21
206.4665545741520987
 31
0.0
  0
LINE
  5
1212B
  8
0
 10
4320.1028279740676226
 20
206.4665545741520987
 30
0.0
 11
4320.1028279740676226
 21
206.6043498496520954
 31
0.0
  0
LINE
  5
1212C
  8
0
 10
4320.0947327500671236
 20
206.4546822113520932
 30
0.0
 11
4320.1028279740676226
 21
206.4466693221519904
 31
0.0
  0
LINE
  5
1212D
  8
0
 10
4325.2209382102682866
 20
206.923247487451988
 30
0.0
 11
4325.2209382102682866
 21
205.8366333142521114
 31
0.0
  0
LINE
  5
1212E
  8
0
 10
4326.2168437220670967
 20
205.77331818215211
 30
0.0
 11
4326.2168437220670967
 21
205.9701685758521137
 31
0.0
  0
LINE
  5
1212F
  8
0
 10
4330.7542452969682927
 20
206.0095386545519887
 30
0.0
 11
4330.7542452969682927
 21
205.9701685758521137
 31
0.0
  0
LINE
  5
12130
  8
0
 10
4330.7739303362686769
 20
205.9701685758521137
 30
0.0
 11
4330.7739303362686769
 21
205.9504835364521114
 31
0.0
  0
LINE
  5
12131
  8
0
 10
4330.7739303362686769
 20
206.324499284552104
 30
0.0
 11
4330.7739303362686769
 21
206.383554402652095
 31
0.0
  0
LINE
  5
12132
  8
0
 10
4330.7896783677670101
 20
205.9790850286520083
 30
0.0
 11
4330.7896778913682283
 21
206.0158577113519982
 31
0.0
  0
LINE
  5
12133
  8
0
 10
4330.7896783669675642
 20
206.315260155552096
 30
0.0
 11
4330.7896783677670101
 21
206.3524158609521066
 31
0.0
  0
LINE
  5
12134
  8
0
 10
4330.8605445094690367
 20
206.3245121944520122
 30
0.0
 11
4330.8605445094690367
 21
206.3166252678520038
 31
0.0
  0
LINE
  5
12135
  8
0
 10
4330.8605445094690367
 20
206.0144964467521049
 30
0.0
 11
4330.8605445094690367
 21
206.0065988086520008
 31
0.0
  0
LINE
  5
12136
  8
0
 10
4330.951095690666989
 20
206.0489087333519933
 30
0.0
 11
4330.951095690666989
 21
206.2851292057520993
 31
0.0
  0
LINE
  5
12137
  8
0
 10
4330.9904666963675481
 20
206.0120635140521017
 30
0.0
 11
4330.9904657665683771
 21
206.3190237564521112
 31
0.0
  0
LINE
  5
12138
  8
0
 10
4331.0298358480677052
 20
206.3970133363521029
 30
0.0
 11
4331.0298358480677052
 21
206.6276339301520011
 31
0.0
  0
ARC
  5
12139
  8
0
 10
4331.010135848066966
 20
206.6276339301520011
 30
0.0
 40
0.0197
 50
0.0
 51
90.0
  0
LINE
  5
1213A
  8
0
 10
4331.0337728559679817
 20
206.1670189688520907
 30
0.0
 11
4331.0337776574669988
 21
206.0075791243519916
 31
0.0
  0
LINE
  5
1213B
  8
0
 10
4331.0337728559679817
 20
206.4760740876521083
 30
0.0
 11
4331.0337728559679817
 21
206.3972920330519969
 31
0.0
  0
LINE
  5
1213C
  8
0
 10
4331.0337728560680262
 20
206.3736379921519983
 30
0.0
 11
4331.0337728559679817
 21
206.190641016152
 31
0.0
  0
LINE
  5
1213D
  8
0
 10
4331.0337728559679817
 20
206.0075791242520893
 30
0.0
 11
4331.0337728559679817
 21
205.9744285898518115
 31
0.0
  0
LINE
  5
1213E
  8
0
 10
4331.0495208874681339
 20
205.753633142751994
 30
0.0
 11
4331.0495208874681339
 21
205.9744285898518115
 31
0.0
  0
LINE
  5
1213F
  8
0
 10
4331.2247177378676497
 20
206.7068823561079114
 30
0.0
 11
4331.2247177378676497
 21
206.4018871756520923
 31
0.0
  0
LINE
  5
12140
  8
0
 10
4331.2247177378676497
 20
206.3779273583519966
 30
0.0
 11
4331.2247177378676497
 21
206.1923168016224963
 31
0.0
  0
LINE
  5
12141
  8
0
 10
4331.2247177378676497
 20
206.1683552684690142
 30
0.0
 11
4331.2247177378676497
 21
205.9744285898518115
 31
0.0
  0
LINE
  5
12142
  8
0
 10
4331.2266862417682205
 20
205.9744285898518115
 30
0.0
 11
4331.2266862417682205
 21
205.753633142751994
 31
0.0
  0
LINE
  5
12143
  8
0
 10
4331.3743240370677086
 20
206.3287592984520984
 30
0.0
 11
4331.3743240370677086
 21
206.6276488908521003
 31
0.0
  0
LINE
  5
12144
  8
0
 10
4331.4304161463678611
 20
205.9744285898518115
 30
0.0
 11
4331.4304161463678611
 21
206.0137986685521128
 31
0.0
  0
LINE
  5
12145
  8
0
 10
4330.9707807299682827
 20
206.0292236939521047
 30
0.0
 11
4330.951095690666989
 21
206.0489087333519933
 31
0.0
  0
LINE
  5
12146
  8
0
 10
4330.9904657693678018
 20
206.2851292057520993
 30
0.0
 11
4330.951095690666989
 21
206.324499284552104
 31
0.0
  0
LINE
  5
12147
  8
0
 10
4330.951095690666989
 20
206.2851292057520993
 30
0.0
 11
4330.9707807299682827
 21
206.3048142451521016
 31
0.0
  0
LINE
  5
12148
  8
0
 10
4330.951095690666989
 20
206.0095386545519887
 30
0.0
 11
4330.9904657693678018
 21
206.0489087333519933
 31
0.0
  0
LINE
  5
12149
  8
0
 10
4331.0495208874681339
 20
205.753633142751994
 30
0.0
 11
4326.2365287613683904
 21
205.753633142751994
 31
0.0
  0
LINE
  5
1214A
  8
0
 10
4331.0495208874681339
 20
205.753633142751994
 30
0.0
 11
4336.0396783677670101
 21
205.753633142751994
 31
0.0
  0
LINE
  5
1214B
  8
0
 10
4325.2012531709679024
 20
205.8169482748521091
 30
0.0
 11
4320.1225130134680512
 21
205.8169482748521091
 31
0.0
  0
LINE
  5
1214C
  8
0
 10
4320.1028279740676226
 20
205.9291529993521124
 30
0.0
 11
4320.0831429347681478
 21
205.9291529993521124
 31
0.0
  0
LINE
  5
1214D
  8
0
 10
4330.7739303362686769
 20
205.9504835364521114
 30
0.0
 11
4330.955862386967965
 21
205.9504835364521114
 31
0.0
  0
LINE
  5
1214E
  8
0
 10
4330.9897860480687086
 20
205.9504835364521114
 30
0.0
 11
4331.0495208874681339
 21
205.9504835364521114
 31
0.0
  0
LINE
  5
1214F
  8
0
 10
4356.160308288923261
 20
205.9664161883520137
 30
0.0
 11
4354.4083445094229319
 21
205.9664161883520137
 31
0.0
  0
LINE
  5
12150
  8
0
 10
4353.8177933283232051
 20
205.9664161883520137
 30
0.0
 11
4336.0593634071683482
 21
205.9664161883520137
 31
0.0
  0
LINE
  5
12151
  8
0
 10
4336.0593634071683482
 20
205.9744285898518967
 30
0.0
 11
4331.0235990945020603
 21
205.9744285898518115
 31
0.0
  0
LINE
  5
12152
  8
0
 10
4330.7739303362686769
 20
205.9701685758521137
 30
0.0
 11
4330.8050282833683013
 21
205.9701685758521137
 31
0.0
  0
LINE
  5
12153
  8
0
 10
4330.8050282833683013
 20
205.9701685758521137
 30
0.0
 11
4326.2168437220670967
 21
205.9701685758521137
 31
0.0
  0
LINE
  5
12154
  8
0
 10
4353.8177933283232051
 20
205.9744285898520957
 30
0.0
 11
4354.4083445094229319
 21
205.9744285898520957
 31
0.0
  0
LINE
  5
12155
  8
0
 10
4330.951095690666989
 20
206.0095386545519887
 30
0.0
 11
4330.8605445094690367
 21
206.0095386545519887
 31
0.0
  0
LINE
  5
12156
  8
0
 10
4330.7896779732673167
 20
206.0095386545519887
 30
0.0
 11
4325.2209382102682866
 21
206.009538654706688
 31
0.0
  0
LINE
  5
12157
  8
0
 10
4320.1028279740676226
 20
206.0095386546520899
 30
0.0
 11
4320.0831429347681478
 21
206.0095386546520899
 31
0.0
  0
LINE
  5
12158
  8
0
 10
4330.8001281257684241
 20
206.026307946452107
 30
0.0
 11
4330.8487334857682072
 21
206.0263074700521031
 31
0.0
  0
LINE
  5
12159
  8
0
 10
4330.951095690666989
 20
206.0489087333519933
 30
0.0
 11
4325.2209382102682866
 21
206.0489087333519933
 31
0.0
  0
LINE
  5
1215A
  8
0
 10
4331.0337728559679817
 20
206.1670189688520907
 30
0.0
 11
4331.2070012023677918
 21
206.1670189688520907
 31
0.0
  0
LINE
  5
1215B
  8
0
 10
4331.0337728559679817
 20
206.190641016152
 30
0.0
 11
4331.2070012023677918
 21
206.190641016152
 31
0.0
  0
LINE
  5
1215C
  8
0
 10
4330.951095690666989
 20
206.2851292057520993
 30
0.0
 11
4325.2209382102682866
 21
206.2851292057520993
 31
0.0
  0
LINE
  5
1215D
  8
0
 10
4320.1028279740676226
 20
206.2851292058520869
 30
0.0
 11
4320.0831429347681478
 21
206.2851292058520869
 31
0.0
  0
LINE
  5
1215E
  8
0
 10
4330.9847335567683331
 20
206.2908614184520104
 30
0.0
 11
4330.9904658518680662
 21
206.2908614184520104
 31
0.0
  0
LINE
  5
1215F
  8
0
 10
4330.9816680474687018
 20
206.2939269276521088
 30
0.0
 11
4330.9904658426694368
 21
206.2939269276521088
 31
0.0
  0
LINE
  5
12160
  8
0
 10
4330.848733485968296
 20
206.3048142444521034
 30
0.0
 11
4330.7996552354679807
 21
206.3048142444521034
 31
0.0
  0
LINE
  5
12161
  8
0
 10
4330.9667652439684389
 20
206.3088297312519899
 30
0.0
 11
4330.9904657974675501
 21
206.3088297312519899
 31
0.0
  0
LINE
  5
12162
  8
0
 10
4330.9588912281678859
 20
206.3167037469519869
 30
0.0
 11
4330.9904657665683771
 21
206.3167037469519869
 31
0.0
  0
LINE
  5
12163
  8
0
 10
4330.951095690666989
 20
206.324499284552104
 30
0.0
 11
4330.8605445094690367
 21
206.324499284552104
 31
0.0
  0
LINE
  5
12164
  8
0
 10
4330.7896783671676531
 20
206.324499284552104
 30
0.0
 11
4325.2209382102682866
 21
206.324499284552104
 31
0.0
  0
LINE
  5
12165
  8
0
 10
4353.8177933283232051
 20
206.368129377252103
 30
0.0
 11
4354.4083445094229319
 21
206.368129377252103
 31
0.0
  0
LINE
  5
12166
  8
0
 10
4331.3743240370677086
 20
206.37176039285211
 30
0.0
 11
4331.2872569711680626
 21
206.37176039285211
 31
0.0
  0
LINE
  5
12167
  8
0
 10
4331.2446988849678746
 20
206.37176039285211
 30
0.0
 11
4331.2247177378676497
 21
206.37176039285211
 31
0.0
  0
LINE
  5
12168
  8
0
 10
4330.7739303362686769
 20
206.383554402652095
 30
0.0
 11
4330.9297582747685738
 21
206.383554402652095
 31
0.0
  0
LINE
  5
12169
  8
0
 10
4331.0337728559679817
 20
206.4507452034521009
 30
0.0
 11
4331.0298358480677052
 21
206.4507452034521009
 31
0.0
  0
LINE
  5
1216A
  8
0
 10
4331.0337728559679817
 20
206.4514802332519992
 30
0.0
 11
4331.0298358480677052
 21
206.4514802332519992
 31
0.0
  0
LINE
  5
1216B
  8
0
 10
4331.0337728559679817
 20
206.4724600859520081
 30
0.0
 11
4331.0298358480677052
 21
206.4724600859520081
 31
0.0
  0
LINE
  5
1216C
  8
0
 10
4331.0337728559679817
 20
206.4760740876521083
 30
0.0
 11
4331.2247177378676497
 21
206.4760740876521083
 31
0.0
  0
LINE
  5
1216D
  8
0
 10
4320.0831429347681478
 20
206.4803341016520051
 30
0.0
 11
4320.1028279740676226
 21
206.4803341016520051
 31
0.0
  0
LINE
  5
1216E
  8
0
 10
4331.0298358480677052
 20
206.4803341016520051
 30
0.0
 11
4331.2247177378676497
 21
206.4803341016520051
 31
0.0
  0
LINE
  5
1216F
  8
0
 10
4330.9670756341683955
 20
205.9490201193520136
 30
0.0
 11
4330.7965334033679028
 21
205.9712772246521126
 31
0.0
  0
LINE
  5
12170
  8
0
 10
4330.8605445094690367
 20
206.0065988086520008
 30
0.0
 11
4330.9682111589681881
 21
205.9925474624521087
 31
0.0
  0
LINE
  5
12171
  8
0
 10
4330.7966804666675671
 20
206.3602414521521098
 30
0.0
 11
4330.9876092702679671
 21
206.3936889052521053
 31
0.0
  0
LINE
  5
12172
  8
0
 10
4330.9682311419692269
 20
206.338567010652099
 30
0.0
 11
4330.8605445094690367
 21
206.3245121944520122
 31
0.0
  0
LINE
  5
12173
  8
0
 10
4320.1028279740676226
 20
206.6043498496520954
 30
0.0
 11
4318.5870799425683799
 21
206.6043498496520954
 31
0.0
  0
LINE
  5
12174
  8
0
 10
4331.3940090764672277
 20
206.6473339301520014
 30
0.0
 11
4336.0396783677670101
 21
206.6473339301520014
 31
0.0
  0
LINE
  5
12175
  8
0
 10
4331.010135848066966
 20
206.6473339301520014
 30
0.0
 11
4326.2365437220678359
 21
206.6473339301520014
 31
0.0
  0
LINE
  5
12176
  8
0
 10
4353.8177933283232051
 20
206.7068699226080071
 30
0.0
 11
4331.2247177378676497
 21
206.7068823561079114
 31
0.0
  0
LINE
  5
12177
  8
0
 10
4354.4083445094229319
 20
206.7068822719519972
 30
0.0
 11
4356.5425313068235482
 21
206.7068822719519972
 31
0.0
  0
LINE
  5
12178
  8
0
 10
4325.2012531709679024
 20
206.942932526852104
 30
0.0
 11
4320.4807807299675915
 21
206.942932526852104
 31
0.0
  0
LINE
  5
12179
  8
0
 10
4336.0052192959692547
 20
206.0137986685521128
 30
0.0
 11
4336.0052192959692547
 21
205.9744285898518967
 31
0.0
  0
LINE
  5
1217A
  8
0
 10
4336.0593634071683482
 20
205.9744285898518967
 30
0.0
 11
4336.0593634071683482
 21
205.77331818215211
 31
0.0
  0
LINE
  5
1217B
  8
0
 10
4336.0593634071683482
 20
206.3287592984520984
 30
0.0
 11
4336.0593634071683482
 21
206.627648890751999
 31
0.0
  0
LINE
  5
1217C
  8
0
 10
4318.5083397850676192
 20
211.1886805583521038
 30
0.0
 11
4318.9650326984683488
 21
211.1886805583521038
 31
0.0
  0
LINE
  5
1217D
  8
0
 10
4353.8177933283232051
 20
204.7013913795520068
 30
0.0
 11
4353.8177933283232051
 21
205.9744285898520957
 31
0.0
  0
LINE
  5
1217E
  8
0
 10
4353.8177933283232051
 20
206.368129377252103
 30
0.0
 11
4353.8177933283232051
 21
207.6411665875521066
 31
0.0
  0
LINE
  5
1217F
  8
0
 10
4353.8374783676235893
 20
206.0137986685521128
 30
0.0
 11
4353.8374783676235893
 21
205.9744285898520957
 31
0.0
  0
LINE
  5
12180
  8
0
 10
4353.8374783676235893
 20
206.328759298552086
 30
0.0
 11
4353.8374783676235893
 21
206.368129377252103
 31
0.0
  0
LINE
  5
12181
  8
0
 10
4354.3886594700234127
 20
206.0137986685521128
 30
0.0
 11
4354.3886594700234127
 21
205.9744285898520957
 31
0.0
  0
LINE
  5
12182
  8
0
 10
4354.3886594700234127
 20
206.328759298552086
 30
0.0
 11
4354.3886594700234127
 21
206.368129377252103
 31
0.0
  0
LINE
  5
12183
  8
0
 10
4354.4083445094229319
 20
207.6411665875521066
 30
0.0
 11
4354.4083445094229319
 21
206.368129377252103
 31
0.0
  0
LINE
  5
12184
  8
0
 10
4354.4083445094229319
 20
205.9744285898520957
 30
0.0
 11
4354.4083445094229319
 21
204.7013913795520068
 31
0.0
  0
ARC
  5
12185
  8
0
 10
4319.2957413598678613
 20
177.043326227652102
 30
0.0
 40
29.5275590550999993
 50
88.5091477174099168
 51
91.4828094054919063
  0
ARC
  5
12186
  8
0
 10
4319.2957413598678613
 20
177.0433262277520896
 30
0.0
 40
29.5275590550999993
 50
89.9982380012918952
 51
89.9999999998957776
  0
ARC
  5
12188
  8
0
 10
4319.2957413598678613
 20
177.0433262277520896
 30
0.0
 40
29.5275590550999993
 50
91.4828093256844141
 51
91.4908522806092463
  0
ARC
  5
12189
  8
0
 10
4320.4807807299675915
 20
208.4389955189521118
 30
0.0
 40
1.4960629920999999
 50
180.0
 51
270.0
  0
ARC
  5
1218A
  8
0
 10
4318.5870799425683799
 20
206.6830900071520034
 30
0.0
 40
0.0787401575
 50
179.9999999949990013
 51
269.9999999977072207
  0
ARC
  5
1218B
  8
0
 10
4320.1224272347681108
 20
206.3511587060519901
 30
0.0
 40
0.0393700787
 50
183.7828846866190986
 51
240.1440423878975992
  0
ARC
  5
1218C
  8
0
 10
4320.0634578953677192
 20
205.8721839068520865
 30
0.0
 40
0.0196850394
 50
270.0
 51
359.9999999998991029
  0
ARC
  5
1218D
  8
0
 10
4320.0634578953677192
 20
206.5412115798521029
 30
0.0
 40
0.0196850394
 50
0.0
 51
88.509147711884367
  0
ARC
  5
1218E
  8
0
 10
4318.5280248244680479
 20
206.5412115798521029
 30
0.0
 40
0.0196850394
 50
91.4908496614973359
 51
179.9999999975003107
  0
ARC
  5
1218F
  8
0
 10
4318.5280248244680479
 20
205.8721839069519888
 30
0.0
 40
0.0196850394
 50
180.000000007800196
 51
268.2414809619994003
  0
ARC
  5
12190
  8
0
 10
4320.1225130134680512
 20
205.8366333142521114
 30
0.0
 40
0.0196850394
 50
180.0
 51
270.0000000006775167
  0
ARC
  5
12191
  8
0
 10
4325.2012531709679024
 20
205.8366333142521114
 30
0.0
 40
0.0196850394
 50
270.000000000208388
 51
0.0
  0
ARC
  5
12192
  8
0
 10
4325.2012531709679024
 20
206.923247487451988
 30
0.0
 40
0.0196850394
 50
0.0
 51
90.0000000006774314
  0
ARC
  5
12193
  8
0
 10
4318.9650326984683488
 20
211.1689955189519878
 30
0.0
 40
0.0196850394
 50
0.0
 51
90.0
  0
ARC
  5
12194
  8
0
 10
4318.5319618323683244
 20
206.5491904361520028
 30
0.0
 40
0.0118110236
 50
91.4828094348918768
 51
180.0000000022000108
  0
ARC
  5
12195
  8
0
 10
4318.5319618323683244
 20
205.8641628647521031
 30
0.0
 40
0.0118110236
 50
180.0000000019996946
 51
267.9372759303840894
  0
ARC
  5
12196
  8
0
 10
4318.5201508087684488
 20
206.4901766213521057
 30
0.0
 40
0.0118110236
 50
179.9999995504990125
 51
269.9999987836956166
  0
ARC
  5
12197
  8
0
 10
4318.5201508087684488
 20
205.9193104795521094
 30
0.0
 40
0.0118110236
 50
90.0000012177113291
 51
180.0000004416990862
  0
ARC
  5
12198
  8
0
 10
4319.2957413599679057
 20
227.0703128750521103
 30
0.0
 40
21.2317110569999983
 50
267.9372759571859888
 51
272.0738386027833826
  0
ARC
  5
12199
  8
0
 10
4319.2957413599679057
 20
227.0703128751520978
 30
0.0
 40
21.2317110569999983
 50
267.9261613967995004
 51
267.9372761701941954
  0
ARC
  5
1219A
  8
0
 10
4331.205246194069332
 20
203.9181809636521052
 30
0.0
 40
2.4850590974000002
 50
89.9595363417753759
 51
94.8670789073759835
  0
ARC
  5
1219B
  8
0
 10
4331.205246194069332
 20
203.9181809636521052
 30
0.0
 40
2.4614370445999998
 50
89.9595376209249764
 51
93.9946837718099744
  0
ARC
  5
1219C
  8
0
 10
4331.2070012023677918
 20
206.2851292050519874
 30
0.0
 40
0.1181102362
 50
270.0
 51
89.9999999615947956
  0
ARC
  5
1219D
  8
0
 10
4331.2070012023677918
 20
206.2851292050519874
 30
0.0
 40
0.094488189
 50
270.0
 51
90.010149190917204
  0
ARC
  5
1219E
  8
0
 10
4330.9747188908677344
 20
206.0075779705520063
 30
0.0
 40
0.0590606108
 50
262.5687373521928976
 51
0.0011193145997496
  0
ARC
  5
1219F
  8
0
 10
4330.9944027771671244
 20
206.3549093827519982
 30
0.0
 40
0.0393700787
 50
89.9999994438798439
 51
99.9364098650099919
  0
ARC
  5
121A0
  8
0
 10
4330.9707567503683094
 20
206.0120873546520954
 30
0.0
 40
0.0197117999
 50
270.0927848512221203
 51
359.9306963869996139
  0
ARC
  5
121A1
  8
0
 10
4330.9707611586682106
 20
206.3190241533521032
 30
0.0
 40
0.0197076356
 50
359.9938050746994804
 51
97.3764799164107018
  0
ARC
  5
121A2
  8
0
 10
4331.3940090764672277
 20
206.6276488908521003
 30
0.0
 40
0.0196850394
 50
89.9999999997915552
 51
179.9999999997997122
  0
ARC
  5
121A3
  8
0
 10
4326.2365287613683904
 20
205.77331818215211
 30
0.0
 40
0.0196850394
 50
179.9999999997997122
 51
269.9999999989057073
  0
ARC
  5
121A4
  8
0
 10
4330.9707447449682149
 20
206.0114401983520054
 30
0.0
 40
0.0190618574
 50
262.3619923637789952
 51
270.1320191540817746
  0
ARC
  5
121A5
  8
0
 10
4330.8487334858682516
 20
206.3166252680520927
 30
0.0
 40
0.0118110236
 50
270.0000001129748739
 51
359.9999987796994105
  0
ARC
  5
121A6
  8
0
 10
4330.8487334858682516
 20
206.0144964464521138
 30
0.0
 40
0.0118110236
 50
0.000001219899967
 51
90.0000004402791518
  0
ARC
  5
121A7
  8
0
 10
4330.8001385972684147
 20
206.0158472405520058
 30
0.0
 40
0.0104616582
 50
90.0573552657149463
 51
179.9426490859000012
  0
ARC
  5
121A8
  8
0
 10
4330.7975523834684282
 20
206.3524158604521119
 30
0.0
 40
0.0078740157
 50
96.357596891681041
 51
179.9999966646992107
  0
ARC
  5
121A9
  8
0
 10
4330.7975523834684282
 20
205.9790850286520083
 30
0.0
 40
0.0078740157
 50
179.9999998390998996
 51
262.564472951194773
  0
ARC
  5
121AA
  8
0
 10
4336.0396783677670101
 20
206.627648890751999
 30
0.0
 40
0.0196850394
 50
0.0
 51
89.9999999997915552
  0
ARC
  5
121AB
  8
0
 10
4336.0396783677670101
 20
205.77331818215211
 30
0.0
 40
0.0196850394
 50
270.000000000573209
 51
359.9999999997996838
  0
ARC
  5
121AC
  8
0
 10
4354.1130689188230463
 20
204.3996254402520947
 30
0.0
 40
0.3937007874
 50
143.8710725278016014
 51
36.128927471687831
  0
ARC
  5
121AD
  8
0
 10
4354.5264547456226865
 20
204.7013913795520068
 30
0.0
 40
0.1181102362
 50
180.0
 51
216.1289274716878026
  0
ARC
  5
121AE
  8
0
 10
4353.6996830920234061
 20
204.7013913795520068
 30
0.0
 40
0.1181102362
 50
323.871072527801573
 51
0.0
  0
ARC
  5
121AF
  8
0
 10
4354.1130689188230463
 20
207.942932526852104
 30
0.0
 40
0.3937007874
 50
323.871072527801573
 51
216.1289274716878026
  0
ARC
  5
121B0
  8
0
 10
4353.6996830921234505
 20
207.6411665875521066
 30
0.0
 40
0.1181102362
 50
0.0
 51
36.128927471687831
  0
ARC
  5
121B1
  8
0
 10
4354.5264547456226865
 20
207.6411665875521066
 30
0.0
 40
0.1181102362
 50
143.8710725278016014
 51
179.9999999997997122
  0
ARC
  5
121B2
  8
0
 10
4330.798381659493316
 20
206.3135852536042876
 30
0.0
 40
0.0088629903143653
 50
169.1069067575714939
 51
278.2617728894194897
  0
ARC
  5
121B3
  8
0
 10
4320.0893572429185951
 20
206.4514935468702106
 30
0.0
 40
0.0062500926619564
 50
30.6757371377651502
 51
173.8659209065386904
  0
LINE
  5
121B4
  8
0
 10
4356.8900878999693305
 20
205.8504128417521031
 30
0.0
 11
4355.5908753015683033
 21
205.8504128417521031
 31
0.0
  0
LINE
  5
121B5
  8
0
 10
4356.1223713645686075
 20
205.9291529992520111
 30
0.0
 11
4356.9097729393679401
 21
205.9291529992520111
 31
0.0
  0
LINE
  5
121B6
  8
0
 10
4356.5162630133681887
 20
205.9409620411520905
 30
0.0
 11
4356.844242582368679
 21
205.9409620411520905
 31
0.0
  0
LINE
  5
121B7
  8
0
 10
4356.8591460917814402
 20
205.9428735473520931
 30
0.0
 11
4356.9083788122679834
 21
205.9428735473520931
 31
0.0
  0
LINE
  5
121B8
  8
0
 10
4356.5162630133681887
 20
205.9685210962520898
 30
0.0
 11
4356.8678646296675652
 21
205.9685210962520898
 31
0.0
  0
LINE
  5
121B9
  8
0
 10
4356.4752689188680961
 20
206.0137986685519991
 30
0.0
 11
4331.2247177378676497
 21
206.0137986685519991
 31
0.0
  0
LINE
  5
121BA
  8
0
 10
4356.7944606484679753
 20
206.26414221985209
 30
0.0
 11
4356.815564592667215
 21
206.26414221985209
 31
0.0
  0
LINE
  5
121BB
  8
0
 10
4356.841315528567975
 20
206.26414221985209
 30
0.0
 11
4356.9648930313678648
 21
206.26414221985209
 31
0.0
  0
LINE
  5
121BC
  8
0
 10
4356.9924520864678925
 20
206.26414221985209
 30
0.0
 11
4357.0081981361681756
 21
206.26414221985209
 31
0.0
  0
LINE
  5
121BD
  8
0
 10
4331.2247177378676497
 20
206.3287592984520984
 30
0.0
 11
4331.290813091801283
 21
206.3287592984520984
 31
0.0
  0
LINE
  5
121BE
  8
0
 10
4331.3167574907756716
 20
206.3287592984520984
 30
0.0
 11
4356.4752689188680961
 21
206.3287592984520984
 31
0.0
  0
LINE
  5
121BF
  8
0
 10
4356.1603082890678706
 20
206.3848210526520859
 30
0.0
 11
4356.2170530191669968
 21
206.3848210526520859
 31
0.0
  0
LINE
  5
121C0
  8
0
 10
4356.5977507689676713
 20
206.4058754401521014
 30
0.0
 11
4356.9648930313678648
 21
206.4058754401521014
 31
0.0
  0
LINE
  5
121C1
  8
0
 10
4356.5894157258680934
 20
206.4468695346521088
 30
0.0
 11
4356.9348545622669917
 21
206.4468695346521088
 31
0.0
  0
LINE
  5
121C2
  8
0
 10
4356.8999304196677258
 20
206.460649062252088
 30
0.0
 11
4356.6243398684682688
 21
206.460649062252088
 31
0.0
  0
LINE
  5
121C3
  8
0
 10
4356.6050525476539406
 20
206.4763970936521105
 30
0.0
 11
4356.7061677080673689
 21
206.4763970936521105
 31
0.0
  0
LINE
  5
121C4
  8
0
 10
4356.9323140728683939
 20
206.7005379717519986
 30
0.0
 11
4356.9314264824679412
 21
206.7005379717519986
 31
0.0
  0
LINE
  5
121C5
  8
0
 10
4356.5928438057680978
 20
206.7005379717519986
 30
0.0
 11
4356.5918944785680651
 21
206.7005379717519986
 31
0.0
  0
LINE
  5
121C6
  8
0
 10
4356.575526266668021
 20
206.7618793771520984
 30
0.0
 11
4356.5923566012670562
 21
206.7618793771520984
 31
0.0
  0
LINE
  5
121C7
  8
0
 10
4356.9318892257679181
 20
206.7618793771520984
 30
0.0
 11
4356.9487195604679073
 21
206.7618793771520984
 31
0.0
  0
LINE
  5
121C8
  8
0
 10
4357.0081981361681756
 20
207.0118301646519967
 30
0.0
 11
4356.9393004983676292
 21
207.0118301646519967
 31
0.0
  0
LINE
  5
121C9
  8
0
 10
4356.3979619157680645
 20
207.0708852827519877
 30
0.0
 11
4356.6046548290678402
 21
207.0708852827519877
 31
0.0
  0
LINE
  5
121CA
  8
0
 10
4356.9393004983676292
 20
207.0708852827519877
 30
0.0
 11
4357.0672532542675981
 21
207.0708852827519877
 31
0.0
  0
LINE
  5
121CB
  8
0
 10
4356.7624416033677335
 20
205.9876532294520075
 30
0.0
 11
4356.5363901446671662
 21
206.2137046880521041
 31
0.0
  0
LINE
  5
121CC
  8
0
 10
4356.5612595975680961
 20
206.2145861710521046
 30
0.0
 11
4356.764181532067596
 21
206.0116642365520931
 31
0.0
  0
LINE
  5
121CD
  8
0
 10
4356.839903202968344
 20
206.0595470581521056
 30
0.0
 11
4356.6084927651672842
 21
206.2909574959521137
 31
0.0
  0
LINE
  5
121CE
  8
0
 10
4356.5981923908675526
 20
206.3012578702521012
 30
0.0
 11
4356.5498674780683359
 21
206.3495827830521137
 31
0.0
  0
LINE
  5
121CF
  8
0
 10
4356.8720814324669846
 20
206.0278560084520905
 30
0.0
 11
4356.8512823326691432
 21
206.0486551082520066
 31
0.0
  0
LINE
  5
121D0
  8
0
 10
4356.8912367447210272
 20
206.0357810471624873
 30
0.0
 11
4356.9083788122679834
 21
206.0189735473520898
 31
0.0
  0
LINE
  5
121D1
  8
0
 10
4356.5504115041676414
 20
206.3773647863521035
 30
0.0
 11
4356.8860008574683889
 21
206.041775433052095
 31
0.0
  0
LINE
  5
121D2
  8
0
 10
4356.8916386945693375
 20
206.0361375961520025
 30
0.0
 11
4356.5560611060682277
 21
206.3717151846520892
 31
0.0
  0
LINE
  5
121D3
  8
0
 10
4356.8847590193681754
 20
206.0708561208519995
 30
0.0
 11
4356.9055581191678357
 21
206.0500570211520142
 31
0.0
  0
LINE
  5
121D4
  8
0
 10
4356.5838313443682637
 20
206.3722709758521034
 30
0.0
 11
4356.6321562573675692
 21
206.3239460627519861
 31
0.0
  0
LINE
  5
121D5
  8
0
 10
4356.6424566317682547
 20
206.3136456884521124
 30
0.0
 11
4356.8738670694683606
 21
206.0822352506519906
 31
0.0
  0
LINE
  5
121D6
  8
0
 10
4356.6691858250678706
 20
206.3160327507519867
 30
0.0
 11
4356.6572118901676731
 21
206.3280066856520136
 31
0.0
  0
LINE
  5
121D7
  8
0
 10
4356.6467143851687069
 20
206.3385041906520883
 30
0.0
 11
4356.5844868781678088
 21
206.4007316976521054
 31
0.0
  0
LINE
  5
121D8
  8
0
 10
4356.9217498910684299
 20
206.1579569215519996
 30
0.0
 11
4356.7188279565680205
 21
206.3608788560520964
 31
0.0
  0
LINE
  5
121D9
  8
0
 10
4356.7197094394678061
 20
206.3857483089520883
 30
0.0
 11
4356.9457608982693273
 21
206.1596968501521019
 31
0.0
  0
LINE
  5
121DA
  8
0
 10
4356.6084927651672842
 20
206.2909574959521137
 30
0.0
 11
4356.561072409168446
 21
206.2422352802520891
 31
0.0
  0
LINE
  5
121DB
  8
0
 10
4356.5363901443679424
 20
206.2394556242520878
 30
0.0
 11
4356.5981923908675526
 21
206.3012578702521012
 31
0.0
  0
LINE
  5
121DC
  8
0
 10
4356.6321562573675692
 20
206.3239460627519861
 30
0.0
 11
4356.6939585035679556
 21
206.3857483092521079
 31
0.0
  0
LINE
  5
121DD
  8
0
 10
4356.6911788476672882
 20
206.361066044652091
 30
0.0
 11
4356.6424566317682547
 21
206.3136456884521124
 31
0.0
  0
LINE
  5
121DE
  8
0
 10
4356.7920203813691842
 20
206.0116642366521091
 30
0.0
 11
4356.839903202968344
 21
206.0595470581521056
 31
0.0
  0
LINE
  5
121DF
  8
0
 10
4356.8738670694683606
 20
206.0822352506519906
 30
0.0
 11
4356.9217498910684299
 21
206.1301180722520883
 31
0.0
  0
LINE
  5
121E0
  8
0
 10
4356.8512823326691432
 20
206.0486551082520066
 30
0.0
 11
4356.7902804533678136
 21
205.9876532286521069
 31
0.0
  0
LINE
  5
121E1
  8
0
 10
4356.9457608989678192
 20
206.1318580002520946
 30
0.0
 11
4356.8847590193681754
 21
206.0708561208519995
 31
0.0
  0
LINE
  5
121E2
  8
0
 10
4355.5908753015683033
 20
205.9426762023520041
 30
0.0
 11
4355.5908753015683033
 21
205.8504128417521031
 31
0.0
  0
LINE
  5
121E3
  8
0
 10
4356.1602590763686749
 20
206.3578878604521094
 30
0.0
 11
4356.1602590763686749
 21
206.3410575268520972
 31
0.0
  0
LINE
  5
121E4
  8
0
 10
4356.1602590763686749
 20
206.0015249013520986
 30
0.0
 11
4356.1602590763686749
 21
205.9846945677520864
 31
0.0
  0
LINE
  5
121E5
  8
0
 10
4356.1603082890678706
 20
206.3399584198735965
 30
0.0
 11
4356.1603082890678706
 21
206.3287592984520984
 31
0.0
  0
LINE
  5
121E6
  8
0
 10
4356.1603082890678706
 20
205.9426762023520041
 30
0.0
 11
4356.1603082890678706
 21
205.9832750579141134
 31
0.0
  0
LINE
  5
121E7
  8
0
 10
4356.1603082890678706
 20
206.3593073702899972
 30
0.0
 11
4356.1603082890678706
 21
206.3848210526520859
 31
0.0
  0
LINE
  5
121E8
  8
0
 10
4356.2216004817682915
 20
206.0011000546519995
 30
0.0
 11
4356.2216004817682915
 21
206.001987644952095
 31
0.0
  0
LINE
  5
121E9
  8
0
 10
4356.2216004817682915
 20
206.3405703221521037
 30
0.0
 11
4356.2216004817682915
 21
206.3414823734520951
 31
0.0
  0
LINE
  5
121EA
  8
0
 10
4356.3782768763685453
 20
207.0512002433520991
 30
0.0
 11
4356.3782768763685453
 21
206.7068822719519972
 31
0.0
  0
LINE
  5
121EB
  8
0
 10
4356.4752689189681405
 20
206.3287592984520984
 30
0.0
 11
4356.4752689189681405
 21
206.0137986685519991
 31
0.0
  0
LINE
  5
121EC
  8
0
 10
4356.4752689188680961
 20
206.343998402352014
 30
0.0
 11
4356.4752689188680961
 21
205.9985595647520995
 31
0.0
  0
LINE
  5
121ED
  8
0
 10
4356.5162630133681887
 20
206.3356633595520861
 30
0.0
 11
4356.5162630133681887
 21
205.9685210962520898
 31
0.0
  0
LINE
  5
121EE
  8
0
 10
4356.5425313069681579
 20
206.6619407632520904
 30
0.0
 11
4356.5425313069681579
 21
206.7068822719519972
 31
0.0
  0
LINE
  5
121EF
  8
0
 10
4356.6046548291678846
 20
206.7495811489521031
 30
0.0
 11
4356.6046548291678846
 21
206.7123489953519879
 31
0.0
  0
LINE
  5
121F0
  8
0
 10
4356.6046548290678402
 20
206.4803341016520903
 30
0.0
 11
4356.6046548290678402
 21
206.7123489953519879
 31
0.0
  0
LINE
  5
121F1
  8
0
 10
4356.6046548290678402
 20
206.7495811489521031
 30
0.0
 11
4356.6046548290678402
 21
207.0708852827519877
 31
0.0
  0
LINE
  5
121F2
  8
0
 10
4356.7061677080673689
 20
205.9291529992520111
 30
0.0
 11
4356.7061677080673689
 21
205.9409620411520905
 31
0.0
  0
LINE
  5
121F3
  8
0
 10
4356.7061677080673689
 20
206.460649062252088
 30
0.0
 11
4356.7061677080673689
 21
206.4763970936521105
 31
0.0
  0
LINE
  5
121F4
  8
0
 10
4356.9083788122679834
 20
206.0189735473520898
 30
0.0
 11
4356.9083788122679834
 21
205.9428735473520931
 31
0.0
  0
LINE
  5
121F5
  8
0
 10
4356.9196154590690639
 20
206.7123489954520039
 30
0.0
 11
4356.9196154590690639
 21
206.4803341016520903
 31
0.0
  0
LINE
  5
121F6
  8
0
 10
4356.9196154590690639
 20
206.7123489954520039
 30
0.0
 11
4356.9196154590690639
 21
206.750356428252104
 31
0.0
  0
LINE
  5
121F7
  8
0
 10
4356.9196154590690639
 20
206.750356428252104
 30
0.0
 11
4356.9196154590690639
 21
207.0512002433520991
 31
0.0
  0
LINE
  5
121F8
  8
0
 10
4356.9648930313678648
 20
206.4058754401521014
 30
0.0
 11
4356.9648930313678648
 21
206.0542738239520872
 31
0.0
  0
LINE
  5
121F9
  8
0
 10
4356.9924520864678925
 20
206.4058754399520978
 30
0.0
 11
4356.9924520864678925
 21
206.0778958711520943
 31
0.0
  0
LINE
  5
121FA
  8
0
 10
4357.0278831755676947
 20
206.0472632354521068
 30
0.0
 11
4357.0278831755676947
 21
206.9921451252521081
 31
0.0
  0
LINE
  5
121FB
  8
0
 10
4357.0869382936680267
 20
207.0512002433520991
 30
0.0
 11
4357.0869382936680267
 21
206.0472632354521068
 31
0.0
  0
ARC
  5
121FC
  8
0
 10
4355.6006176375685754
 20
206.4795613089520998
 30
0.0
 40
1.3937836059999991
 50
356.9695019777998937
 51
11.0091372316011196
  0
ARC
  5
121FD
  8
0
 10
4356.431412237368022
 20
205.0117535409520997
 30
0.0
 40
1.3897604015
 50
87.5847255191946488
 51
100.5727981626846059
  0
ARC
  5
121FE
  8
0
 10
4356.3837554280680706
 20
205.5170056683519988
 30
0.0
 40
0.8428340773
 50
84.6947656635896777
 51
100.8484269152157964
  0
ARC
  5
121FF
  8
0
 10
4356.8900878999693305
 20
206.0472632354521068
 30
0.0
 40
0.1968503937
 50
270.000000000104194
 51
0.0
  0
ARC
  5
12200
  8
0
 10
4356.9097729393679401
 20
206.0472632354521068
 30
0.0
 40
0.1181102362
 50
270.000000000104194
 51
0.0
  0
ARC
  5
12201
  8
0
 10
4356.9333969683675605
 20
206.0778958711520943
 30
0.0
 40
0.0590551181
 50
225.0000008535131997
 51
359.999999996399481
  0
ARC
  5
12202
  8
0
 10
4356.844242582368679
 20
206.0000171592521099
 30
0.0
 40
0.0590551181
 50
270.0000000036998244
 51
44.9999990897048505
  0
ARC
  5
12203
  8
0
 10
4356.9333969683675605
 20
206.0778958711520943
 30
0.0
 40
0.0393700787
 50
225.0000008287815945
 51
323.130102349493427
  0
ARC
  5
12204
  8
0
 10
4356.844242582368679
 20
206.0000171592521099
 30
0.0
 40
0.0393700787
 50
306.869897646710001
 51
44.9999991196157865
  0
ARC
  5
12205
  8
0
 10
4356.1807561235682442
 20
205.9846945677520864
 30
0.0
 40
0.0204970472
 50
180.0000016451990064
 51
257.7654487108766261
  0
ARC
  5
12206
  8
0
 10
4356.9318414738681895
 20
206.1457774247521115
 30
0.0
 40
0.0196850394
 50
315.0000012358863728
 51
45.0000021481989378
  0
ARC
  5
12207
  8
0
 10
4356.9078304660670256
 20
206.1440374968520928
 30
0.0
 40
0.0196850394
 50
315.0000006544976259
 51
44.9999992710002203
  0
ARC
  5
12208
  8
0
 10
4356.7781009566679131
 20
206.0255836615521048
 30
0.0
 40
0.0196850394
 50
225.000000655714814
 51
314.9999994397904857
  0
ARC
  5
12209
  8
0
 10
4356.776361028768406
 20
206.0015726537521061
 30
0.0
 40
0.0196850394
 50
224.999997662987596
 51
314.9999988552154946
  0
ARC
  5
1220A
  8
0
 10
4356.1223713645686075
 20
205.9488380386520987
 30
0.0
 40
0.0196850394
 50
198.2414017402828961
 51
270.000000000104194
  0
ARC
  5
1220B
  8
0
 10
4356.1725573046678619
 20
206.0015249013520986
 30
0.0
 40
0.0122982283
 50
93.6143180093174863
 51
179.9999974426995948
  0
ARC
  5
1220C
  8
0
 10
4356.4629706904679551
 20
205.9985595647520995
 30
0.0
 40
0.0122982283
 50
263.9999998621082113
 51
0.0000026644991504
  0
ARC
  5
1220D
  8
0
 10
4356.2097894581684159
 20
206.001987644952095
 30
0.0
 40
0.0118110236
 50
0.0000012209991667
 51
90.0000004409044578
  0
ARC
  5
1220E
  8
0
 10
4356.2256250219679714
 20
206.0018799483520979
 30
0.0
 40
0.0040994094
 50
190.9671040481028967
 51
262.2404722545840059
  0
ARC
  5
1220F
  8
0
 10
4356.4947455696683392
 20
206.3216753222521049
 30
0.0
 40
0.0787401575
 50
45.0121067441075127
 51
93.4699493577838609
  0
ARC
  5
12210
  8
0
 10
4356.1807561235682442
 20
206.3578878604521094
 30
0.0
 40
0.0204970472
 50
102.2345510664018065
 51
179.9999983272996928
  0
ARC
  5
12211
  8
0
 10
4356.5359480526685729
 20
206.3356633586521127
 30
0.0
 40
0.0196850394
 50
44.9999978460171519
 51
179.9999974222984918
  0
ARC
  5
12212
  8
0
 10
4356.5492656123669803
 20
206.2265801562519982
 30
0.0
 40
0.0182086614
 50
135.0000001620817045
 51
225.0000010903906968
  0
ARC
  5
12213
  8
0
 10
4356.4629706904679551
 20
206.343998402352014
 30
0.0
 40
0.0122982283
 50
359.9999973355984935
 51
95.9999994107225092
  0
ARC
  5
12214
  8
0
 10
4356.1725573046678619
 20
206.3410575268520972
 30
0.0
 40
0.0122982283
 50
180.0000024736991975
 51
269.9999996598767211
  0
ARC
  5
12215
  8
0
 10
4356.2097894581684159
 20
206.3405703221521037
 30
0.0
 40
0.0118110236
 50
270.0000001106820946
 51
359.9999987791994727
  0
ARC
  5
12216
  8
0
 10
4356.2256250219679714
 20
206.3407024798520979
 30
0.0
 40
0.0040994094
 50
97.7607046707016423
 51
169.0328960879994042
  0
ARC
  5
12217
  8
0
 10
4356.1078453858681314
 20
206.5382966741520931
 30
0.0
 40
0.8428424701999999
 50
354.7007139731995835
 51
10.8679902101025299
  0
ARC
  5
12218
  8
0
 10
4356.7944917341683322
 20
206.4413824696520976
 30
0.0
 40
0.1772523555
 50
225.0100127070043925
 51
269.9899518424920188
  0
ARC
  5
12219
  8
0
 10
4356.611738805368077
 20
206.4273928838520931
 30
0.0
 40
0.0787401575
 50
176.5883658138004932
 51
224.9999999750035897
  0
ARC
  5
1221A
  8
0
 10
4357.0081890995679714
 20
206.2247445715520939
 30
0.0
 40
0.0394004596
 50
60.008664627185027
 51
89.9868591328033602
  0
ARC
  5
1221B
  8
0
 10
4356.5977507689676713
 20
206.3861904008520867
 30
0.0
 40
0.0196850394
 50
90.0000025808101753
 51
225.0000009474063063
  0
ARC
  5
1221C
  8
0
 10
4356.7049085318676589
 20
206.3469594310521131
 30
0.0
 40
0.0196850394
 50
45.0000005361112798
 51
134.224209212716687
  0
ARC
  5
1221D
  8
0
 10
4356.5751790224685465
 20
206.2285055957520115
 30
0.0
 40
0.0196850394
 50
135.7757894865854098
 51
224.9999995411832003
  0
ARC
  5
1221E
  8
0
 10
4356.6243398684682688
 20
206.4803341016520903
 30
0.0
 40
0.0196850394
 50
180.0
 51
270.000000000104194
  0
ARC
  5
1221F
  8
0
 10
4356.8999304196677258
 20
206.4803341016520903
 30
0.0
 40
0.0196850394
 50
270.000000000104194
 51
0.0
  0
ARC
  5
12220
  8
0
 10
4356.7068339713678142
 20
206.3728728411520876
 30
0.0
 40
0.0182086614
 50
44.9999992012053269
 51
134.9999993996945875
  0
ARC
  5
12221
  8
0
 10
4356.9348545628681677
 20
206.4591677630521076
 30
0.0
 40
0.0122982283
 50
269.9999973356050873
 51
6.000000034802456
  0
ARC
  5
12222
  8
0
 10
4356.5894157252678269
 20
206.4591677630521076
 30
0.0
 40
0.0122982283
 50
174.0000004859984131
 51
270.0000026644992204
  0
ARC
  5
12223
  8
0
 10
4356.6932375062669962
 20
206.7092202630520887
 30
0.0
 40
0.3149606299
 50
179.9999999706001006
 51
180.4256189699991069
  0
ARC
  5
12224
  8
0
 10
4356.5755262671682431
 20
206.741382329951989
 30
0.0
 40
0.0204970472
 50
90.0000016456924783
 51
167.7654490516005978
  0
ARC
  5
12225
  8
0
 10
4356.9487195598685503
 20
206.741382329951989
 30
0.0
 40
0.0204970472
 50
12.2345512115958108
 51
89.9999983636873537
  0
ARC
  5
12226
  8
0
 10
4356.9318892262681402
 20
206.7495811488520872
 30
0.0
 40
0.0122982283
 50
90.0000025561099051
 51
176.3856819696001139
  0
ARC
  5
12227
  8
0
 10
4356.5923566007686532
 20
206.7495811488520872
 30
0.0
 40
0.0122982283
 50
0.0000003401998638
 51
89.9999975340928557
  0
ARC
  5
12228
  8
0
 10
4356.9314264826680301
 20
206.7123489953519879
 30
0.0
 40
0.0118110236
 50
179.9999995592991127
 51
269.9999987792140814
  0
ARC
  5
12229
  8
0
 10
4356.5928438054679646
 20
206.7123489953519879
 30
0.0
 40
0.0118110236
 50
270.0000012209943065
 51
359.9999998885996888
  0
ARC
  5
1222A
  8
0
 10
4356.9315341792680556
 20
206.6965134315520913
 30
0.0
 40
0.0040994094
 50
8.1317735578988195
 51
79.0328959514885412
  0
ARC
  5
1222B
  8
0
 10
4356.5927116477678283
 20
206.6965134315520913
 30
0.0
 40
0.0040994094
 50
100.9671039113011943
 51
171.8676287216009939
  0
ARC
  5
1222C
  8
0
 10
4356.4425771445676219
 20
207.3327964900520897
 30
0.0
 40
1.3937836059999991
 50
258.9908627673800083
 51
273.030498022220911
  0
ARC
  5
1222D
  8
0
 10
4356.3838417793676854
 20
206.8255687417521074
 30
0.0
 40
0.8428424701999999
 50
259.1429847558168831
 51
275.2992860253759204
  0
ARC
  5
1222E
  8
0
 10
4357.0081981361681756
 20
206.9921451252521081
 30
0.0
 40
0.0196850394
 50
0.0000000001009635
 51
90.0000000001042082
  0
ARC
  5
1222F
  8
0
 10
4356.9393004983676292
 20
207.0315152040521127
 30
0.0
 40
0.0196850394
 50
180.0000000000993055
 51
270.000000000104194
  0
ARC
  5
12230
  8
0
 10
4356.9393004983676292
 20
207.0512002433520991
 30
0.0
 40
0.0196850394
 50
90.0000000001042082
 51
180.0000000000993055
  0
ARC
  5
12231
  8
0
 10
4356.3979619157680645
 20
207.0512002433520991
 30
0.0
 40
0.0196850394
 50
90.0000000001042082
 51
180.0000000000993055
  0
ARC
  5
12232
  8
0
 10
4357.9216605866677128
 20
206.4907262161520975
 30
0.0
 40
1.3897604015
 50
169.4272018391968118
 51
182.4185873158986908
  0
ARC
  5
12233
  8
0
 10
4357.4164084592675863
 20
206.5383830254519921
 30
0.0
 40
0.8428340773
 50
169.14426545449939
 51
185.3052343351006073
  0
ARC
  5
12234
  8
0
 10
4357.0856468510683044
 20
206.7092204098520938
 30
0.0
 40
0.7073699747
 50
180.0000118991999045
 51
180.1893593371993063
  0
ARC
  5
12235
  8
0
 10
4357.0672532542675981
 20
207.0512002433520991
 30
0.0
 40
0.0196850394
 50
0.0000000001009635
 51
90.0000000001042082
  0
LINE
  5
12236
  8
0
 10
4355.5908753015683033
 20
205.9252159913519904
 30
0.0
 11
4354.4083445094229319
 21
205.9252159913519904
 31
0.0
  0
LINE
  5
12237
  8
0
 10
4353.8177933283232051
 20
205.9252159913519904
 30
0.0
 11
4336.0593634071683482
 21
205.9252159913519904
 31
0.0
  0
LINE
  5
12238
  8
0
 10
4356.3415903826671638
 20
205.9426762023520041
 30
0.0
 11
4354.4083445094229319
 21
205.9426762023520041
 31
0.0
  0
LINE
  5
12239
  8
0
 10
4353.8177933283232051
 20
205.9426762023520041
 30
0.0
 11
4336.0593634071683482
 21
205.9426762023520041
 31
0.0
  0
LINE
  5
1223A
  8
0
 10
4356.1603082890678706
 20
205.9523288724521137
 30
0.0
 11
4354.4083445094229319
 21
205.9523288724521137
 31
0.0
  0
LINE
  5
1223B
  8
0
 10
4353.8177933283232051
 20
205.9523288724521137
 30
0.0
 11
4336.0593634071683482
 21
205.9523288724521137
 31
0.0
  0
LINE
  5
1223C
  8
0
 10
4356.1602590763686749
 20
206.3480204068521005
 30
0.0
 11
4354.3886594700234127
 21
206.3480204068521005
 31
0.0
  0
LINE
  5
1223D
  8
0
 10
4353.8374783676235893
 20
206.3480204068521005
 30
0.0
 11
4336.0593634071683482
 21
206.3480204068521005
 31
0.0
  0
LINE
  5
1223F
  8
0
 10
4326.2168437220670967
 20
206.6276339301520011
 30
0.0
 11
4326.2168437220670967
 21
206.324499284552104
 31
0.0
  0
ARC
  5
12240
  8
0
 10
4326.2365437220678359
 20
206.6276339301520011
 30
0.0
 40
0.0197
 50
90.0
 51
179.9999999999575948
  0
LINE
  5
12241
  8
0
 10
4326.2168437220670967
 20
205.9252159913521041
 30
0.0
 11
4325.2209382102682866
 21
205.9252159913521041
 31
0.0
  0
LINE
  5
12242
  8
0
 10
4326.2168437220670967
 20
206.4763970936521105
 30
0.0
 11
4325.2209382102682866
 21
206.4763970936521105
 31
0.0
  0
LINE
  5
12243
  8
0
 10
4326.2168437220670967
 20
206.4514802331520968
 30
0.0
 11
4325.2209382102682866
 21
206.4514802331520968
 31
0.0
  0
LINE
  5
12244
  8
0
 10
4326.2168437220670967
 20
206.4232474873521141
 30
0.0
 11
4325.2209382102682866
 21
206.4232474873521141
 31
0.0
  0
LINE
  5
12245
  8
0
 10
4326.2758988401683382
 20
205.9701685758521137
 30
0.0
 11
4326.2758988401683382
 21
206.0095386546774137
 31
0.0
  0
ENDSEC
  0
EOF
