  0
SECTION
  2
HEADER
  9
$ACADVER
  1
AC1009
  9
$INSBASE
 10
3937.0959000006059796
 20
159.9452738050036089
 30
0.0
  9
$EXTMIN
 10
3934.636507939384046
 20
159.9357923226164928
 30
-0.0000000000112498
  9
$EXTMAX
 10
3942.0841784043750522
 20
238.7525343098014901
 30
0.0000000000002956
  9
$LIMMIN
 10
0.0
 20
0.0
  9
$LIMMAX
 10
11.6929133858000007
 20
8.2677165353999982
  9
$ORTHOMODE
 70
     0
  9
$REGENMODE
 70
     1
  9
$FILLMODE
 70
     1
  9
$QTEXTMODE
 70
     0
  9
$MIRRTEXT
 70
     0
  9
$DRAGMODE
 70
     2
  9
$LTSCALE
 40
0.6431102362
  9
$OSMODE
 70
  4095
  9
$ATTMODE
 70
     1
  9
$TEXTSIZE
 40
0.2
  9
$TRACEWID
 40
0.05
  9
$TEXTSTYLE
  7
STANDARD
  9
$CLAYER
  8
0
  9
$CELTYPE
  6
BYLAYER
  9
$CECOLOR
 62
   256
  9
$DIMSCALE
 40
1.0
  9
$DIMASZ
 40
0.1875
  9
$DIMEXO
 40
0.0625
  9
$DIMDLI
 40
0.4443307087
  9
$DIMRND
 40
0.0
  9
$DIMDLE
 40
0.0
  9
$DIMEXE
 40
0.125
  9
$DIMTP
 40
0.01
  9
$DIMTM
 40
0.01
  9
$DIMTXT
 40
2.0
  9
$DIMCEN
 40
0.1052362205
  9
$DIMTSZ
 40
0.0
  9
$DIMTOL
 70
     1
  9
$DIMLIM
 70
     0
  9
$DIMTIH
 70
     1
  9
$DIMTOH
 70
     1
  9
$DIMSE1
 70
     0
  9
$DIMSE2
 70
     0
  9
$DIMTAD
 70
     0
  9
$DIMZIN
 70
     0
  9
$DIMBLK
  1

  9
$DIMASO
 70
     1
  9
$DIMSHO
 70
     1
  9
$DIMPOST
  1
\X
  9
$DIMAPOST
  1

  9
$DIMALT
 70
     1
  9
$DIMALTD
 70
     2
  9
$DIMALTF
 40
25.3999999999999986
  9
$DIMLFAC
 40
1.0
  9
$DIMTOFL
 70
     0
  9
$DIMTVP
 40
0.0
  9
$DIMTIX
 70
     0
  9
$DIMSOXD
 70
     0
  9
$DIMSAH
 70
     0
  9
$DIMBLK1
  1

  9
$DIMBLK2
  1

  9
$DIMSTYLE
  2
STANDARD
  9
$DIMCLRD
 70
     0
  9
$DIMCLRE
 70
     0
  9
$DIMCLRT
 70
     0
  9
$DIMTFAC
 40
1.0
  9
$DIMGAP
 40
0.09
  9
$LUNITS
 70
     2
  9
$LUPREC
 70
     4
  9
$SKETCHINC
 40
0.1
  9
$FILLETRAD
 40
0.0
  9
$AUNITS
 70
     0
  9
$AUPREC
 70
     0
  9
$MENU
  1
.
  9
$ELEVATION
 40
0.0
  9
$PELEVATION
 40
0.0
  9
$THICKNESS
 40
0.0
  9
$LIMCHECK
 70
     0
  9
$BLIPMODE
 70
     0
  9
$CHAMFERA
 40
0.0
  9
$CHAMFERB
 40
0.0
  9
$SKPOLY
 70
     0
  9
$TDCREATE
 40
2458060.468368056230247
  9
$TDUPDATE
 40
2459527.8457523151300848
  9
$TDINDWG
 40
0.7413033565
  9
$TDUSRTIMER
 40
0.7413033565
  9
$USRTIMER
 70
     1
  9
$ANGBASE
 50
0.0
  9
$ANGDIR
 70
     0
  9
$PDMODE
 70
     0
  9
$PDSIZE
 40
0.3125
  9
$PLINEWID
 40
0.0
  9
$COORDS
 70
     1
  9
$SPLFRAME
 70
     0
  9
$SPLINETYPE
 70
     6
  9
$SPLINESEGS
 70
     8
  9
$ATTDIA
 70
     1
  9
$ATTREQ
 70
     1
  9
$HANDLING
 70
     1
  9
$HANDSEED
  5
11327
  9
$SURFTAB1
 70
     6
  9
$SURFTAB2
 70
     6
  9
$SURFTYPE
 70
     6
  9
$SURFU
 70
     6
  9
$SURFV
 70
     6
  9
$UCSNAME
  2

  9
$UCSORG
 10
0.0
 20
0.0
 30
0.0
  9
$UCSXDIR
 10
1.0
 20
0.0
 30
0.0
  9
$UCSYDIR
 10
0.0
 20
1.0
 30
0.0
  9
$PUCSNAME
  2

  9
$PUCSORG
 10
0.0
 20
0.0
 30
0.0
  9
$PUCSXDIR
 10
1.0
 20
0.0
 30
0.0
  9
$PUCSYDIR
 10
0.0
 20
1.0
 30
0.0
  9
$USERI1
 70
     0
  9
$USERI2
 70
     0
  9
$USERI3
 70
     0
  9
$USERI4
 70
     0
  9
$USERI5
 70
     0
  9
$USERR1
 40
0.0
  9
$USERR2
 40
0.0
  9
$USERR3
 40
0.0
  9
$USERR4
 40
0.0
  9
$USERR5
 40
0.0
  9
$WORLDVIEW
 70
     1
  9
$SHADEDGE
 70
     3
  9
$SHADEDIF
 70
    70
  9
$TILEMODE
 70
     1
  9
$MAXACTVP
 70
    64
  9
$PLIMCHECK
 70
     0
  9
$PEXTMIN
 10
1.0000000000000000E+20
 20
1.0000000000000000E+20
 30
1.0000000000000000E+20
  9
$PEXTMAX
 10
-1.0000000000000000E+20
 20
-1.0000000000000000E+20
 30
-1.0000000000000000E+20
  9
$PLIMMIN
 10
0.0
 20
0.0
  9
$PLIMMAX
 10
12.0
 20
9.0
  9
$UNITMODE
 70
     0
  9
$VISRETAIN
 70
     1
  9
$PLINEGEN
 70
     0
  9
$PSLTSCALE
 70
     1
  0
ENDSEC
  0
SECTION
  2
TABLES
  0
TABLE
  2
VPORT
 70
     1
  0
VPORT
  2
*ACTIVE
 70
     0
 10
0.0
 20
0.0
 11
1.0
 21
1.0
 12
294.2845375078168217
 22
39.3999228164113617
 13
0.0
 23
0.0
 14
1.0
 24
1.0
 15
0.0
 25
0.0
 16
0.0
 26
0.0
 36
26.6346482412083887
 17
3644.0758056640620453
 27
159.9442404997975871
 37
0.0
 40
79.5323507055688452
 41
2.302023121387283
 42
50.0
 43
0.0
 44
0.0
 50
0.0
 51
0.0
 71
     0
 72
   100
 73
     1
 74
     1
 75
     0
 76
     0
 77
     0
 78
     0
  0
ENDTAB
  0
TABLE
  2
LTYPE
 70
     2
  0
LTYPE
  2
CONTINUOUS
 70
     0
  3
Solid line
 72
    65
 73
     0
 40
0.0
  0
LTYPE
  2
PHANTOM2
 70
     0
  3
___ _ _ ___ _ _ ___ _ _ ___ _ _
 72
    65
 73
     6
 40
1.25
 49
0.625
 49
-0.125
 49
0.125
 49
-0.125
 49
0.125
 49
-0.125
  0
ENDTAB
  0
TABLE
  2
LAYER
 70
     2
  0
LAYER
  2
0
 70
     0
 62
   255
  6
CONTINUOUS
  0
LAYER
  2
DEFPOINTS
 70
     0
 62
     7
  6
CONTINUOUS
  0
ENDTAB
  0
TABLE
  2
STYLE
 70
     1
  0
STYLE
  2
STANDARD
 70
     0
 40
0.0
 41
0.8
 50
0.0
 71
     0
 42
0.2
  3
txt
  4

  0
ENDTAB
  0
TABLE
  2
VIEW
 70
     0
  0
ENDTAB
  0
TABLE
  2
UCS
 70
     0
  0
ENDTAB
  0
TABLE
  2
APPID
 70
    10
  0
APPID
  2
ACAD
 70
     0
  0
APPID
  2
ACAD_MLEADERVER
 70
     0
  0
APPID
  2
ACAD_EXEMPT_FROM_CAD_STANDARDS
 70
     0
  0
APPID
  2
ACAD_NAV_VCDISPLAY
 70
     0
  0
APPID
  2
ACAECLAYERSTANDARD
 70
     0
  0
APPID
  2
ACCMTRANSPARENCY
 70
     0
  0
APPID
  2
ACAD_DSTYLE_DIMJAG
 70
     0
  0
APPID
  2
ACAD_DSTYLE_DIMTALN
 70
     0
  0
APPID
  2
ACDBATTR
 70
     0
  0
APPID
  2
ACAD_PSEXT
 70
     0
  0
ENDTAB
  0
TABLE
  2
DIMSTYLE
 70
     1
  0
DIMSTYLE
  2
STANDARD
 70
     0
  3

  4

  5

  6

  7

 40
1.0
 41
0.1875
 42
0.0625
 43
0.38
 44
0.125
 45
0.0
 46
0.0
 47
0.01
 48
0.01
140
0.15625
141
0.09
142
0.0
143
25.3999999999999986
144
1.0
145
0.0
146
1.0
147
0.09
 71
     1
 72
     0
 73
     1
 74
     1
 75
     0
 76
     0
 77
     0
 78
     4
170
     0
171
     2
172
     0
173
     0
174
     0
175
     0
176
     0
177
     0
178
     0
  0
ENDTAB
  0
ENDSEC
  0
SECTION
  2
BLOCKS
  0
BLOCK
  8
0
  2
$MODEL_SPACE
 70
     0
 10
0.0
 20
0.0
 30
0.0
  3
$MODEL_SPACE
  1

  0
ENDBLK
  5
21
  8
0
  0
BLOCK
 67
     1
  8
0
  2
$PAPER_SPACE
 70
     0
 10
0.0
 20
0.0
 30
0.0
  3
$PAPER_SPACE
  1

  0
ENDBLK
  5
1D
 67
     1
  8
0
  0
ENDSEC
  0
SECTION
  2
ENTITIES
  0
ATTDEF
  5
AA11
  8
DEFPOINTS
 10
3937.0912210234719169
 20
159.9500227717036012
 30
0.0
 40
0.001
  1
K-1.1922.004
  3

  2
MODELNUMBER
 70
     0
1001
ACDBATTR
1070
     0
1070
     1
  0
ATTDEF
  5
AA12
  8
DEFPOINTS
 10
3937.0912210234719169
 20
159.9483561050369929
 30
0.0
 40
0.001
  1

  3

  2
TRADENAME
 70
     0
1001
ACDBATTR
1070
     0
1070
     1
  0
ATTDEF
  5
AA13
  8
DEFPOINTS
 10
3937.0912210234719169
 20
159.9466894383702993
 30
0.0
 40
0.001
  1
SHOWER DOOR
  3

  2
PRODUCT
 70
     0
1001
ACDBATTR
1070
     0
1070
     1
  0
LINE
  5
11185
  8
0
 10
3936.7282897709060308
 20
159.9452738050036089
 30
0.0
 11
3937.4635102303059284
 21
159.9452738050036089
 31
0.0
  0
LINE
  5
11186
  8
0
 10
3937.6077976385058719
 20
160.8674454563036136
 30
0.0
 11
3937.4605732355062173
 21
160.9090480551035967
 31
0.0
  0
LINE
  5
11187
  8
0
 10
3937.4605732355062173
 20
160.9485255767035881
 30
0.0
 11
3937.6153637287061429
 21
160.8905081448035901
 31
0.0
  0
LINE
  5
11188
  8
0
 10
3937.5088692884501143
 20
171.8153525451035932
 30
0.0
 11
3937.4605732355062173
 21
171.8153525451035932
 31
0.0
  0
LINE
  5
11189
  8
0
 10
3936.7282897709060308
 20
171.8153525451035932
 30
0.0
 11
3936.665943129506104
 21
171.8153525451035932
 31
0.0
  0
LINE
  5
1118A
  8
0
 10
3936.665943129506104
 20
173.9807068758036053
 30
0.0
 11
3936.7282897709060308
 21
173.9807068758036053
 31
0.0
  0
LINE
  5
1118B
  8
0
 10
3937.4605732355062173
 20
173.9807068758036053
 30
0.0
 11
3937.5088692884519332
 21
173.9807068758036053
 31
0.0
  0
LINE
  5
1118C
  8
0
 10
3934.9336596649059175
 20
194.0988296317036088
 30
0.0
 11
3936.7282897709060308
 21
194.0988296317036088
 31
0.0
  0
LINE
  5
1118D
  8
0
 10
3934.8942895862060141
 20
194.1381997105036135
 30
0.0
 11
3934.8942895862060141
 21
205.3980422302037141
 31
0.0
  0
LINE
  5
1118E
  8
0
 10
3935.5201180192061656
 20
194.0988296317036088
 30
0.0
 11
3935.5201180192061656
 21
194.7687717271739984
 31
0.0
  0
LINE
  5
1118F
  8
0
 10
3935.6816911610058014
 20
194.8468611278036065
 30
0.0
 11
3935.6816911610058014
 21
204.6893808129036927
 31
0.0
  0
LINE
  5
11190
  8
0
 10
3935.6413451786538644
 20
194.8074910491035894
 30
0.0
 11
3936.7282897709060308
 21
194.8074910491035894
 31
0.0
  0
LINE
  5
11191
  8
0
 10
3936.6462580901070396
 20
173.9610218365037042
 30
0.0
 11
3936.6462580901070396
 21
171.8350375845035956
 31
0.0
  0
LINE
  5
11192
  8
0
 10
3936.7095732223069717
 20
238.0043289231037136
 30
0.0
 11
3936.7095732223069717
 21
238.7248013640036959
 31
0.0
  0
LINE
  5
11193
  8
0
 10
3936.7243787776060344
 20
238.6066911278037139
 30
0.0
 11
3936.7243787776060344
 21
238.5082659310037059
 31
0.0
  0
LINE
  5
11194
  8
0
 10
3936.7282897709060308
 20
159.9452738050036089
 30
0.0
 11
3936.7282897709060308
 21
238.5082659310037059
 31
0.0
  0
LINE
  5
11195
  8
0
 10
3936.8089984323069075
 20
159.9452738050036089
 30
0.0
 11
3936.8089984323069075
 21
238.5082659310037059
 31
0.0
  0
LINE
  5
11196
  8
0
 10
3936.9920953131058923
 20
238.1933053010035906
 30
0.0
 11
3936.9920953131058923
 21
238.5082659310037059
 31
0.0
  0
LINE
  5
11197
  8
0
 10
3937.1889457068059528
 20
238.1933053010035906
 30
0.0
 11
3937.1889457068059528
 21
238.5082659310037059
 31
0.0
  0
LINE
  5
11198
  8
0
 10
3937.3680535505059197
 20
159.9452738050036089
 30
0.0
 11
3937.3680535505059197
 21
238.5082659310037059
 31
0.0
  0
LINE
  5
11199
  8
0
 10
3937.4566622423058107
 20
238.6066911278037139
 30
0.0
 11
3937.4566622423058107
 21
238.5082659310037059
 31
0.0
  0
LINE
  5
1119A
  8
0
 10
3937.4635102303059284
 20
159.9452738050036089
 30
0.0
 11
3937.4635102303059284
 21
160.9082181206036068
 31
0.0
  0
LINE
  5
1119B
  8
0
 10
3937.4635102303059284
 20
160.947424754003606
 30
0.0
 11
3937.4635102303059284
 21
171.8153525451035932
 31
0.0
  0
LINE
  5
1119C
  8
0
 10
3937.4635102303059284
 20
173.9807068758036053
 30
0.0
 11
3937.4635102303059284
 21
194.0988296317036088
 31
0.0
  0
LINE
  5
1119D
  8
0
 10
3937.4635102303059284
 20
194.8074910491035894
 30
0.0
 11
3937.4635102303059284
 21
204.7287508916037098
 31
0.0
  0
LINE
  5
1119E
  8
0
 10
3937.4635102303059284
 20
205.4374123089037028
 30
0.0
 11
3937.4635102303059284
 21
225.6342501829037133
 31
0.0
  0
LINE
  5
1119F
  8
0
 10
3937.4635102303059284
 20
227.7996045136036969
 30
0.0
 11
3937.4635102303059284
 21
237.9846438837037113
 31
0.0
  0
LINE
  5
111A0
  8
0
 10
3937.8355574743059151
 20
238.0043289231037136
 30
0.0
 11
3937.8355574743059151
 21
238.7248013640036959
 31
0.0
  0
LINE
  5
111A1
  8
0
 10
3942.081305505706041
 20
238.6657462459037049
 30
0.0
 11
3942.081305505706041
 21
238.0633840412037046
 31
0.0
  0
LINE
  5
111A2
  8
0
 10
3937.4605732355062173
 20
237.9846438837037113
 30
0.0
 11
3942.0025653483057795
 21
237.9846438837037113
 31
0.0
  0
LINE
  5
111A3
  8
0
 10
3936.9920953131058923
 20
238.1933053010035906
 30
0.0
 11
3937.1889457068059528
 21
238.1933053010035906
 31
0.0
  0
LINE
  5
111A4
  8
0
 10
3937.4605732355062173
 20
238.5082659310037059
 30
0.0
 11
3937.3784113611059183
 21
238.5082659310037059
 31
0.0
  0
LINE
  5
111A5
  8
0
 10
3936.8104516484058877
 20
238.5082659310037059
 30
0.0
 11
3936.7382850980070543
 21
238.5082659310037059
 31
0.0
  0
LINE
  5
111A6
  8
0
 10
3936.7243787776060344
 20
238.5082659310037059
 30
0.0
 11
3937.4466669152070608
 21
238.5082659310037059
 31
0.0
  0
LINE
  5
111A7
  8
0
 10
3936.7440638170060083
 20
238.6263761672036878
 30
0.0
 11
3937.4369772030058812
 21
238.6263761672036878
 31
0.0
  0
LINE
  5
111A8
  8
0
 10
3937.8355574743059151
 20
238.6657462459037049
 30
0.0
 11
3936.7095732223069717
 21
238.6657462459037049
 31
0.0
  0
LINE
  5
111A9
  8
0
 10
3936.7292582617060361
 20
238.7444864034036982
 30
0.0
 11
3942.0025653483057795
 21
238.7444864034036982
 31
0.0
  0
ARC
  5
111AA
  8
0
 10
3934.9336596649059175
 20
194.1381997105036135
 30
0.0
 40
0.0393700787
 50
180.0
 51
270.0
  0
ARC
  5
111AB
  8
0
 10
3935.7210612397061595
 20
194.8468611278036065
 30
0.0
 40
0.0393700787
 50
180.0
 51
270.0
  0
ARC
  5
111AC
  8
0
 10
3936.665943129506104
 20
171.8350375845035956
 30
0.0
 40
0.0196850394
 50
179.9999999987998081
 51
270.0
  0
ARC
  5
111AD
  8
0
 10
3936.665943129506104
 20
173.9610218365037042
 30
0.0
 40
0.0196850394
 50
90.0
 51
180.0000000002995932
  0
ARC
  5
111AE
  8
0
 10
3937.6111006605069633
 20
160.8791342799036954
 30
0.0
 40
0.0121465449
 50
254.2207954760910127
 51
69.4533672414128915
  0
ARC
  5
111AF
  8
0
 10
3936.7292582617060361
 20
238.7248013640036959
 30
0.0
 40
0.0196850394
 50
90.0
 51
180.0000000007001972
  0
ARC
  5
111B0
  8
0
 10
3936.7292582617060361
 20
238.0043289231037136
 30
0.0
 40
0.0196850394
 50
179.9999999992998028
 51
267.1799474161340981
  0
ARC
  5
111B1
  8
0
 10
3937.4369772030058812
 20
238.6066911278037139
 30
0.0
 40
0.0196850394
 50
0.0
 51
89.9999999998957776
  0
ARC
  5
111B2
  8
0
 10
3936.7440638170060083
 20
238.6066911278037139
 30
0.0
 40
0.0196850394
 50
90.0
 51
180.0
  0
ARC
  5
111B3
  8
0
 10
3937.8158724349068507
 20
238.7248013640036959
 30
0.0
 40
0.0196850394
 50
0.0000000002002986
 51
90.0
  0
ARC
  5
111B4
  8
0
 10
3937.8158724349068507
 20
238.0043289231037136
 30
0.0
 40
0.0196850394
 50
270.0
 51
0.0
  0
ARC
  5
111B5
  8
0
 10
3942.0025653483057795
 20
238.6657462459037049
 30
0.0
 40
0.0787401575
 50
0.0
 51
90.0
  0
ARC
  5
111B6
  8
0
 10
3942.0025653483057795
 20
238.0633840412037046
 30
0.0
 40
0.0787401575
 50
270.0
 51
0.0
  0
LINE
  5
111B7
  8
0
 10
3937.4605732355062173
 20
159.9452738050036089
 30
0.0
 11
3937.4605732355062173
 21
238.5082659310037059
 31
0.0
  0
ARC
  5
111B8
  8
0
 10
3887.911350190137
 20
172.8980297104951944
 30
0.0
 40
49.6286086874692671
 50
358.772221194190422
 51
1.227778805713595
  0
ARC
  5
111B9
  8
0
 10
3937.5088692884519332
 20
173.961006875803605
 30
0.0
 40
0.0197
 50
1.2277788057168511
 51
90.0
  0
ARC
  5
111BA
  8
0
 10
3937.5088692884501143
 20
171.8350525451035935
 30
0.0
 40
0.0197
 50
270.0
 51
358.7722211940966872
  0
LINE
  5
111BB
  8
0
 10
3935.5927179074460582
 20
194.7980538480711914
 30
0.0
 11
3935.5201180192061656
 21
194.7687717271739984
 31
0.0
  0
ARC
  5
111BC
  8
0
 10
3935.6413451786538644
 20
194.6774910491037076
 30
0.0
 40
0.13
 50
90.0
 51
111.965975710893602
  0
LINE
  5
111BD
  8
0
 10
3934.9336596649059175
 20
205.4374123090036051
 30
0.0
 11
3936.7282897709060308
 21
205.4374123090036051
 31
0.0
  0
LINE
  5
111BE
  8
0
 10
3935.5201180192061656
 20
205.4374123090036051
 30
0.0
 11
3935.5201180192061656
 21
204.7674702135333007
 31
0.0
  0
LINE
  5
111BF
  8
0
 10
3935.6413451786538644
 20
204.7287508916037098
 30
0.0
 11
3936.7282897709060308
 21
204.7287508916037098
 31
0.0
  0
ARC
  5
111C0
  8
0
 10
3934.9336596649059175
 20
205.3980422302037141
 30
0.0
 40
0.0393700787
 50
90.0
 51
180.0
  0
ARC
  5
111C1
  8
0
 10
3935.7210612397061595
 20
204.6893808129036927
 30
0.0
 40
0.0393700787
 50
90.0
 51
180.0
  0
LINE
  5
111C2
  8
0
 10
3935.5927179074460582
 20
204.7381880926359941
 30
0.0
 11
3935.5201180192061656
 21
204.7674702135333007
 31
0.0
  0
ARC
  5
111C3
  8
0
 10
3935.6413451786538644
 20
204.8587508916035063
 30
0.0
 40
0.13
 50
248.0340242891064122
 51
270.0
  0
LINE
  5
111C4
  8
0
 10
3939.1856281689060779
 20
194.0988296317036088
 30
0.0
 11
3937.4605732355062173
 21
194.0988296317036088
 31
0.0
  0
LINE
  5
111C5
  8
0
 10
3939.2249982476059813
 20
194.1381997105036135
 30
0.0
 11
3939.2249982476059813
 21
205.3980422302037141
 31
0.0
  0
LINE
  5
111C6
  8
0
 10
3938.5991698146058297
 20
194.0988296317036088
 30
0.0
 11
3938.5991698146058297
 21
194.7687717271739984
 31
0.0
  0
LINE
  5
111C7
  8
0
 10
3938.437596672806194
 20
194.8468611278036065
 30
0.0
 11
3938.437596672806194
 21
204.6893808129036927
 31
0.0
  0
LINE
  5
111C8
  8
0
 10
3938.4779426551590404
 20
194.8074910491035894
 30
0.0
 11
3937.4605732355062173
 21
194.8074910491035894
 31
0.0
  0
LINE
  5
111C9
  8
0
 10
3936.655777603506067
 20
194.8074910491035894
 30
0.0
 11
3936.655777603506067
 21
204.7287508916037098
 31
0.0
  0
ARC
  5
111CA
  8
0
 10
3939.1856281689060779
 20
194.1381997105036135
 30
0.0
 40
0.0393700787
 50
270.0
 51
0.0
  0
ARC
  5
111CB
  8
0
 10
3938.3982265941058358
 20
194.8468611278036065
 30
0.0
 40
0.0393700787
 50
270.0
 51
0.0
  0
LINE
  5
111CC
  8
0
 10
3938.5265699263659371
 20
194.7980538480711914
 30
0.0
 11
3938.5991698146058297
 21
194.7687717271739984
 31
0.0
  0
ARC
  5
111CD
  8
0
 10
3938.4779426551590404
 20
194.6774910491037076
 30
0.0
 40
0.13
 50
68.0340242891064122
 51
90.0
  0
LINE
  5
111CE
  8
0
 10
3939.1856281689060779
 20
205.4374123090036051
 30
0.0
 11
3937.4605732355062173
 21
205.4374123090036051
 31
0.0
  0
LINE
  5
111CF
  8
0
 10
3938.5991698146058297
 20
205.4374123090036051
 30
0.0
 11
3938.5991698146058297
 21
204.7674702135333007
 31
0.0
  0
LINE
  5
111D0
  8
0
 10
3938.4779426551590404
 20
204.7287508916037098
 30
0.0
 11
3937.4605732355062173
 21
204.7287508916037098
 31
0.0
  0
ARC
  5
111D1
  8
0
 10
3939.1856281689060779
 20
205.3980422302037141
 30
0.0
 40
0.0393700787
 50
0.0
 51
90.0
  0
ARC
  5
111D2
  8
0
 10
3938.3982265941058358
 20
204.6893808129036927
 30
0.0
 40
0.0393700787
 50
0.0
 51
90.0
  0
LINE
  5
111D3
  8
0
 10
3938.5265699263659371
 20
204.7381880926359941
 30
0.0
 11
3938.5991698146058297
 21
204.7674702135333007
 31
0.0
  0
ARC
  5
111D4
  8
0
 10
3938.4779426551590404
 20
204.8587508916035063
 30
0.0
 40
0.13
 50
270.0
 51
291.9659757108934741
  0
LINE
  5
111D5
  8
0
 10
3937.5088692884501143
 20
227.7996045136036969
 30
0.0
 11
3937.4605732355062173
 21
227.7996045136036969
 31
0.0
  0
LINE
  5
111D6
  8
0
 10
3936.7282897709060308
 20
227.7996045136036969
 30
0.0
 11
3936.665943129506104
 21
227.7996045136036969
 31
0.0
  0
LINE
  5
111D7
  8
0
 10
3936.665943129506104
 20
225.6342501829037133
 30
0.0
 11
3936.7282897709060308
 21
225.6342501829037133
 31
0.0
  0
LINE
  5
111D8
  8
0
 10
3937.4605732355062173
 20
225.6342501829037133
 30
0.0
 11
3937.5088692884519332
 21
225.6342501829037133
 31
0.0
  0
LINE
  5
111D9
  8
0
 10
3936.6462580901070396
 20
225.6539352222035859
 30
0.0
 11
3936.6462580901070396
 21
227.7799194742036946
 31
0.0
  0
ARC
  5
111DA
  8
0
 10
3936.665943129506104
 20
227.7799194742036946
 30
0.0
 40
0.0196850394
 50
90.0
 51
180.0000000012001067
  0
ARC
  5
111DB
  8
0
 10
3936.665943129506104
 20
225.6539352222035859
 30
0.0
 40
0.0196850394
 50
179.9999999996994973
 51
270.0
  0
ARC
  5
111DC
  8
0
 10
3887.911350190137
 20
226.7169273482120957
 30
0.0
 40
49.6286086874692671
 50
358.7722211942863737
 51
1.227778805809651
  0
ARC
  5
111DD
  8
0
 10
3937.5088692884519332
 20
225.6539501829037135
 30
0.0
 40
0.0197
 50
270.0
 51
358.7722211942831905
  0
ARC
  5
111DE
  8
0
 10
3937.5088692884501143
 20
227.7799045136036966
 30
0.0
 40
0.0197
 50
1.227778805903265
 51
90.0
  0
ENDSEC
  0
EOF
