  0
SECTION
  2
HEADER
  9
$ACADVER
  1
AC1009
  9
$INSBASE
 10
3952.4790824210149367
 20
153.1656448448217134
 30
0.0
  9
$EXTMIN
 10
3928.6783679308318824
 20
153.1525332398466048
 30
-0.0000000000112498
  9
$EXTMAX
 10
3976.3434834535528353
 20
231.9692752270316873
 30
0.0000000000002956
  9
$LIMMIN
 10
0.0
 20
0.0
  9
$LIMMAX
 10
11.6929133858000007
 20
8.2677165353999982
  9
$ORTHOMODE
 70
     0
  9
$REGENMODE
 70
     1
  9
$FILLMODE
 70
     1
  9
$QTEXTMODE
 70
     0
  9
$MIRRTEXT
 70
     0
  9
$DRAGMODE
 70
     2
  9
$LTSCALE
 40
0.6431102362
  9
$OSMODE
 70
  4095
  9
$ATTMODE
 70
     1
  9
$TEXTSIZE
 40
0.2
  9
$TRACEWID
 40
0.05
  9
$TEXTSTYLE
  7
STANDARD
  9
$CLAYER
  8
0
  9
$CELTYPE
  6
BYLAYER
  9
$CECOLOR
 62
   256
  9
$DIMSCALE
 40
1.0
  9
$DIMASZ
 40
0.1875
  9
$DIMEXO
 40
0.0625
  9
$DIMDLI
 40
0.4443307087
  9
$DIMRND
 40
0.0
  9
$DIMDLE
 40
0.0
  9
$DIMEXE
 40
0.125
  9
$DIMTP
 40
0.01
  9
$DIMTM
 40
0.01
  9
$DIMTXT
 40
2.0
  9
$DIMCEN
 40
0.1052362205
  9
$DIMTSZ
 40
0.0
  9
$DIMTOL
 70
     1
  9
$DIMLIM
 70
     0
  9
$DIMTIH
 70
     1
  9
$DIMTOH
 70
     1
  9
$DIMSE1
 70
     0
  9
$DIMSE2
 70
     0
  9
$DIMTAD
 70
     0
  9
$DIMZIN
 70
     0
  9
$DIMBLK
  1

  9
$DIMASO
 70
     1
  9
$DIMSHO
 70
     1
  9
$DIMPOST
  1
\X
  9
$DIMAPOST
  1

  9
$DIMALT
 70
     1
  9
$DIMALTD
 70
     2
  9
$DIMALTF
 40
25.3999999999999986
  9
$DIMLFAC
 40
1.0
  9
$DIMTOFL
 70
     0
  9
$DIMTVP
 40
0.0
  9
$DIMTIX
 70
     0
  9
$DIMSOXD
 70
     0
  9
$DIMSAH
 70
     0
  9
$DIMBLK1
  1

  9
$DIMBLK2
  1

  9
$DIMSTYLE
  2
STANDARD
  9
$DIMCLRD
 70
     0
  9
$DIMCLRE
 70
     0
  9
$DIMCLRT
 70
     0
  9
$DIMTFAC
 40
1.0
  9
$DIMGAP
 40
0.09
  9
$LUNITS
 70
     2
  9
$LUPREC
 70
     4
  9
$SKETCHINC
 40
0.1
  9
$FILLETRAD
 40
0.0
  9
$AUNITS
 70
     0
  9
$AUPREC
 70
     0
  9
$MENU
  1
.
  9
$ELEVATION
 40
0.0
  9
$PELEVATION
 40
0.0
  9
$THICKNESS
 40
0.0
  9
$LIMCHECK
 70
     0
  9
$BLIPMODE
 70
     0
  9
$CHAMFERA
 40
0.0
  9
$CHAMFERB
 40
0.0
  9
$SKPOLY
 70
     0
  9
$TDCREATE
 40
2458060.468368056230247
  9
$TDUPDATE
 40
2459527.8456481480970979
  9
$TDINDWG
 40
0.7412107639
  9
$TDUSRTIMER
 40
0.7412107639
  9
$USRTIMER
 70
     1
  9
$ANGBASE
 50
0.0
  9
$ANGDIR
 70
     0
  9
$PDMODE
 70
     0
  9
$PDSIZE
 40
0.3125
  9
$PLINEWID
 40
0.0
  9
$COORDS
 70
     1
  9
$SPLFRAME
 70
     0
  9
$SPLINETYPE
 70
     6
  9
$SPLINESEGS
 70
     8
  9
$ATTDIA
 70
     1
  9
$ATTREQ
 70
     1
  9
$HANDLING
 70
     1
  9
$HANDSEED
  5
113C6
  9
$SURFTAB1
 70
     6
  9
$SURFTAB2
 70
     6
  9
$SURFTYPE
 70
     6
  9
$SURFU
 70
     6
  9
$SURFV
 70
     6
  9
$UCSNAME
  2

  9
$UCSORG
 10
0.0
 20
0.0
 30
0.0
  9
$UCSXDIR
 10
1.0
 20
0.0
 30
0.0
  9
$UCSYDIR
 10
0.0
 20
1.0
 30
0.0
  9
$PUCSNAME
  2

  9
$PUCSORG
 10
0.0
 20
0.0
 30
0.0
  9
$PUCSXDIR
 10
1.0
 20
0.0
 30
0.0
  9
$PUCSYDIR
 10
0.0
 20
1.0
 30
0.0
  9
$USERI1
 70
     0
  9
$USERI2
 70
     0
  9
$USERI3
 70
     0
  9
$USERI4
 70
     0
  9
$USERI5
 70
     0
  9
$USERR1
 40
0.0
  9
$USERR2
 40
0.0
  9
$USERR3
 40
0.0
  9
$USERR4
 40
0.0
  9
$USERR5
 40
0.0
  9
$WORLDVIEW
 70
     1
  9
$SHADEDGE
 70
     3
  9
$SHADEDIF
 70
    70
  9
$TILEMODE
 70
     1
  9
$MAXACTVP
 70
    64
  9
$PLIMCHECK
 70
     0
  9
$PEXTMIN
 10
1.0000000000000000E+20
 20
1.0000000000000000E+20
 30
1.0000000000000000E+20
  9
$PEXTMAX
 10
-1.0000000000000000E+20
 20
-1.0000000000000000E+20
 30
-1.0000000000000000E+20
  9
$PLIMMIN
 10
0.0
 20
0.0
  9
$PLIMMAX
 10
12.0
 20
9.0
  9
$UNITMODE
 70
     0
  9
$VISRETAIN
 70
     1
  9
$PLINEGEN
 70
     0
  9
$PSLTSCALE
 70
     1
  0
ENDSEC
  0
SECTION
  2
TABLES
  0
TABLE
  2
VPORT
 70
     1
  0
VPORT
  2
*ACTIVE
 70
     0
 10
0.0
 20
0.0
 11
1.0
 21
1.0
 12
308.435120028129802
 22
32.6166637336415022
 13
0.0
 23
0.0
 14
1.0
 24
1.0
 15
0.0
 25
0.0
 16
0.0
 26
0.0
 36
26.6346482412083887
 17
3644.0758056640620453
 27
159.9442404997975871
 37
0.0
 40
79.4991380217060453
 41
2.302023121387283
 42
50.0
 43
0.0
 44
0.0
 50
0.0
 51
0.0
 71
     0
 72
   100
 73
     1
 74
     1
 75
     0
 76
     0
 77
     0
 78
     0
  0
ENDTAB
  0
TABLE
  2
LTYPE
 70
     2
  0
LTYPE
  2
CONTINUOUS
 70
     0
  3
Solid line
 72
    65
 73
     0
 40
0.0
  0
LTYPE
  2
PHANTOM2
 70
     0
  3
___ _ _ ___ _ _ ___ _ _ ___ _ _
 72
    65
 73
     6
 40
1.25
 49
0.625
 49
-0.125
 49
0.125
 49
-0.125
 49
0.125
 49
-0.125
  0
ENDTAB
  0
TABLE
  2
LAYER
 70
     2
  0
LAYER
  2
0
 70
     0
 62
   255
  6
CONTINUOUS
  0
LAYER
  2
DEFPOINTS
 70
     0
 62
     7
  6
CONTINUOUS
  0
ENDTAB
  0
TABLE
  2
STYLE
 70
     1
  0
STYLE
  2
STANDARD
 70
     0
 40
0.0
 41
0.8
 50
0.0
 71
     0
 42
0.2
  3
txt
  4

  0
ENDTAB
  0
TABLE
  2
VIEW
 70
     0
  0
ENDTAB
  0
TABLE
  2
UCS
 70
     0
  0
ENDTAB
  0
TABLE
  2
APPID
 70
    10
  0
APPID
  2
ACAD
 70
     0
  0
APPID
  2
ACAD_MLEADERVER
 70
     0
  0
APPID
  2
ACAD_EXEMPT_FROM_CAD_STANDARDS
 70
     0
  0
APPID
  2
ACAD_NAV_VCDISPLAY
 70
     0
  0
APPID
  2
ACAECLAYERSTANDARD
 70
     0
  0
APPID
  2
ACCMTRANSPARENCY
 70
     0
  0
APPID
  2
ACAD_DSTYLE_DIMJAG
 70
     0
  0
APPID
  2
ACAD_DSTYLE_DIMTALN
 70
     0
  0
APPID
  2
ACDBATTR
 70
     0
  0
APPID
  2
ACAD_PSEXT
 70
     0
  0
ENDTAB
  0
TABLE
  2
DIMSTYLE
 70
     1
  0
DIMSTYLE
  2
STANDARD
 70
     0
  3

  4

  5

  6

  7

 40
1.0
 41
0.1875
 42
0.0625
 43
0.38
 44
0.125
 45
0.0
 46
0.0
 47
0.01
 48
0.01
140
0.15625
141
0.09
142
0.0
143
25.3999999999999986
144
1.0
145
0.0
146
1.0
147
0.09
 71
     1
 72
     0
 73
     1
 74
     1
 75
     0
 76
     0
 77
     0
 78
     4
170
     0
171
     2
172
     0
173
     0
174
     0
175
     0
176
     0
177
     0
178
     0
  0
ENDTAB
  0
ENDSEC
  0
SECTION
  2
BLOCKS
  0
BLOCK
  8
0
  2
$MODEL_SPACE
 70
     0
 10
0.0
 20
0.0
 30
0.0
  3
$MODEL_SPACE
  1

  0
ENDBLK
  5
21
  8
0
  0
BLOCK
 67
     1
  8
0
  2
$PAPER_SPACE
 70
     0
 10
0.0
 20
0.0
 30
0.0
  3
$PAPER_SPACE
  1

  0
ENDBLK
  5
1D
 67
     1
  8
0
  0
ENDSEC
  0
SECTION
  2
ENTITIES
  0
ATTDEF
  5
AA11
  8
DEFPOINTS
 10
3952.476224557335172
 20
153.1704291745930959
 30
0.0
 40
0.001
  1
K-1.1922.004
  3

  2
MODELNUMBER
 70
     0
1001
ACDBATTR
1070
     0
1070
     1
  0
ATTDEF
  5
AA12
  8
DEFPOINTS
 10
3952.476224557335172
 20
153.1687625079264023
 30
0.0
 40
0.001
  1

  3

  2
TRADENAME
 70
     0
1001
ACDBATTR
1070
     0
1070
     1
  0
ATTDEF
  5
AA13
  8
DEFPOINTS
 10
3952.476224557335172
 20
153.167095841259794
 30
0.0
 40
0.001
  1
SHOWER DOOR
  3

  2
PRODUCT
 70
     0
1001
ACDBATTR
1070
     0
1070
     1
  0
LINE
  5
111F5
  8
0
 10
3976.1013028934648901
 20
153.1656448448217134
 30
0.0
 11
3928.8568619485649833
 21
153.1656448448217134
 31
0.0
  0
LINE
  5
111F6
  8
0
 10
3950.509546988009788
 20
153.7601330337217007
 30
0.0
 11
3973.1051769092650829
 21
153.7601330337217007
 31
0.0
  0
LINE
  5
111F7
  8
0
 10
3950.509546988009788
 20
153.7601330338216883
 30
0.0
 11
3930.4316650982650572
 21
153.7601330338216883
 31
0.0
  0
LINE
  5
111F8
  8
0
 10
3930.4316650982650572
 20
153.7680070495217137
 30
0.0
 11
3950.509546988009788
 21
153.7680070495217137
 31
0.0
  0
LINE
  5
111F9
  8
0
 10
3950.2654524998101806
 20
153.7955661046217131
 30
0.0
 11
3950.5095492045102219
 21
153.7955661046217131
 31
0.0
  0
LINE
  5
111FA
  8
0
 10
3950.509546988009788
 20
153.854621222721704
 30
0.0
 11
3973.1051769092650829
 21
153.854621222721704
 31
0.0
  0
LINE
  5
111FB
  8
0
 10
3973.1051769092650829
 20
153.913676340821695
 30
0.0
 11
3950.7024603738100268
 21
153.913676340821695
 31
0.0
  0
LINE
  5
111FC
  8
0
 10
3973.1051769092650829
 20
153.921550356621708
 30
0.0
 11
3974.1878540745651662
 21
153.921550356621708
 31
0.0
  0
LINE
  5
111FD
  8
0
 10
3974.1091529442651336
 20
154.1932038999217127
 30
0.0
 11
3950.7024603738100268
 21
154.1932038999217127
 31
0.0
  0
LINE
  5
111FE
  8
0
 10
3973.3610824210650208
 20
154.2089519314216943
 30
0.0
 11
3974.1091529442651336
 21
154.2089519314216943
 31
0.0
  0
LINE
  5
111FF
  8
0
 10
3973.3610824210650208
 20
154.464857443221689
 30
0.0
 11
3950.7024603738100268
 21
154.464857443221689
 31
0.0
  0
LINE
  5
11200
  8
0
 10
3955.338287145510094
 20
165.0357235849216977
 30
0.0
 11
3950.7024603738100268
 21
165.0357235849216977
 31
0.0
  0
LINE
  5
11201
  8
0
 10
3950.5252950195099402
 20
165.0357235849216977
 30
0.0
 11
3945.8894682479099174
 21
165.0357235849216977
 31
0.0
  0
LINE
  5
11202
  8
0
 10
3949.6591532872098469
 20
165.604621222721704
 30
0.0
 11
3950.5252950195099402
 21
165.604621222721704
 31
0.0
  0
LINE
  5
11203
  8
0
 10
3950.3184760676099359
 20
165.606589726721694
 30
0.0
 11
3949.7871215482100524
 21
165.606589726721694
 31
0.0
  0
LINE
  5
11204
  8
0
 10
3949.6591532872098469
 20
165.606589726721694
 30
0.0
 11
3949.7871276957098416
 21
165.606589726721694
 31
0.0
  0
LINE
  5
11205
  8
0
 10
3950.3184346638099669
 20
165.606589726721694
 30
0.0
 11
3950.4662399014100629
 21
165.606589726721694
 31
0.0
  0
LINE
  5
11206
  8
0
 10
3949.7300194290110085
 20
165.6124952385216886
 30
0.0
 11
3949.6591532872098469
 21
165.6124952385216886
 31
0.0
  0
LINE
  5
11207
  8
0
 10
3949.7378934447110623
 20
165.6459598054217111
 30
0.0
 11
3950.7024603738100268
 21
165.6459598054217111
 31
0.0
  0
LINE
  5
11208
  8
0
 10
3949.7378934447110623
 20
166.5908416952217124
 30
0.0
 11
3950.7024603738100268
 21
166.5908416952217124
 31
0.0
  0
LINE
  5
11209
  8
0
 10
3949.7575784841101267
 20
166.6026527188217017
 30
0.0
 11
3950.3481296652098536
 21
166.6026527188217017
 31
0.0
  0
LINE
  5
1120A
  8
0
 10
3949.7300194290110085
 20
166.6085582306216963
 30
0.0
 11
3949.6591532872098469
 21
166.6085582306216963
 31
0.0
  0
LINE
  5
1120B
  8
0
 10
3950.3481296652098536
 20
166.6184007503217117
 30
0.0
 11
3949.7575784841101267
 21
166.6184007503217117
 31
0.0
  0
LINE
  5
1120C
  8
0
 10
3949.6591532872098469
 20
166.6282432700216987
 30
0.0
 11
3949.7300194290110085
 21
166.6282432700216987
 31
0.0
  0
LINE
  5
1120D
  8
0
 10
3950.4662399014100629
 20
166.630211773921701
 30
0.0
 11
3950.3186353229098131
 21
166.630211773921701
 31
0.0
  0
LINE
  5
1120E
  8
0
 10
3950.3186353229098131
 20
166.630211773921701
 30
0.0
 11
3949.7871294646101887
 21
166.630211773921701
 31
0.0
  0
LINE
  5
1120F
  8
0
 10
3949.6591532872098469
 20
166.630211773921701
 30
0.0
 11
3949.7871294646101887
 21
166.630211773921701
 31
0.0
  0
LINE
  5
11210
  8
0
 10
3950.5252950195099402
 20
166.632180277921691
 30
0.0
 11
3949.6591532872098469
 21
166.632180277921691
 31
0.0
  0
LINE
  5
11211
  8
0
 10
3945.8894682479099174
 20
167.2010779156217097
 30
0.0
 11
3950.5252950195099402
 21
167.2010779156217097
 31
0.0
  0
LINE
  5
11212
  8
0
 10
3950.7024603738100268
 20
167.2010779156217097
 30
0.0
 11
3955.338287145510094
 21
167.2010779156217097
 31
0.0
  0
LINE
  5
11213
  8
0
 10
3928.8568619485649833
 20
153.1656448448217134
 30
0.0
 11
3928.8568619485649833
 21
231.8861172857216957
 31
0.0
  0
LINE
  5
11214
  8
0
 10
3928.8568619485649833
 20
231.8861172857216957
 30
0.0
 11
3928.8568619485649833
 21
231.9648574432218027
 31
0.0
  0
LINE
  5
11215
  8
0
 10
3928.8686729722649034
 20
231.8861172857216957
 30
0.0
 11
3928.8686729722649034
 21
231.9451574432218024
 31
0.0
  0
LINE
  5
11216
  8
0
 10
3930.4316650982650572
 20
231.9451574432218024
 30
0.0
 11
3930.4316650982650572
 21
153.1656448448217134
 31
0.0
  0
LINE
  5
11217
  8
0
 10
3930.4513501375649867
 20
231.2837550810216953
 30
0.0
 11
3930.4513501375649867
 21
231.8861172857216957
 31
0.0
  0
LINE
  5
11218
  8
0
 10
3935.569460373765196
 20
231.8861172857216957
 30
0.0
 11
3935.569460373765196
 21
231.2837550810216953
 31
0.0
  0
LINE
  5
11219
  8
0
 10
3945.6926178542098569
 20
165.2325739786217014
 30
0.0
 11
3945.6926178542098569
 21
167.0042275219217061
 31
0.0
  0
LINE
  5
1121A
  8
0
 10
3945.6926178542098569
 20
219.051471616421793
 30
0.0
 11
3945.6926178542098569
 21
220.8231251597217124
 31
0.0
  0
LINE
  5
1121B
  8
0
 10
3949.6591532872098469
 20
220.4510779156217097
 30
0.0
 11
3949.6591532872098469
 21
219.4235188605217957
 31
0.0
  0
LINE
  5
1121C
  8
0
 10
3949.6591532872098469
 20
165.632180277921691
 30
0.0
 11
3949.6591532872098469
 21
166.6085582306216963
 31
0.0
  0
LINE
  5
1121D
  8
0
 10
3949.6591532872098469
 20
166.632180277921691
 30
0.0
 11
3949.6591532872098469
 21
165.604621222721704
 31
0.0
  0
LINE
  5
1121E
  8
0
 10
3949.6591532872098469
 20
219.4510779156217097
 30
0.0
 11
3949.6591532872098469
 21
220.4274558684217027
 31
0.0
  0
LINE
  5
1121F
  8
0
 10
3949.6985233660097947
 20
220.4510779156217097
 30
0.0
 11
3949.6985233660097947
 21
220.4491094117217074
 31
0.0
  0
LINE
  5
11220
  8
0
 10
3949.6985233660097947
 20
219.4254873645217003
 30
0.0
 11
3949.6985233660097947
 21
219.4235188605217957
 31
0.0
  0
LINE
  5
11221
  8
0
 10
3949.6985233660097947
 20
166.632180277921691
 30
0.0
 11
3949.6985233660097947
 21
166.630211773921701
 31
0.0
  0
LINE
  5
11222
  8
0
 10
3949.6985233660097947
 20
165.606589726721694
 30
0.0
 11
3949.6985233660097947
 21
165.604621222721704
 31
0.0
  0
LINE
  5
11223
  8
0
 10
3949.7300194290110085
 20
165.6124952385216886
 30
0.0
 11
3949.7300194290110085
 21
166.6282432700216987
 31
0.0
  0
LINE
  5
11224
  8
0
 10
3949.7300194290110085
 20
219.4313928763218087
 30
0.0
 11
3949.7300194290110085
 21
220.447140907821705
 31
0.0
  0
LINE
  5
11225
  8
0
 10
3949.7378934447110623
 20
165.6459598054217111
 30
0.0
 11
3949.7378934447110623
 21
166.5908416952217124
 31
0.0
  0
LINE
  5
11226
  8
0
 10
3949.7378934447110623
 20
219.4648574432218027
 30
0.0
 11
3949.7378934447110623
 21
220.409739333021804
 31
0.0
  0
LINE
  5
11227
  8
0
 10
3949.7575784841101267
 20
220.4372983881218033
 30
0.0
 11
3949.7575784841101267
 21
220.421550356621708
 31
0.0
  0
LINE
  5
11228
  8
0
 10
3949.7575784841101267
 20
165.6184007503217117
 30
0.0
 11
3949.7575784841101267
 21
165.6341487818216933
 31
0.0
  0
LINE
  5
11229
  8
0
 10
3949.7575784841101267
 20
166.6184007503217117
 30
0.0
 11
3949.7575784841101267
 21
166.6026527188217017
 31
0.0
  0
LINE
  5
1122A
  8
0
 10
3949.7575784841101267
 20
219.4372983881216896
 30
0.0
 11
3949.7575784841101267
 21
219.4530464196216997
 31
0.0
  0
LINE
  5
1122B
  8
0
 10
3949.9073977502098387
 20
165.604621222721704
 30
0.0
 11
3949.9073977502098387
 21
165.606589726721694
 31
0.0
  0
LINE
  5
1122C
  8
0
 10
3949.9073977502098387
 20
219.4235188605217957
 30
0.0
 11
3949.9073977502098387
 21
219.4254873645217003
 31
0.0
  0
LINE
  5
1122D
  8
0
 10
3949.9192087738101691
 20
219.4254873645217003
 30
0.0
 11
3949.9192087738101691
 21
219.4235188605217957
 31
0.0
  0
LINE
  5
1122E
  8
0
 10
3949.9192087738101691
 20
165.606589726721694
 30
0.0
 11
3949.9192087738101691
 21
165.604621222721704
 31
0.0
  0
LINE
  5
1122F
  8
0
 10
3949.9299210432100153
 20
219.4254873645217003
 30
0.0
 11
3949.9299210432100153
 21
219.4235188605217957
 31
0.0
  0
LINE
  5
11230
  8
0
 10
3949.9299210432100153
 20
165.606589726721694
 30
0.0
 11
3949.9299210432100153
 21
165.604621222721704
 31
0.0
  0
LINE
  5
11231
  8
0
 10
3949.9560164851100126
 20
166.630211773921701
 30
0.0
 11
3949.9560164851100126
 21
166.632180277921691
 31
0.0
  0
LINE
  5
11232
  8
0
 10
3949.9560164851100126
 20
220.4491094117217074
 30
0.0
 11
3949.9560164851100126
 21
220.4510779156217097
 31
0.0
  0
LINE
  5
11233
  8
0
 10
3949.9678275087098882
 20
220.4510779156217097
 30
0.0
 11
3949.9678275087098882
 21
220.4491094117217074
 31
0.0
  0
LINE
  5
11234
  8
0
 10
3949.9678275087098882
 20
166.632180277921691
 30
0.0
 11
3949.9678275087098882
 21
166.630211773921701
 31
0.0
  0
LINE
  5
11235
  8
0
 10
3949.9741139172101612
 20
220.409739333021804
 30
0.0
 11
3949.9741139172101612
 21
219.4648574432218027
 31
0.0
  0
LINE
  5
11236
  8
0
 10
3949.9741139172101612
 20
166.5908416952217124
 30
0.0
 11
3949.9741139172101612
 21
165.6459598054217111
 31
0.0
  0
LINE
  5
11237
  8
0
 10
3949.987566185110154
 20
220.4510779156217097
 30
0.0
 11
3949.987566185110154
 21
220.4491094117217074
 31
0.0
  0
LINE
  5
11238
  8
0
 10
3949.987566185110154
 20
166.632180277921691
 30
0.0
 11
3949.987566185110154
 21
166.630211773921701
 31
0.0
  0
LINE
  5
11239
  8
0
 10
3950.1181419642098263
 20
166.630211773921701
 30
0.0
 11
3950.1181419642098263
 21
166.632180277921691
 31
0.0
  0
LINE
  5
1123A
  8
0
 10
3950.1181419642098263
 20
220.4491094117217074
 30
0.0
 11
3950.1181419642098263
 21
220.4510779156217097
 31
0.0
  0
LINE
  5
1123B
  8
0
 10
3950.1378806406100921
 20
220.4510779156217097
 30
0.0
 11
3950.1378806406100921
 21
220.4491094117217074
 31
0.0
  0
LINE
  5
1123C
  8
0
 10
3950.1378806406100921
 20
166.632180277921691
 30
0.0
 11
3950.1378806406100921
 21
166.630211773921701
 31
0.0
  0
LINE
  5
1123D
  8
0
 10
3950.1496916642099677
 20
220.4510779156217097
 30
0.0
 11
3950.1496916642099677
 21
220.4491094117217074
 31
0.0
  0
LINE
  5
1123E
  8
0
 10
3950.1496916642099677
 20
166.632180277921691
 30
0.0
 11
3950.1496916642099677
 21
166.630211773921701
 31
0.0
  0
LINE
  5
1123F
  8
0
 10
3950.175787106109965
 20
165.604621222721704
 30
0.0
 11
3950.175787106109965
 21
165.606589726721694
 31
0.0
  0
LINE
  5
11240
  8
0
 10
3950.175787106109965
 20
219.4235188605217957
 30
0.0
 11
3950.175787106109965
 21
219.4254873645217003
 31
0.0
  0
LINE
  5
11241
  8
0
 10
3950.186499375411131
 20
219.4254873645217003
 30
0.0
 11
3950.186499375411131
 21
219.4235188605217957
 31
0.0
  0
LINE
  5
11242
  8
0
 10
3950.186499375411131
 20
165.606589726721694
 30
0.0
 11
3950.186499375411131
 21
165.604621222721704
 31
0.0
  0
LINE
  5
11243
  8
0
 10
3950.1983103991101416
 20
219.4254873645217003
 30
0.0
 11
3950.1983103991101416
 21
219.4235188605217957
 31
0.0
  0
LINE
  5
11244
  8
0
 10
3950.1983103991101416
 20
165.606589726721694
 30
0.0
 11
3950.1983103991101416
 21
165.604621222721704
 31
0.0
  0
LINE
  5
11245
  8
0
 10
3950.2654524998101806
 20
153.7955661046217131
 30
0.0
 11
3950.2654524998101806
 21
165.0357235849216977
 31
0.0
  0
LINE
  5
11246
  8
0
 10
3950.2654524998101806
 20
167.2010779156217097
 30
0.0
 11
3950.2654524998101806
 21
218.854621222721704
 31
0.0
  0
LINE
  5
11247
  8
0
 10
3950.2654524998101806
 20
221.0199755534218014
 30
0.0
 11
3950.2654524998101806
 21
231.7089519314216943
 31
0.0
  0
LINE
  5
11248
  8
0
 10
3950.3481296652098536
 20
220.4372983881218033
 30
0.0
 11
3950.3481296652098536
 21
220.421550356621708
 31
0.0
  0
LINE
  5
11249
  8
0
 10
3950.3481296652098536
 20
165.6184007503217117
 30
0.0
 11
3950.3481296652098536
 21
165.6341487818216933
 31
0.0
  0
LINE
  5
1124A
  8
0
 10
3950.3481296652098536
 20
166.6184007503217117
 30
0.0
 11
3950.3481296652098536
 21
166.6026527188217017
 31
0.0
  0
LINE
  5
1124B
  8
0
 10
3950.3481296652098536
 20
219.4372983881216896
 30
0.0
 11
3950.3481296652098536
 21
219.4530464196216997
 31
0.0
  0
LINE
  5
1124C
  8
0
 10
3950.4268698227101595
 20
153.7680070495217137
 30
0.0
 11
3950.4268698227101595
 21
153.7955661046217131
 31
0.0
  0
LINE
  5
1124D
  8
0
 10
3950.4439839958099583
 20
166.5908416952217124
 30
0.0
 11
3950.4439839958099583
 21
166.630211773921701
 31
0.0
  0
LINE
  5
1124E
  8
0
 10
3950.4439839958099583
 20
220.409739333021804
 30
0.0
 11
3950.4439839958099583
 21
220.4491094117217074
 31
0.0
  0
LINE
  5
1124F
  8
0
 10
3950.4662399014100629
 20
220.4510779156217097
 30
0.0
 11
3950.4662399014100629
 21
220.4491094117217074
 31
0.0
  0
LINE
  5
11250
  8
0
 10
3950.4662399014100629
 20
219.4254873645217003
 30
0.0
 11
3950.4662399014100629
 21
219.4235188605217957
 31
0.0
  0
LINE
  5
11251
  8
0
 10
3950.4662399014100629
 20
165.606589726721694
 30
0.0
 11
3950.4662399014100629
 21
165.6459598054217111
 31
0.0
  0
LINE
  5
11252
  8
0
 10
3950.4662399014100629
 20
166.5908416952217124
 30
0.0
 11
3950.4662399014100629
 21
166.630211773921701
 31
0.0
  0
LINE
  5
11253
  8
0
 10
3950.4662399014100629
 20
166.632180277921691
 30
0.0
 11
3950.4662399014100629
 21
166.630211773921701
 31
0.0
  0
LINE
  5
11254
  8
0
 10
3950.4662399014100629
 20
165.606589726721694
 30
0.0
 11
3950.4662399014100629
 21
165.604621222721704
 31
0.0
  0
LINE
  5
11255
  8
0
 10
3950.4662399014100629
 20
219.4254873645217003
 30
0.0
 11
3950.4662399014100629
 21
219.4648574432218027
 31
0.0
  0
LINE
  5
11256
  8
0
 10
3950.4662399014100629
 20
220.409739333021804
 30
0.0
 11
3950.4662399014100629
 21
220.4491094117217074
 31
0.0
  0
LINE
  5
11257
  8
0
 10
3950.5068382104100237
 20
165.604621222721704
 30
0.0
 11
3950.5068381890100682
 21
165.6459598054217111
 31
0.0
  0
LINE
  5
11258
  8
0
 10
3950.5068376990088836
 20
166.5908416952217124
 30
0.0
 11
3950.5068376776098376
 21
166.632180277921691
 31
0.0
  0
LINE
  5
11259
  8
0
 10
3950.5068384023102226
 20
219.4235188605217957
 30
0.0
 11
3950.5068384023102226
 21
219.4648574432218027
 31
0.0
  0
LINE
  5
1125A
  8
0
 10
3950.5068384011110538
 20
220.409739333021804
 30
0.0
 11
3950.5068384010100999
 21
220.4510779156217097
 31
0.0
  0
LINE
  5
1125B
  8
0
 10
3950.509546988009788
 20
231.7089519314216943
 30
0.0
 11
3950.509546988009788
 21
221.0199755534218014
 31
0.0
  0
LINE
  5
1125C
  8
0
 10
3950.509546988009788
 20
220.4510779156217097
 30
0.0
 11
3950.509546988009788
 21
220.409739333021804
 31
0.0
  0
LINE
  5
1125D
  8
0
 10
3950.509546988009788
 20
218.854621222721704
 30
0.0
 11
3950.509546988009788
 21
167.2010779156217097
 31
0.0
  0
LINE
  5
1125E
  8
0
 10
3950.509546988009788
 20
166.632180277921691
 30
0.0
 11
3950.509546988009788
 21
166.5908416952217124
 31
0.0
  0
LINE
  5
1125F
  8
0
 10
3950.509546988009788
 20
165.0357235849216977
 30
0.0
 11
3950.509546988009788
 21
153.854621222721704
 31
0.0
  0
LINE
  5
11260
  8
0
 10
3950.509546988009788
 20
153.854621222721704
 30
0.0
 11
3950.5095469880111523
 21
153.7601330337217007
 31
0.0
  0
LINE
  5
11261
  8
0
 10
3950.5252950195099402
 20
165.0357235849216977
 30
0.0
 11
3950.5252950195099402
 21
165.604621222721704
 31
0.0
  0
LINE
  5
11262
  8
0
 10
3950.5252950195099402
 20
166.632180277921691
 30
0.0
 11
3950.5252950195099402
 21
167.2010779156217097
 31
0.0
  0
LINE
  5
11263
  8
0
 10
3950.5252950195099402
 20
218.854621222721704
 30
0.0
 11
3950.5252950195099402
 21
219.4235188605217957
 31
0.0
  0
LINE
  5
11264
  8
0
 10
3950.5252950195099402
 20
220.4510779156217097
 30
0.0
 11
3950.5252950195099402
 21
221.0199755534218014
 31
0.0
  0
LINE
  5
11265
  8
0
 10
3950.7004918699099107
 20
231.7483220101217114
 30
0.0
 11
3950.7004918699099107
 21
220.409739333021804
 31
0.0
  0
LINE
  5
11266
  8
0
 10
3950.7024603738100268
 20
165.6459598054217111
 30
0.0
 11
3950.7024603738100268
 21
153.854621222721704
 31
0.0
  0
LINE
  5
11267
  8
0
 10
3950.7024603738100268
 20
166.5908416952217124
 30
0.0
 11
3950.7024603738100268
 21
219.4648574432218027
 31
0.0
  0
LINE
  5
11268
  8
0
 10
3950.8008855707098519
 20
153.854621222721704
 30
0.0
 11
3950.8008855707098519
 21
153.913676340821695
 31
0.0
  0
LINE
  5
11269
  8
0
 10
3970.9595422635647992
 20
187.3192006715217133
 30
0.0
 11
3971.6681438383648128
 21
187.3192006715217133
 31
0.0
  0
LINE
  5
1126A
  8
0
 10
3955.5351375392101545
 20
220.8231251597217124
 30
0.0
 11
3955.5351375392101545
 21
219.051471616421793
 31
0.0
  0
LINE
  5
1126B
  8
0
 10
3955.5351375392101545
 20
167.0042275219217061
 30
0.0
 11
3955.5351375392101545
 21
165.2325739786217014
 31
0.0
  0
LINE
  5
1126C
  8
0
 10
3971.6681438383648128
 20
198.6577833487216935
 30
0.0
 11
3970.9595422635647992
 21
198.6577833487216935
 31
0.0
  0
ARC
  5
1126D
  8
0
 10
3970.9595422635647992
 20
198.618383348721693
 30
0.0
 40
0.0394
 50
90.0
 51
180.0
  0
LINE
  5
1126E
  8
0
 10
3970.9201422635651397
 20
187.3586006715217138
 30
0.0
 11
3970.9201422635651397
 21
198.618383348721693
 31
0.0
  0
ARC
  5
1126F
  8
0
 10
3970.9595422635647992
 20
187.3586006715217138
 30
0.0
 40
0.0394
 50
180.0
 51
270.0
  0
LINE
  5
11270
  8
0
 10
3971.7075438383649271
 20
187.3586006715217138
 30
0.0
 11
3971.7075438383649271
 21
198.618383348721693
 31
0.0
  0
ARC
  5
11271
  8
0
 10
3971.6681438383648128
 20
187.3586006715217138
 30
0.0
 40
0.0394
 50
270.0
 51
0.0
  0
ARC
  5
11272
  8
0
 10
3971.6681438383648128
 20
198.618383348721693
 30
0.0
 40
0.0394
 50
0.0
 51
90.0
  0
LINE
  5
11273
  8
0
 10
3973.1051769092650829
 20
153.921550356621708
 30
0.0
 11
3973.1051769092650829
 21
153.1656448448217134
 31
0.0
  0
LINE
  5
11274
  8
0
 10
3973.3610332084649599
 20
154.464857443221689
 30
0.0
 11
3973.3610332084649599
 21
231.7286369708216967
 31
0.0
  0
LINE
  5
11275
  8
0
 10
3973.3610824210650208
 20
154.2089519314216943
 30
0.0
 11
3973.3610824210650208
 21
154.464857443221689
 31
0.0
  0
LINE
  5
11276
  8
0
 10
3973.6760430509648359
 20
231.7483220101217114
 30
0.0
 11
3973.6760430509648359
 21
231.7286369708216967
 31
0.0
  0
LINE
  5
11277
  8
0
 10
3974.1091529442651336
 20
154.1932038999217127
 30
0.0
 11
3974.1091529442651336
 21
231.7286369708216967
 31
0.0
  0
LINE
  5
11278
  8
0
 10
3974.1323355512649869
 20
153.921550356621708
 30
0.0
 11
3974.1323355512649869
 21
231.7286369708216967
 31
0.0
  0
LINE
  5
11279
  8
0
 10
3974.2075391139651401
 20
231.7640550810216951
 30
0.0
 11
3974.2075391139651401
 21
153.9018653172217057
 31
0.0
  0
LINE
  5
1127A
  8
0
 10
3974.2075391139651401
 20
153.9018653172217057
 30
0.0
 11
3974.2075391139651401
 21
153.1656448448217134
 31
0.0
  0
LINE
  5
1127B
  8
0
 10
3974.5264997438648606
 20
153.1656448448217134
 30
0.0
 11
3974.5264997438648606
 21
231.8270472070217068
 31
0.0
  0
LINE
  5
1127C
  8
0
 10
3976.1013028934648901
 20
231.8270472070217068
 30
0.0
 11
3976.1013028934648901
 21
153.1656448448217134
 31
0.0
  0
ARC
  5
1127D
  8
0
 10
3976.0816028934650603
 20
231.8270472070217068
 30
0.0
 40
0.0197
 50
0.0
 51
90.0
  0
LINE
  5
1127E
  8
0
 10
3955.338287145510094
 20
218.854621222721704
 30
0.0
 11
3950.7024603738100268
 21
218.854621222721704
 31
0.0
  0
LINE
  5
1127F
  8
0
 10
3950.5252950195099402
 20
218.854621222721704
 30
0.0
 11
3945.8894682479099174
 21
218.854621222721704
 31
0.0
  0
LINE
  5
11280
  8
0
 10
3949.6591532872098469
 20
219.4235188605217957
 30
0.0
 11
3950.5252950195099402
 21
219.4235188605217957
 31
0.0
  0
LINE
  5
11281
  8
0
 10
3950.3184760676099359
 20
219.4254873645217003
 30
0.0
 11
3949.7871215482100524
 21
219.4254873645217003
 31
0.0
  0
LINE
  5
11282
  8
0
 10
3949.6591532872098469
 20
219.4254873645217003
 30
0.0
 11
3949.7871276957098416
 21
219.4254873645217003
 31
0.0
  0
LINE
  5
11283
  8
0
 10
3950.3184346638099669
 20
219.4254873645217003
 30
0.0
 11
3950.4662399014100629
 21
219.4254873645217003
 31
0.0
  0
LINE
  5
11284
  8
0
 10
3949.7300194290110085
 20
219.4313928763218087
 30
0.0
 11
3949.6591532872098469
 21
219.4313928763218087
 31
0.0
  0
LINE
  5
11285
  8
0
 10
3949.7378934447110623
 20
219.4648574432218027
 30
0.0
 11
3950.7024603738100268
 21
219.4648574432218027
 31
0.0
  0
LINE
  5
11286
  8
0
 10
3949.7378934447110623
 20
220.409739333021804
 30
0.0
 11
3950.7024603738100268
 21
220.409739333021804
 31
0.0
  0
LINE
  5
11287
  8
0
 10
3949.7575784841101267
 20
220.421550356621708
 30
0.0
 11
3950.3481296652098536
 21
220.421550356621708
 31
0.0
  0
LINE
  5
11288
  8
0
 10
3949.7300194290110085
 20
220.4274558684217027
 30
0.0
 11
3949.6591532872098469
 21
220.4274558684217027
 31
0.0
  0
LINE
  5
11289
  8
0
 10
3950.3481296652098536
 20
220.4372983881218033
 30
0.0
 11
3949.7575784841101267
 21
220.4372983881218033
 31
0.0
  0
LINE
  5
1128A
  8
0
 10
3949.6591532872098469
 20
220.447140907821705
 30
0.0
 11
3949.7300194290110085
 21
220.447140907821705
 31
0.0
  0
LINE
  5
1128B
  8
0
 10
3950.4662399014100629
 20
220.4491094117217074
 30
0.0
 11
3950.3186353229098131
 21
220.4491094117217074
 31
0.0
  0
LINE
  5
1128C
  8
0
 10
3950.3186353229098131
 20
220.4491094117217074
 30
0.0
 11
3949.7871294646101887
 21
220.4491094117217074
 31
0.0
  0
LINE
  5
1128D
  8
0
 10
3949.6591532872098469
 20
220.4491094117217074
 30
0.0
 11
3949.7871294646101887
 21
220.4491094117217074
 31
0.0
  0
LINE
  5
1128E
  8
0
 10
3950.5252950195099402
 20
220.4510779156217097
 30
0.0
 11
3949.6591532872098469
 21
220.4510779156217097
 31
0.0
  0
LINE
  5
1128F
  8
0
 10
3945.8894682479099174
 20
221.0199755534218014
 30
0.0
 11
3950.5252950195099402
 21
221.0199755534218014
 31
0.0
  0
LINE
  5
11290
  8
0
 10
3950.7024603738100268
 20
221.0199755534218014
 30
0.0
 11
3955.338287145510094
 21
221.0199755534218014
 31
0.0
  0
LINE
  5
11291
  8
0
 10
3935.4907202163649345
 20
231.205014923521702
 30
0.0
 11
3930.5300902950648378
 21
231.205014923521702
 31
0.0
  0
LINE
  5
11292
  8
0
 10
3950.2654524998101806
 20
231.6695818527217057
 30
0.0
 11
3935.569460373765196
 21
231.6695818527217057
 31
0.0
  0
LINE
  5
11293
  8
0
 10
3930.4513501375649867
 20
231.6695818527217057
 30
0.0
 11
3930.4316650982650572
 21
231.6695818527217057
 31
0.0
  0
LINE
  5
11294
  8
0
 10
3950.7004918699099107
 20
231.7089519314216943
 30
0.0
 11
3935.569460373765196
 21
231.7089519314216943
 31
0.0
  0
LINE
  5
11295
  8
0
 10
3930.4513501375649867
 20
231.7089519314216943
 30
0.0
 11
3930.4316650982650572
 21
231.7089519314216943
 31
0.0
  0
LINE
  5
11296
  8
0
 10
3973.3610332084649599
 20
231.7286369708216967
 30
0.0
 11
3974.2075391139651401
 21
231.7286369708216967
 31
0.0
  0
LINE
  5
11297
  8
0
 10
3973.6760430509648359
 20
231.7483220101217114
 30
0.0
 11
3950.7004918699099107
 21
231.7483220101217114
 31
0.0
  0
LINE
  5
11298
  8
0
 10
3974.2272391139649699
 20
231.7837550810216953
 30
0.0
 11
3974.5264997438648606
 21
231.7837550810216953
 31
0.0
  0
ARC
  5
11299
  8
0
 10
3974.2272391139649699
 20
231.7640550810216951
 30
0.0
 40
0.0197
 50
90.0
 51
180.0
  0
LINE
  5
1129A
  8
0
 10
3976.0816028934650603
 20
231.846747207021707
 30
0.0
 11
3974.5461997438660546
 21
231.846747207021707
 31
0.0
  0
ARC
  5
1129B
  8
0
 10
3974.5461997438660546
 20
231.8270472070217068
 30
0.0
 40
0.0197
 50
90.0
 51
180.0
  0
LINE
  5
1129C
  8
0
 10
3928.8785006091648029
 20
231.8861172857216957
 30
0.0
 11
3930.4316650982650572
 21
231.8861172857216957
 31
0.0
  0
LINE
  5
1129D
  8
0
 10
3930.4316650982650572
 20
231.8861172857216957
 30
0.0
 11
3928.8568619485649833
 21
231.8861172857216957
 31
0.0
  0
LINE
  5
1129E
  8
0
 10
3928.8568619485649833
 20
231.9648574432218027
 30
0.0
 11
3935.4907202163649345
 21
231.9648574432218027
 31
0.0
  0
ARC
  5
1129F
  8
0
 10
3928.8883729722660973
 20
231.9451574432218024
 30
0.0
 40
0.0197
 50
90.0
 51
180.0
  0
ARC
  5
112A0
  8
0
 10
3930.4119650982647727
 20
231.9451574432218024
 30
0.0
 40
0.0197
 50
0.0
 51
90.0
  0
ARC
  5
112A1
  8
0
 10
3945.8894682479099174
 20
167.0042275219217061
 30
0.0
 40
0.1968503937
 50
90.0
 51
180.0
  0
ARC
  5
112A2
  8
0
 10
3945.8894682479099174
 20
165.2325739786217014
 30
0.0
 40
0.1968503937
 50
180.0
 51
270.0
  0
ARC
  5
112A3
  8
0
 10
3950.3363186416099779
 20
165.6184007503217117
 30
0.0
 40
0.0118110236
 50
270.0
 51
0.0
  0
ARC
  5
112A4
  8
0
 10
3949.7693895077100024
 20
165.6184007503217117
 30
0.0
 40
0.0118110236
 50
180.0
 51
270.0
  0
ARC
  5
112A5
  8
0
 10
3950.3363186416099779
 20
165.6341487818216933
 30
0.0
 40
0.0118110236
 50
0.0
 51
90.0
  0
ARC
  5
112A6
  8
0
 10
3949.7693895077100024
 20
165.6341487818216933
 30
0.0
 40
0.0118110236
 50
90.0
 51
180.0
  0
ARC
  5
112A7
  8
0
 10
3949.7693895077100024
 20
166.6184007503217117
 30
0.0
 40
0.0118110236
 50
90.0
 51
180.0
  0
ARC
  5
112A8
  8
0
 10
3950.3363186416099779
 20
166.6184007503217117
 30
0.0
 40
0.0118110236
 50
0.0
 51
90.0
  0
ARC
  5
112A9
  8
0
 10
3949.7693895077100024
 20
166.6026527188217017
 30
0.0
 40
0.0118110236
 50
180.0
 51
270.0
  0
ARC
  5
112AA
  8
0
 10
3950.3363186416099779
 20
166.6026527188217017
 30
0.0
 40
0.0118110236
 50
270.0
 51
0.0
  0
ARC
  5
112AB
  8
0
 10
3945.8894682479099174
 20
220.8231251597217124
 30
0.0
 40
0.1968503937
 50
90.0
 51
180.0
  0
ARC
  5
112AC
  8
0
 10
3945.8894682479099174
 20
219.051471616421793
 30
0.0
 40
0.1968503937
 50
180.0
 51
270.0
  0
ARC
  5
112AD
  8
0
 10
3930.5300902950648378
 20
231.2837550810216953
 30
0.0
 40
0.0787401575
 50
180.0
 51
270.0
  0
ARC
  5
112AE
  8
0
 10
3935.4907202163649345
 20
231.2837550810216953
 30
0.0
 40
0.0787401575
 50
270.0
 51
0.0
  0
ARC
  5
112AF
  8
0
 10
3930.5300902950648378
 20
231.8861172857216957
 30
0.0
 40
0.0787401575
 50
90.0
 51
180.0
  0
ARC
  5
112B0
  8
0
 10
3935.4907202163649345
 20
231.8861172857216957
 30
0.0
 40
0.0787401575
 50
0.0
 51
90.0
  0
ARC
  5
112B1
  8
0
 10
3950.3363186416099779
 20
219.4372983881216896
 30
0.0
 40
0.0118110236
 50
270.0
 51
0.0
  0
ARC
  5
112B2
  8
0
 10
3949.7693895077100024
 20
219.4372983881216896
 30
0.0
 40
0.0118110236
 50
180.0
 51
270.0
  0
ARC
  5
112B3
  8
0
 10
3950.3363186416099779
 20
219.4530464196216997
 30
0.0
 40
0.0118110236
 50
0.0
 51
90.0
  0
ARC
  5
112B4
  8
0
 10
3949.7693895077100024
 20
219.4530464196216997
 30
0.0
 40
0.0118110236
 50
90.0
 51
180.0
  0
ARC
  5
112B5
  8
0
 10
3949.7693895077100024
 20
220.4372983881218033
 30
0.0
 40
0.0118110236
 50
90.0
 51
180.0
  0
ARC
  5
112B6
  8
0
 10
3950.3363186416099779
 20
220.4372983881218033
 30
0.0
 40
0.0118110236
 50
0.0
 51
90.0
  0
ARC
  5
112B7
  8
0
 10
3949.7693895077100024
 20
220.421550356621708
 30
0.0
 40
0.0118110236
 50
180.0
 51
270.0
  0
ARC
  5
112B8
  8
0
 10
3950.3363186416099779
 20
220.421550356621708
 30
0.0
 40
0.0118110236
 50
270.0
 51
0.0
  0
ARC
  5
112B9
  8
0
 10
3955.338287145510094
 20
165.2325739786217014
 30
0.0
 40
0.1968503937
 50
270.0
 51
0.0
  0
ARC
  5
112BA
  8
0
 10
3955.338287145510094
 20
167.0042275219217061
 30
0.0
 40
0.1968503937
 50
0.0
 51
90.0
  0
ARC
  5
112BB
  8
0
 10
3974.1878540745651662
 20
153.9018653172217057
 30
0.0
 40
0.0196850394
 50
0.0
 51
90.0
  0
ARC
  5
112BC
  8
0
 10
3955.338287145510094
 20
219.051471616421793
 30
0.0
 40
0.1968503937
 50
270.0
 51
0.0
  0
ARC
  5
112BD
  8
0
 10
3955.338287145510094
 20
220.8231251597217124
 30
0.0
 40
0.1968503937
 50
0.0
 51
90.0
  0
LINE
  5
112BE
  8
0
 10
3930.4119800588650833
 20
231.9646284769218028
 30
0.0
 11
3930.4118716560651592
 21
231.9648571447216909
 31
0.0
  0
ENDSEC
  0
EOF
