  0
SECTION
  2
HEADER
  9
$ACADVER
  1
AC1009
  9
$INSBASE
 10
3905.9755940938789536
 20
162.7737510152053915
 30
0.0
  9
$EXTMIN
 10
3903.560750047152851
 20
162.7588173219430985
 30
-0.0000000349181948
  9
$EXTMAX
 10
3911.1390036876960039
 20
241.5766901922899876
 30
0.0000000814935746
  9
$LIMMIN
 10
0.0
 20
0.0
  9
$LIMMAX
 10
11.6929133858000007
 20
8.2677165353999982
  9
$ORTHOMODE
 70
     0
  9
$REGENMODE
 70
     1
  9
$FILLMODE
 70
     1
  9
$QTEXTMODE
 70
     0
  9
$MIRRTEXT
 70
     0
  9
$DRAGMODE
 70
     2
  9
$LTSCALE
 40
0.6431102362
  9
$OSMODE
 70
  4095
  9
$ATTMODE
 70
     1
  9
$TEXTSIZE
 40
0.2
  9
$TRACEWID
 40
0.05
  9
$TEXTSTYLE
  7
STANDARD
  9
$CLAYER
  8
0
  9
$CELTYPE
  6
BYLAYER
  9
$CECOLOR
 62
   256
  9
$DIMSCALE
 40
1.0
  9
$DIMASZ
 40
0.1875
  9
$DIMEXO
 40
0.0625
  9
$DIMDLI
 40
0.4443307087
  9
$DIMRND
 40
0.0
  9
$DIMDLE
 40
0.0
  9
$DIMEXE
 40
0.125
  9
$DIMTP
 40
0.01
  9
$DIMTM
 40
0.01
  9
$DIMTXT
 40
2.0
  9
$DIMCEN
 40
0.1052362205
  9
$DIMTSZ
 40
0.0
  9
$DIMTOL
 70
     1
  9
$DIMLIM
 70
     0
  9
$DIMTIH
 70
     1
  9
$DIMTOH
 70
     1
  9
$DIMSE1
 70
     0
  9
$DIMSE2
 70
     0
  9
$DIMTAD
 70
     0
  9
$DIMZIN
 70
     0
  9
$DIMBLK
  1

  9
$DIMASO
 70
     1
  9
$DIMSHO
 70
     1
  9
$DIMPOST
  1
\X
  9
$DIMAPOST
  1

  9
$DIMALT
 70
     1
  9
$DIMALTD
 70
     2
  9
$DIMALTF
 40
25.3999999999999986
  9
$DIMLFAC
 40
1.0
  9
$DIMTOFL
 70
     0
  9
$DIMTVP
 40
0.0
  9
$DIMTIX
 70
     0
  9
$DIMSOXD
 70
     0
  9
$DIMSAH
 70
     0
  9
$DIMBLK1
  1

  9
$DIMBLK2
  1

  9
$DIMSTYLE
  2
STANDARD
  9
$DIMCLRD
 70
     0
  9
$DIMCLRE
 70
     0
  9
$DIMCLRT
 70
     0
  9
$DIMTFAC
 40
1.0
  9
$DIMGAP
 40
0.09
  9
$LUNITS
 70
     2
  9
$LUPREC
 70
     4
  9
$SKETCHINC
 40
0.1
  9
$FILLETRAD
 40
0.0
  9
$AUNITS
 70
     0
  9
$AUPREC
 70
     0
  9
$MENU
  1
.
  9
$ELEVATION
 40
0.0
  9
$PELEVATION
 40
0.0
  9
$THICKNESS
 40
0.0
  9
$LIMCHECK
 70
     0
  9
$BLIPMODE
 70
     0
  9
$CHAMFERA
 40
0.0
  9
$CHAMFERB
 40
0.0
  9
$SKPOLY
 70
     0
  9
$TDCREATE
 40
2458060.468368056230247
  9
$TDUPDATE
 40
2459527.7730671297758818
  9
$TDINDWG
 40
0.7293357639
  9
$TDUSRTIMER
 40
0.7293357639
  9
$USRTIMER
 70
     1
  9
$ANGBASE
 50
0.0
  9
$ANGDIR
 70
     0
  9
$PDMODE
 70
     0
  9
$PDSIZE
 40
0.3125
  9
$PLINEWID
 40
0.0
  9
$COORDS
 70
     1
  9
$SPLFRAME
 70
     0
  9
$SPLINETYPE
 70
     6
  9
$SPLINESEGS
 70
     8
  9
$ATTDIA
 70
     1
  9
$ATTREQ
 70
     1
  9
$HANDLING
 70
     1
  9
$HANDSEED
  5
111BE
  9
$SURFTAB1
 70
     6
  9
$SURFTAB2
 70
     6
  9
$SURFTYPE
 70
     6
  9
$SURFU
 70
     6
  9
$SURFV
 70
     6
  9
$UCSNAME
  2

  9
$UCSORG
 10
0.0
 20
0.0
 30
0.0
  9
$UCSXDIR
 10
1.0
 20
0.0
 30
0.0
  9
$UCSYDIR
 10
0.0
 20
1.0
 30
0.0
  9
$PUCSNAME
  2

  9
$PUCSORG
 10
0.0
 20
0.0
 30
0.0
  9
$PUCSXDIR
 10
1.0
 20
0.0
 30
0.0
  9
$PUCSYDIR
 10
0.0
 20
1.0
 30
0.0
  9
$USERI1
 70
     0
  9
$USERI2
 70
     0
  9
$USERI3
 70
     0
  9
$USERI4
 70
     0
  9
$USERI5
 70
     0
  9
$USERR1
 40
0.0
  9
$USERR2
 40
0.0
  9
$USERR3
 40
0.0
  9
$USERR4
 40
0.0
  9
$USERR5
 40
0.0
  9
$WORLDVIEW
 70
     1
  9
$SHADEDGE
 70
     3
  9
$SHADEDIF
 70
    70
  9
$TILEMODE
 70
     1
  9
$MAXACTVP
 70
    64
  9
$PLIMCHECK
 70
     0
  9
$PEXTMIN
 10
1.0000000000000000E+20
 20
1.0000000000000000E+20
 30
1.0000000000000000E+20
  9
$PEXTMAX
 10
-1.0000000000000000E+20
 20
-1.0000000000000000E+20
 30
-1.0000000000000000E+20
  9
$PLIMMIN
 10
0.0
 20
0.0
  9
$PLIMMAX
 10
12.0
 20
9.0
  9
$UNITMODE
 70
     0
  9
$VISRETAIN
 70
     1
  9
$PLINEGEN
 70
     0
  9
$PSLTSCALE
 70
     1
  0
ENDSEC
  0
SECTION
  2
TABLES
  0
TABLE
  2
VPORT
 70
     1
  0
VPORT
  2
*ACTIVE
 70
     0
 10
0.0
 20
0.0
 11
1.0
 21
1.0
 12
263.2740712033619275
 22
42.223513257318892
 13
0.0
 23
0.0
 14
1.0
 24
1.0
 15
0.0
 25
0.0
 16
0.0
 26
0.0
 36
26.6346482412083887
 17
3644.0758056640620453
 27
159.9442404997975871
 37
0.0
 40
79.5922507497953404
 41
2.8393393393393391
 42
50.0
 43
0.0
 44
0.0
 50
0.0
 51
0.0
 71
     0
 72
   100
 73
     1
 74
     1
 75
     0
 76
     0
 77
     0
 78
     0
  0
ENDTAB
  0
TABLE
  2
LTYPE
 70
     2
  0
LTYPE
  2
CONTINUOUS
 70
     0
  3
Solid line
 72
    65
 73
     0
 40
0.0
  0
LTYPE
  2
PHANTOM2
 70
     0
  3
___ _ _ ___ _ _ ___ _ _ ___ _ _
 72
    65
 73
     6
 40
1.25
 49
0.625
 49
-0.125
 49
0.125
 49
-0.125
 49
0.125
 49
-0.125
  0
ENDTAB
  0
TABLE
  2
LAYER
 70
     2
  0
LAYER
  2
0
 70
     0
 62
   255
  6
CONTINUOUS
  0
LAYER
  2
DEFPOINTS
 70
     0
 62
     7
  6
CONTINUOUS
  0
ENDTAB
  0
TABLE
  2
STYLE
 70
     1
  0
STYLE
  2
STANDARD
 70
     0
 40
0.0
 41
0.8
 50
0.0
 71
     0
 42
0.2
  3
txt
  4

  0
ENDTAB
  0
TABLE
  2
VIEW
 70
     0
  0
ENDTAB
  0
TABLE
  2
UCS
 70
     0
  0
ENDTAB
  0
TABLE
  2
APPID
 70
    10
  0
APPID
  2
ACAD
 70
     0
  0
APPID
  2
ACAD_MLEADERVER
 70
     0
  0
APPID
  2
ACAD_EXEMPT_FROM_CAD_STANDARDS
 70
     0
  0
APPID
  2
ACAD_NAV_VCDISPLAY
 70
     0
  0
APPID
  2
ACAECLAYERSTANDARD
 70
     0
  0
APPID
  2
ACCMTRANSPARENCY
 70
     0
  0
APPID
  2
ACAD_DSTYLE_DIMJAG
 70
     0
  0
APPID
  2
ACAD_DSTYLE_DIMTALN
 70
     0
  0
APPID
  2
ACDBATTR
 70
     0
  0
APPID
  2
ACAD_PSEXT
 70
     0
  0
ENDTAB
  0
TABLE
  2
DIMSTYLE
 70
     1
  0
DIMSTYLE
  2
STANDARD
 70
     0
  3

  4

  5

  6

  7

 40
1.0
 41
0.1875
 42
0.0625
 43
0.38
 44
0.125
 45
0.0
 46
0.0
 47
0.01
 48
0.01
140
0.15625
141
0.09
142
0.0
143
25.3999999999999986
144
1.0
145
0.0
146
1.0
147
0.09
 71
     1
 72
     0
 73
     1
 74
     1
 75
     0
 76
     0
 77
     0
 78
     4
170
     0
171
     2
172
     0
173
     0
174
     0
175
     0
176
     0
177
     0
178
     0
  0
ENDTAB
  0
ENDSEC
  0
SECTION
  2
BLOCKS
  0
BLOCK
  8
0
  2
$MODEL_SPACE
 70
     0
 10
0.0
 20
0.0
 30
0.0
  3
$MODEL_SPACE
  1

  0
ENDBLK
  5
21
  8
0
  0
BLOCK
 67
     1
  8
0
  2
$PAPER_SPACE
 70
     0
 10
0.0
 20
0.0
 30
0.0
  3
$PAPER_SPACE
  1

  0
ENDBLK
  5
1D
 67
     1
  8
0
  0
ENDSEC
  0
SECTION
  2
ENTITIES
  0
ATTDEF
  5
AA11
  8
DEFPOINTS
 10
3905.9728887506421415
 20
162.7783987757030104
 30
0.0
 40
0.001
  1
K-1.1922.003
  3

  2
MODELNUMBER
 70
     0
1001
ACDBATTR
1070
     0
1070
     1
  0
ATTDEF
  5
AA12
  8
DEFPOINTS
 10
3905.9728887506421415
 20
162.7767321090362884
 30
0.0
 40
0.001
  1

  3

  2
TRADENAME
 70
     0
1001
ACDBATTR
1070
     0
1070
     1
  0
ATTDEF
  5
AA13
  8
DEFPOINTS
 10
3905.9728887506421415
 20
162.7750654423695948
 30
0.0
 40
0.001
  1
SHOWER DOOR
  3

  2
PRODUCT
 70
     0
1001
ACDBATTR
1070
     0
1070
     1
  0
LINE
  5
10FDB
  8
0
 10
3905.6079838641790047
 20
162.7737510152053915
 30
0.0
 11
3906.3432043235789024
 21
162.7737510152053915
 31
0.0
  0
LINE
  5
10FDC
  8
0
 10
3906.4874917317802101
 20
163.6959226665053961
 30
0.0
 11
3906.3402673287791913
 21
163.7375252653054076
 31
0.0
  0
LINE
  5
10FDD
  8
0
 10
3906.3402673287791913
 20
163.777002786905399
 30
0.0
 11
3906.4950578219800263
 21
163.7189853550054011
 31
0.0
  0
LINE
  5
10FDE
  8
0
 10
3906.3885633817230882
 20
174.6438297553054042
 30
0.0
 11
3906.3402673287791913
 21
174.6438297553054042
 31
0.0
  0
LINE
  5
10FDF
  8
0
 10
3905.6079838641790047
 20
174.6438297553054042
 30
0.0
 11
3905.545637222779078
 21
174.6438297553054042
 31
0.0
  0
LINE
  5
10FE0
  8
0
 10
3905.545637222779078
 20
176.8091840860053878
 30
0.0
 11
3905.6079838641790047
 21
176.8091840860053878
 31
0.0
  0
LINE
  5
10FE1
  8
0
 10
3906.3402673287791913
 20
176.8091840860053878
 30
0.0
 11
3906.3885633817249072
 21
176.8091840860053878
 31
0.0
  0
LINE
  5
10FE2
  8
0
 10
3903.8133537581788914
 20
196.9273068419053914
 30
0.0
 11
3905.6079838641790047
 21
196.9273068419053914
 31
0.0
  0
LINE
  5
10FE3
  8
0
 10
3903.7739836794789881
 20
196.966676920705396
 30
0.0
 11
3903.7739836794789881
 21
208.2265194404054114
 31
0.0
  0
LINE
  5
10FE4
  8
0
 10
3904.3998121124800491
 20
196.9273068419053914
 30
0.0
 11
3904.3998121124800491
 21
197.5972489373758094
 31
0.0
  0
LINE
  5
10FE5
  8
0
 10
3904.5613852542787754
 20
197.675338338005389
 30
0.0
 11
3904.5613852542787754
 21
207.51785802310539
 31
0.0
  0
LINE
  5
10FE6
  8
0
 10
3904.5210392719268384
 20
197.6359682593054004
 30
0.0
 11
3905.6079838641790047
 21
197.6359682593054004
 31
0.0
  0
LINE
  5
10FE7
  8
0
 10
3905.5259521833791041
 20
176.7894990467054015
 30
0.0
 11
3905.5259521833791041
 21
174.6635147947054065
 31
0.0
  0
LINE
  5
10FE8
  8
0
 10
3905.5892673155790362
 20
240.8328061333054961
 30
0.0
 11
3905.5892673155790362
 21
241.5532785742053932
 31
0.0
  0
LINE
  5
10FE9
  8
0
 10
3905.6040728708790084
 20
241.4351683380054112
 30
0.0
 11
3905.6040728708790084
 21
241.3367431412054884
 31
0.0
  0
LINE
  5
10FEA
  8
0
 10
3905.6079838641790047
 20
162.7737510152053915
 30
0.0
 11
3905.6079838641790047
 21
241.3367431412054884
 31
0.0
  0
LINE
  5
10FEB
  8
0
 10
3905.688692525578972
 20
162.7737510152053915
 30
0.0
 11
3905.688692525578972
 21
241.3367431412054884
 31
0.0
  0
LINE
  5
10FEC
  8
0
 10
3905.8717894063797758
 20
241.0217825112054015
 30
0.0
 11
3905.8717894063797758
 21
241.3367431412054884
 31
0.0
  0
LINE
  5
10FED
  8
0
 10
3906.0686398000798363
 20
241.0217825112054015
 30
0.0
 11
3906.0686398000798363
 21
241.3367431412054884
 31
0.0
  0
LINE
  5
10FEE
  8
0
 10
3906.2477476437788937
 20
162.7737510152053915
 30
0.0
 11
3906.2477476437788937
 21
241.3367431412054884
 31
0.0
  0
LINE
  5
10FEF
  8
0
 10
3906.3363563355787846
 20
241.4351683380054112
 30
0.0
 11
3906.3363563355787846
 21
241.3367431412054884
 31
0.0
  0
LINE
  5
10FF0
  8
0
 10
3906.3432043235789024
 20
162.7737510152053915
 30
0.0
 11
3906.3432043235789024
 21
163.7366953308053894
 31
0.0
  0
LINE
  5
10FF1
  8
0
 10
3906.3432043235789024
 20
163.7759019642053886
 30
0.0
 11
3906.3432043235789024
 21
174.6438297553054042
 31
0.0
  0
LINE
  5
10FF2
  8
0
 10
3906.3432043235789024
 20
176.8091840860053878
 30
0.0
 11
3906.3432043235789024
 21
196.9273068419053914
 31
0.0
  0
LINE
  5
10FF3
  8
0
 10
3906.3432043235789024
 20
197.6359682593054004
 30
0.0
 11
3906.3432043235789024
 21
207.5572281018054071
 31
0.0
  0
LINE
  5
10FF4
  8
0
 10
3906.3432043235789024
 20
208.2658895191054
 30
0.0
 11
3906.3432043235789024
 21
228.4627273931054106
 31
0.0
  0
LINE
  5
10FF5
  8
0
 10
3906.3432043235789024
 20
230.6280817238055079
 30
0.0
 11
3906.3432043235789024
 21
240.8131210939054085
 31
0.0
  0
LINE
  5
10FF6
  8
0
 10
3906.7152515675788891
 20
240.8328061333054961
 30
0.0
 11
3906.7152515675788891
 21
241.5532785742053932
 31
0.0
  0
LINE
  5
10FF7
  8
0
 10
3910.960999598979015
 20
241.4942234561054022
 30
0.0
 11
3910.960999598979015
 21
240.8918612514054018
 31
0.0
  0
LINE
  5
10FF8
  8
0
 10
3906.3402673287791913
 20
240.8131210939054085
 30
0.0
 11
3910.8822594415792082
 21
240.8131210939054085
 31
0.0
  0
LINE
  5
10FF9
  8
0
 10
3905.8717894063797758
 20
241.0217825112054015
 30
0.0
 11
3906.0686398000798363
 21
241.0217825112054015
 31
0.0
  0
LINE
  5
10FFA
  8
0
 10
3906.3402673287791913
 20
241.3367431412054884
 30
0.0
 11
3906.2581054543788923
 21
241.3367431412054884
 31
0.0
  0
LINE
  5
10FFB
  8
0
 10
3905.6901457416788617
 20
241.3367431412054884
 30
0.0
 11
3905.6179791912791188
 21
241.3367431412054884
 31
0.0
  0
LINE
  5
10FFC
  8
0
 10
3905.6040728708790084
 20
241.3367431412054884
 30
0.0
 11
3906.3263610084791253
 21
241.3367431412054884
 31
0.0
  0
LINE
  5
10FFD
  8
0
 10
3905.6237579102789823
 20
241.4548533774054135
 30
0.0
 11
3906.3166712962802194
 21
241.4548533774054135
 31
0.0
  0
LINE
  5
10FFE
  8
0
 10
3906.7152515675788891
 20
241.4942234561054022
 30
0.0
 11
3905.5892673155790362
 21
241.4942234561054022
 31
0.0
  0
LINE
  5
10FFF
  8
0
 10
3905.6089523549799196
 20
241.5729636136055092
 30
0.0
 11
3910.8822594415792082
 21
241.5729636136055092
 31
0.0
  0
ARC
  5
11000
  8
0
 10
3903.8133537581788914
 20
196.966676920705396
 30
0.0
 40
0.0393700787
 50
180.0
 51
270.0
  0
ARC
  5
11001
  8
0
 10
3904.600755332980043
 20
197.675338338005389
 30
0.0
 40
0.0393700787
 50
180.0
 51
270.0
  0
ARC
  5
11002
  8
0
 10
3905.545637222779078
 20
174.6635147947054065
 30
0.0
 40
0.0196850394
 50
179.9999999987998081
 51
270.0
  0
ARC
  5
11003
  8
0
 10
3905.545637222779078
 20
176.7894990467054015
 30
0.0
 40
0.0196850394
 50
90.0
 51
180.0000000002995932
  0
ARC
  5
11004
  8
0
 10
3906.4907947537790278
 20
163.7076114901053927
 30
0.0
 40
0.0121465449
 50
254.2207954760910127
 51
69.4533672414128915
  0
ARC
  5
11005
  8
0
 10
3905.6089523549799196
 20
241.5532785742053932
 30
0.0
 40
0.0196850394
 50
90.0
 51
180.0000000007001972
  0
ARC
  5
11006
  8
0
 10
3905.6089523549799196
 20
240.8328061333054961
 30
0.0
 40
0.0196850394
 50
179.9999999992998028
 51
267.1799474161340981
  0
ARC
  5
11007
  8
0
 10
3906.3166712962802194
 20
241.4351683380054112
 30
0.0
 40
0.0196850394
 50
0.0
 51
89.9999999998957776
  0
ARC
  5
11008
  8
0
 10
3905.6237579102789823
 20
241.4351683380054112
 30
0.0
 40
0.0196850394
 50
90.0
 51
180.0
  0
ARC
  5
11009
  8
0
 10
3906.6955665281798247
 20
241.5532785742053932
 30
0.0
 40
0.0196850394
 50
0.0000000002002986
 51
90.0
  0
ARC
  5
1100A
  8
0
 10
3906.6955665281798247
 20
240.8328061333054961
 30
0.0
 40
0.0196850394
 50
270.0
 51
0.0
  0
ARC
  5
1100B
  8
0
 10
3910.8822594415792082
 20
241.4942234561054022
 30
0.0
 40
0.0787401575
 50
0.0
 51
90.0
  0
ARC
  5
1100C
  8
0
 10
3910.8822594415792082
 20
240.8918612514054018
 30
0.0
 40
0.0787401575
 50
270.0
 51
0.0
  0
LINE
  5
1100D
  8
0
 10
3906.3402673287791913
 20
162.7737510152053915
 30
0.0
 11
3906.3402673287791913
 21
241.3367431412054884
 31
0.0
  0
ARC
  5
1100E
  8
0
 10
3856.7910442834108835
 20
175.7265069206970054
 30
0.0
 40
49.6286086874692671
 50
358.772221194190422
 51
1.227778805713595
  0
ARC
  5
1100F
  8
0
 10
3906.3885633817249072
 20
176.7894840860053876
 30
0.0
 40
0.0197
 50
1.2277788057168511
 51
90.0
  0
ARC
  5
11010
  8
0
 10
3906.3885633817230882
 20
174.6635297553054045
 30
0.0
 40
0.0197
 50
270.0
 51
358.7722211940966872
  0
LINE
  5
11011
  8
0
 10
3904.4724120007190322
 20
197.6265310582730024
 30
0.0
 11
3904.3998121124800491
 21
197.5972489373758094
 31
0.0
  0
ARC
  5
11012
  8
0
 10
3904.5210392719268384
 20
197.5059682593054902
 30
0.0
 40
0.13
 50
90.0
 51
111.965975710893602
  0
LINE
  5
11013
  8
0
 10
3903.8133537581788914
 20
208.2658895192053876
 30
0.0
 11
3905.6079838641790047
 21
208.2658895192053876
 31
0.0
  0
LINE
  5
11014
  8
0
 10
3904.3998121124800491
 20
208.2658895192053876
 30
0.0
 11
3904.3998121124800491
 21
207.5959474237351117
 31
0.0
  0
LINE
  5
11015
  8
0
 10
3904.5210392719268384
 20
207.5572281018054071
 30
0.0
 11
3905.6079838641790047
 21
207.5572281018054071
 31
0.0
  0
ARC
  5
11016
  8
0
 10
3903.8133537581788914
 20
208.2265194404054114
 30
0.0
 40
0.0393700787
 50
90.0
 51
180.0
  0
ARC
  5
11017
  8
0
 10
3904.600755332980043
 20
207.51785802310539
 30
0.0
 40
0.0393700787
 50
90.0
 51
180.0
  0
LINE
  5
11018
  8
0
 10
3904.4724120007190322
 20
207.566665302837805
 30
0.0
 11
3904.3998121124800491
 21
207.5959474237351117
 31
0.0
  0
ARC
  5
11019
  8
0
 10
3904.5210392719268384
 20
207.6872281018052888
 30
0.0
 40
0.13
 50
248.0340242891064122
 51
270.0
  0
LINE
  5
1101A
  8
0
 10
3908.0653222621790519
 20
196.9273068419053914
 30
0.0
 11
3906.3402673287791913
 21
196.9273068419053914
 31
0.0
  0
LINE
  5
1101B
  8
0
 10
3908.1046923408789553
 20
196.966676920705396
 30
0.0
 11
3908.1046923408789553
 21
208.2265194404054114
 31
0.0
  0
LINE
  5
1101C
  8
0
 10
3907.478863907880168
 20
196.9273068419053914
 30
0.0
 11
3907.478863907880168
 21
197.5972489373758094
 31
0.0
  0
LINE
  5
1101D
  8
0
 10
3907.317290766079168
 20
197.675338338005389
 30
0.0
 11
3907.317290766079168
 21
207.51785802310539
 31
0.0
  0
LINE
  5
1101E
  8
0
 10
3907.3576367484311049
 20
197.6359682593054004
 30
0.0
 11
3906.3402673287791913
 21
197.6359682593054004
 31
0.0
  0
LINE
  5
1101F
  8
0
 10
3905.5354716967790409
 20
197.6359682593054004
 30
0.0
 11
3905.5354716967790409
 21
207.5572281018054071
 31
0.0
  0
ARC
  5
11020
  8
0
 10
3908.0653222621790519
 20
196.966676920705396
 30
0.0
 40
0.0393700787
 50
270.0
 51
0.0
  0
ARC
  5
11021
  8
0
 10
3907.2779206873801741
 20
197.675338338005389
 30
0.0
 40
0.0393700787
 50
270.0
 51
0.0
  0
LINE
  5
11022
  8
0
 10
3907.4062640196398206
 20
197.6265310582730024
 30
0.0
 11
3907.478863907880168
 21
197.5972489373758094
 31
0.0
  0
ARC
  5
11023
  8
0
 10
3907.3576367484311049
 20
197.5059682593054902
 30
0.0
 40
0.13
 50
68.0340242891064122
 51
90.0
  0
LINE
  5
11024
  8
0
 10
3908.0653222621790519
 20
208.2658895192053876
 30
0.0
 11
3906.3402673287791913
 21
208.2658895192053876
 31
0.0
  0
LINE
  5
11025
  8
0
 10
3907.478863907880168
 20
208.2658895192053876
 30
0.0
 11
3907.478863907880168
 21
207.5959474237351117
 31
0.0
  0
LINE
  5
11026
  8
0
 10
3907.3576367484311049
 20
207.5572281018054071
 30
0.0
 11
3906.3402673287791913
 21
207.5572281018054071
 31
0.0
  0
ARC
  5
11027
  8
0
 10
3908.0653222621790519
 20
208.2265194404054114
 30
0.0
 40
0.0393700787
 50
0.0
 51
90.0
  0
ARC
  5
11028
  8
0
 10
3907.2779206873801741
 20
207.51785802310539
 30
0.0
 40
0.0393700787
 50
0.0
 51
90.0
  0
LINE
  5
11029
  8
0
 10
3907.4062640196398206
 20
207.566665302837805
 30
0.0
 11
3907.478863907880168
 21
207.5959474237351117
 31
0.0
  0
ARC
  5
1102A
  8
0
 10
3907.3576367484311049
 20
207.6872281018052888
 30
0.0
 40
0.13
 50
270.0
 51
291.9659757108934741
  0
LINE
  5
1102B
  8
0
 10
3906.3885633817230882
 20
230.6280817238055079
 30
0.0
 11
3906.3402673287791913
 21
230.6280817238055079
 31
0.0
  0
LINE
  5
1102C
  8
0
 10
3905.6079838641790047
 20
230.6280817238055079
 30
0.0
 11
3905.545637222779078
 21
230.6280817238055079
 31
0.0
  0
LINE
  5
1102D
  8
0
 10
3905.545637222779078
 20
228.4627273931054106
 30
0.0
 11
3905.6079838641790047
 21
228.4627273931054106
 31
0.0
  0
LINE
  5
1102E
  8
0
 10
3906.3402673287791913
 20
228.4627273931054106
 30
0.0
 11
3906.3885633817249072
 21
228.4627273931054106
 31
0.0
  0
LINE
  5
1102F
  8
0
 10
3905.5259521833791041
 20
228.4824124324053969
 30
0.0
 11
3905.5259521833791041
 21
230.6083966844053919
 31
0.0
  0
ARC
  5
11030
  8
0
 10
3905.545637222779078
 20
230.6083966844053919
 30
0.0
 40
0.0196850394
 50
90.0
 51
180.0000000012001067
  0
ARC
  5
11031
  8
0
 10
3905.545637222779078
 20
228.4824124324053969
 30
0.0
 40
0.0196850394
 50
179.9999999996994973
 51
270.0
  0
ARC
  5
11032
  8
0
 10
3856.7910442834108835
 20
229.5454045584139067
 30
0.0
 40
49.6286086874692671
 50
358.7722211942863737
 51
1.227778805809651
  0
ARC
  5
11033
  8
0
 10
3906.3885633817249072
 20
228.4824273931054108
 30
0.0
 40
0.0197
 50
270.0
 51
358.7722211942831905
  0
ARC
  5
11034
  8
0
 10
3906.3885633817230882
 20
230.6083817238055076
 30
0.0
 40
0.0197
 50
1.227778805903265
 51
90.0
  0
ENDSEC
  0
EOF
