  0
SECTION
  2
HEADER
  9
$ACADVER
  1
AC1009
  9
$INSBASE
 10
3937.7232291611421715
 20
197.3973743587933996
 30
0.0
  9
$EXTMIN
 10
3917.823092800728773
 20
195.1936420823074911
 30
-0.0000000000112498
  9
$EXTMAX
 10
3957.509786252937829
 20
202.4000997764740077
 30
0.0000000000002956
  9
$LIMMIN
 10
0.0
 20
0.0
  9
$LIMMAX
 10
11.6929133858000007
 20
8.2677165353999982
  9
$ORTHOMODE
 70
     0
  9
$REGENMODE
 70
     1
  9
$FILLMODE
 70
     1
  9
$QTEXTMODE
 70
     0
  9
$MIRRTEXT
 70
     0
  9
$DRAGMODE
 70
     2
  9
$LTSCALE
 40
0.6431102362
  9
$OSMODE
 70
  4095
  9
$ATTMODE
 70
     1
  9
$TEXTSIZE
 40
0.2
  9
$TRACEWID
 40
0.05
  9
$TEXTSTYLE
  7
STANDARD
  9
$CLAYER
  8
0
  9
$CELTYPE
  6
BYLAYER
  9
$CECOLOR
 62
   256
  9
$DIMSCALE
 40
1.0
  9
$DIMASZ
 40
0.1875
  9
$DIMEXO
 40
0.0625
  9
$DIMDLI
 40
0.4443307087
  9
$DIMRND
 40
0.0
  9
$DIMDLE
 40
0.0
  9
$DIMEXE
 40
0.125
  9
$DIMTP
 40
0.01
  9
$DIMTM
 40
0.01
  9
$DIMTXT
 40
2.0
  9
$DIMCEN
 40
0.1052362205
  9
$DIMTSZ
 40
0.0
  9
$DIMTOL
 70
     1
  9
$DIMLIM
 70
     0
  9
$DIMTIH
 70
     1
  9
$DIMTOH
 70
     1
  9
$DIMSE1
 70
     0
  9
$DIMSE2
 70
     0
  9
$DIMTAD
 70
     0
  9
$DIMZIN
 70
     0
  9
$DIMBLK
  1

  9
$DIMASO
 70
     1
  9
$DIMSHO
 70
     1
  9
$DIMPOST
  1
\X
  9
$DIMAPOST
  1

  9
$DIMALT
 70
     1
  9
$DIMALTD
 70
     2
  9
$DIMALTF
 40
25.3999999999999986
  9
$DIMLFAC
 40
1.0
  9
$DIMTOFL
 70
     0
  9
$DIMTVP
 40
0.0
  9
$DIMTIX
 70
     0
  9
$DIMSOXD
 70
     0
  9
$DIMSAH
 70
     0
  9
$DIMBLK1
  1

  9
$DIMBLK2
  1

  9
$DIMSTYLE
  2
STANDARD
  9
$DIMCLRD
 70
     0
  9
$DIMCLRE
 70
     0
  9
$DIMCLRT
 70
     0
  9
$DIMTFAC
 40
1.0
  9
$DIMGAP
 40
0.09
  9
$LUNITS
 70
     2
  9
$LUPREC
 70
     4
  9
$SKETCHINC
 40
0.1
  9
$FILLETRAD
 40
0.0
  9
$AUNITS
 70
     0
  9
$AUPREC
 70
     0
  9
$MENU
  1
.
  9
$ELEVATION
 40
0.0
  9
$PELEVATION
 40
0.0
  9
$THICKNESS
 40
0.0
  9
$LIMCHECK
 70
     0
  9
$BLIPMODE
 70
     0
  9
$CHAMFERA
 40
0.0
  9
$CHAMFERB
 40
0.0
  9
$SKPOLY
 70
     0
  9
$TDCREATE
 40
2458060.468368056230247
  9
$TDUPDATE
 40
2459527.7729745372198522
  9
$TDINDWG
 40
0.7291274306
  9
$TDUSRTIMER
 40
0.7291274306
  9
$USRTIMER
 70
     1
  9
$ANGBASE
 50
0.0
  9
$ANGDIR
 70
     0
  9
$PDMODE
 70
     0
  9
$PDSIZE
 40
0.3125
  9
$PLINEWID
 40
0.0
  9
$COORDS
 70
     1
  9
$SPLFRAME
 70
     0
  9
$SPLINETYPE
 70
     6
  9
$SPLINESEGS
 70
     8
  9
$ATTDIA
 70
     1
  9
$ATTREQ
 70
     1
  9
$HANDLING
 70
     1
  9
$HANDSEED
  5
1141E
  9
$SURFTAB1
 70
     6
  9
$SURFTAB2
 70
     6
  9
$SURFTYPE
 70
     6
  9
$SURFU
 70
     6
  9
$SURFV
 70
     6
  9
$UCSNAME
  2

  9
$UCSORG
 10
0.0
 20
0.0
 30
0.0
  9
$UCSXDIR
 10
1.0
 20
0.0
 30
0.0
  9
$UCSYDIR
 10
0.0
 20
1.0
 30
0.0
  9
$PUCSNAME
  2

  9
$PUCSORG
 10
0.0
 20
0.0
 30
0.0
  9
$PUCSXDIR
 10
1.0
 20
0.0
 30
0.0
  9
$PUCSYDIR
 10
0.0
 20
1.0
 30
0.0
  9
$USERI1
 70
     0
  9
$USERI2
 70
     0
  9
$USERI3
 70
     0
  9
$USERI4
 70
     0
  9
$USERI5
 70
     0
  9
$USERR1
 40
0.0
  9
$USERR2
 40
0.0
  9
$USERR3
 40
0.0
  9
$USERR4
 40
0.0
  9
$USERR5
 40
0.0
  9
$WORLDVIEW
 70
     1
  9
$SHADEDGE
 70
     3
  9
$SHADEDIF
 70
    70
  9
$TILEMODE
 70
     1
  9
$MAXACTVP
 70
    64
  9
$PLIMCHECK
 70
     0
  9
$PEXTMIN
 10
1.0000000000000000E+20
 20
1.0000000000000000E+20
 30
1.0000000000000000E+20
  9
$PEXTMAX
 10
-1.0000000000000000E+20
 20
-1.0000000000000000E+20
 30
-1.0000000000000000E+20
  9
$PLIMMIN
 10
0.0
 20
0.0
  9
$PLIMMAX
 10
12.0
 20
9.0
  9
$UNITMODE
 70
     0
  9
$VISRETAIN
 70
     1
  9
$PLINEGEN
 70
     0
  9
$PSLTSCALE
 70
     1
  0
ENDSEC
  0
SECTION
  2
TABLES
  0
TABLE
  2
VPORT
 70
     1
  0
VPORT
  2
*ACTIVE
 70
     0
 10
0.0
 20
0.0
 11
1.0
 21
1.0
 12
293.5906338627710284
 22
38.8526304295931197
 13
0.0
 23
0.0
 14
1.0
 24
1.0
 15
0.0
 25
0.0
 16
0.0
 26
0.0
 36
26.6346482412083887
 17
3644.0758056640620453
 27
159.9442404997975871
 37
0.0
 40
14.0217222322972894
 41
2.8393393393393391
 42
50.0
 43
0.0
 44
0.0
 50
0.0
 51
0.0
 71
     0
 72
   100
 73
     1
 74
     1
 75
     0
 76
     0
 77
     0
 78
     0
  0
ENDTAB
  0
TABLE
  2
LTYPE
 70
     2
  0
LTYPE
  2
CONTINUOUS
 70
     0
  3
Solid line
 72
    65
 73
     0
 40
0.0
  0
LTYPE
  2
PHANTOM2
 70
     0
  3
___ _ _ ___ _ _ ___ _ _ ___ _ _
 72
    65
 73
     6
 40
1.25
 49
0.625
 49
-0.125
 49
0.125
 49
-0.125
 49
0.125
 49
-0.125
  0
ENDTAB
  0
TABLE
  2
LAYER
 70
     2
  0
LAYER
  2
0
 70
     0
 62
   255
  6
CONTINUOUS
  0
LAYER
  2
DEFPOINTS
 70
     0
 62
     7
  6
CONTINUOUS
  0
ENDTAB
  0
TABLE
  2
STYLE
 70
     1
  0
STYLE
  2
STANDARD
 70
     0
 40
0.0
 41
0.8
 50
0.0
 71
     0
 42
0.2
  3
txt
  4

  0
ENDTAB
  0
TABLE
  2
VIEW
 70
     0
  0
ENDTAB
  0
TABLE
  2
UCS
 70
     0
  0
ENDTAB
  0
TABLE
  2
APPID
 70
    10
  0
APPID
  2
ACAD
 70
     0
  0
APPID
  2
ACAD_MLEADERVER
 70
     0
  0
APPID
  2
ACAD_EXEMPT_FROM_CAD_STANDARDS
 70
     0
  0
APPID
  2
ACAD_NAV_VCDISPLAY
 70
     0
  0
APPID
  2
ACAECLAYERSTANDARD
 70
     0
  0
APPID
  2
ACCMTRANSPARENCY
 70
     0
  0
APPID
  2
ACAD_DSTYLE_DIMJAG
 70
     0
  0
APPID
  2
ACAD_DSTYLE_DIMTALN
 70
     0
  0
APPID
  2
ACDBATTR
 70
     0
  0
APPID
  2
ACAD_PSEXT
 70
     0
  0
ENDTAB
  0
TABLE
  2
DIMSTYLE
 70
     1
  0
DIMSTYLE
  2
STANDARD
 70
     0
  3

  4

  5

  6

  7

 40
1.0
 41
0.1875
 42
0.0625
 43
0.38
 44
0.125
 45
0.0
 46
0.0
 47
0.01
 48
0.01
140
0.15625
141
0.09
142
0.0
143
25.3999999999999986
144
1.0
145
0.0
146
1.0
147
0.09
 71
     1
 72
     0
 73
     1
 74
     1
 75
     0
 76
     0
 77
     0
 78
     4
170
     0
171
     2
172
     0
173
     0
174
     0
175
     0
176
     0
177
     0
178
     0
  0
ENDTAB
  0
ENDSEC
  0
SECTION
  2
BLOCKS
  0
BLOCK
  8
0
  2
$MODEL_SPACE
 70
     0
 10
0.0
 20
0.0
 30
0.0
  3
$MODEL_SPACE
  1

  0
ENDBLK
  5
21
  8
0
  0
BLOCK
 67
     1
  8
0
  2
$PAPER_SPACE
 70
     0
 10
0.0
 20
0.0
 30
0.0
  3
$PAPER_SPACE
  1

  0
ENDBLK
  5
1D
 67
     1
  8
0
  0
ENDSEC
  0
SECTION
  2
ENTITIES
  0
ATTDEF
  5
AA11
  8
DEFPOINTS
 10
3937.718244530073207
 20
197.3957064583819943
 30
0.0
 40
0.001
  1
K-1.1922.003
  3

  2
MODELNUMBER
 70
     0
1001
ACDBATTR
1070
     0
1070
     1
  0
ATTDEF
  5
AA12
  8
DEFPOINTS
 10
3937.718244530073207
 20
197.3940397917153859
 30
0.0
 40
0.001
  1

  3

  2
TRADENAME
 70
     0
1001
ACDBATTR
1070
     0
1070
     1
  0
ATTDEF
  5
AA13
  8
DEFPOINTS
 10
3937.718244530073207
 20
197.3923731250486924
 30
0.0
 40
0.001
  1
SHOWER DOOR
  3

  2
PRODUCT
 70
     0
1001
ACDBATTR
1070
     0
1070
     1
  0
LINE
  5
1124F
  8
0
 10
3918.0380086887598736
 20
202.3862021934945972
 30
0.0
 11
3918.0380086887598736
 21
197.8806116422946104
 31
0.0
  0
LINE
  5
11250
  8
0
 10
3918.0380086887598736
 20
197.0697055420945958
 30
0.0
 11
3918.0380086887598736
 21
197.1168321145945868
 31
0.0
  0
LINE
  5
11251
  8
0
 10
3918.0380086887598736
 20
197.6876982565945866
 30
0.0
 11
3918.0380086887598736
 21
197.7387332149945962
 31
0.0
  0
LINE
  5
11252
  8
0
 10
3918.0498197124588842
 20
197.0616844998945965
 30
0.0
 11
3918.0498197124588842
 21
197.7467120712946098
 31
0.0
  0
LINE
  5
11253
  8
0
 10
3918.5143866415601224
 20
199.6365171540946051
 30
0.0
 11
3918.5143866415601224
 21
202.3665171540945948
 31
0.0
  0
LINE
  5
11254
  8
0
 10
3919.612811838459038
 20
197.7387332149945962
 30
0.0
 11
3919.612811838459038
 21
197.0697055419946082
 31
0.0
  0
LINE
  5
11255
  8
0
 10
3919.632496877759877
 20
197.0341549493946047
 30
0.0
 11
3919.632496877759877
 21
197.664076209294592
 31
0.0
  0
LINE
  5
11256
  8
0
 10
3919.632496877759877
 20
197.664076209294592
 30
0.0
 11
3919.632496877759877
 21
197.8018714847945887
 31
0.0
  0
LINE
  5
11257
  8
0
 10
3919.6244016537598327
 20
197.6522038464945865
 30
0.0
 11
3919.632496877759877
 21
197.6441909572945974
 31
0.0
  0
LINE
  5
11258
  8
0
 10
3924.7506071139600863
 20
198.120769122594595
 30
0.0
 11
3924.7506071139600863
 21
197.664076209294592
 31
0.0
  0
LINE
  5
11259
  8
0
 10
3924.7506071139600863
 20
197.664076209294592
 30
0.0
 11
3924.7506071139600863
 21
197.0341549493946047
 31
0.0
  0
LINE
  5
1125A
  8
0
 10
3926.9997645943599309
 20
196.9708398172946033
 30
0.0
 11
3926.9997645943599309
 21
197.167690210994607
 31
0.0
  0
LINE
  5
1125B
  8
0
 10
3926.9997645943599309
 20
197.5220209196945973
 30
0.0
 11
3926.9997645943599309
 21
197.8251555652946081
 31
0.0
  0
LINE
  5
1125C
  8
0
 10
3927.0588197124598082
 20
197.167690210994607
 30
0.0
 11
3927.0588197124598082
 21
197.2070602897946117
 31
0.0
  0
LINE
  5
1125D
  8
0
 10
3927.1966149880599914
 20
197.167690210994607
 30
0.0
 11
3927.1966149880599914
 21
196.951154777894601
 31
0.0
  0
LINE
  5
1125E
  8
0
 10
3927.2556701061589592
 20
197.2070602897946117
 30
0.0
 11
3927.2556701061589592
 21
197.167690210994607
 31
0.0
  0
LINE
  5
1125F
  8
0
 10
3931.5371661691588088
 20
197.2070602896945957
 30
0.0
 11
3931.5371661691588088
 21
197.167690210994607
 31
0.0
  0
LINE
  5
11260
  8
0
 10
3931.5568512084601025
 20
197.167690210994607
 30
0.0
 11
3931.5568512084601025
 21
197.1480051715946047
 31
0.0
  0
LINE
  5
11261
  8
0
 10
3931.5568512084601025
 20
197.5220209196945973
 30
0.0
 11
3931.5568512084601025
 21
197.5810760377945883
 31
0.0
  0
LINE
  5
11262
  8
0
 10
3931.5725992399588904
 20
197.1766066637945869
 30
0.0
 11
3931.5725987635601086
 21
197.2133793464946052
 31
0.0
  0
LINE
  5
11263
  8
0
 10
3931.5725992391598993
 20
197.5127817906945893
 30
0.0
 11
3931.5725992399588904
 21
197.5499374960946
 31
0.0
  0
LINE
  5
11264
  8
0
 10
3931.6434653816600076
 20
197.5220338295945908
 30
0.0
 11
3931.6434653816600076
 21
197.5141469029946109
 31
0.0
  0
LINE
  5
11265
  8
0
 10
3931.6434653816600076
 20
197.2120180818945983
 30
0.0
 11
3931.6434653816600076
 21
197.2041204437946078
 31
0.0
  0
LINE
  5
11266
  8
0
 10
3931.7340165628597788
 20
197.2464303684946003
 30
0.0
 11
3931.7340165628597788
 21
197.4826508408945926
 31
0.0
  0
LINE
  5
11267
  8
0
 10
3931.7733875685598832
 20
197.209585149194595
 30
0.0
 11
3931.7733866387588932
 21
197.5165453915946046
 31
0.0
  0
LINE
  5
11268
  8
0
 10
3931.8127567202600403
 20
197.5945349714945962
 30
0.0
 11
3931.8127567202600403
 21
197.8251555652946081
 31
0.0
  0
ARC
  5
11269
  8
0
 10
3931.7930567202588463
 20
197.8251555652946081
 30
0.0
 40
0.0197
 50
0.0
 51
90.0
  0
LINE
  5
1126A
  8
0
 10
3931.8166937281598621
 20
197.3645406039946124
 30
0.0
 11
3931.8166985296588791
 21
197.2051007594945986
 31
0.0
  0
LINE
  5
1126B
  8
0
 10
3931.8166937281598621
 20
197.6735957227946017
 30
0.0
 11
3931.8166937281598621
 21
197.5948136681946039
 31
0.0
  0
LINE
  5
1126C
  8
0
 10
3931.8166937282599065
 20
197.5711596272946053
 30
0.0
 11
3931.8166937281598621
 21
197.3881626512944933
 31
0.0
  0
LINE
  5
1126D
  8
0
 10
3931.8166937281598621
 20
197.205100759394611
 30
0.0
 11
3931.8166937281598621
 21
197.167690210994607
 31
0.0
  0
LINE
  5
1126E
  8
0
 10
3931.8324417596600142
 20
196.951154777894601
 30
0.0
 11
3931.8324417596600142
 21
197.167690210994607
 31
0.0
  0
LINE
  5
1126F
  8
0
 10
3932.0076386100590753
 20
197.9202749180946057
 30
0.0
 11
3932.0076386100590753
 21
197.5994088107946141
 31
0.0
  0
LINE
  5
11270
  8
0
 10
3932.0076386100590753
 20
197.5754489934946037
 30
0.0
 11
3932.0076386100590753
 21
197.5220209196945973
 31
0.0
  0
LINE
  5
11271
  8
0
 10
3932.0076386100590753
 20
197.2070602896945957
 30
0.0
 11
3932.0076386100590753
 21
197.167690210994607
 31
0.0
  0
LINE
  5
11272
  8
0
 10
3932.0076386100590753
 20
197.2070602896945957
 30
0.0
 11
3932.0076386100590753
 21
197.5220209196945973
 31
0.0
  0
LINE
  5
11273
  8
0
 10
3932.0096071139601008
 20
197.167690210994607
 30
0.0
 11
3932.0096071139601008
 21
196.951154777894601
 31
0.0
  0
LINE
  5
11274
  8
0
 10
3932.1572449092600436
 20
197.5220209196945973
 30
0.0
 11
3932.1572449092600436
 21
197.8251705259945936
 31
0.0
  0
LINE
  5
11275
  8
0
 10
3932.2133370185601962
 20
197.167690210994607
 30
0.0
 11
3932.2133370185601962
 21
197.2070602896945957
 31
0.0
  0
LINE
  5
11276
  8
0
 10
3931.753701602160163
 20
197.226745329094598
 30
0.0
 11
3931.7340165628597788
 21
197.2464303684946003
 31
0.0
  0
LINE
  5
11277
  8
0
 10
3931.7733866415587727
 20
197.4826508408945926
 30
0.0
 11
3931.7340165628597788
 21
197.5220209196945973
 31
0.0
  0
LINE
  5
11278
  8
0
 10
3931.7340165628597788
 20
197.4826508408945926
 30
0.0
 11
3931.753701602160163
 21
197.502335880294595
 31
0.0
  0
LINE
  5
11279
  8
0
 10
3931.7340165628597788
 20
197.2070602896945957
 30
0.0
 11
3931.7733866415587727
 21
197.2464303684946003
 31
0.0
  0
LINE
  5
1127A
  8
0
 10
3931.8324417596600142
 20
196.951154777894601
 30
0.0
 11
3927.0194496336598604
 21
196.951154777894601
 31
0.0
  0
LINE
  5
1127B
  8
0
 10
3931.8324417596600142
 20
196.951154777894601
 30
0.0
 11
3936.8225992399597999
 21
196.951154777894601
 31
0.0
  0
LINE
  5
1127C
  8
0
 10
3924.7309220746601568
 20
197.0144699099946024
 30
0.0
 11
3919.6521819171598509
 21
197.0144699099946024
 31
0.0
  0
LINE
  5
1127D
  8
0
 10
3955.4556307360148821
 20
197.052194491294614
 30
0.0
 11
3954.4123236494137927
 21
197.0521944913946015
 31
0.0
  0
LINE
  5
1127E
  8
0
 10
3954.9516937281150604
 20
197.1112496094945925
 30
0.0
 11
3955.4359456966149082
 21
197.1112496094945925
 31
0.0
  0
LINE
  5
1127F
  8
0
 10
3955.8335545593149618
 20
197.1125721006945923
 30
0.0
 11
3955.5383079013149654
 21
197.1125721005946048
 31
0.0
  0
LINE
  5
11280
  8
0
 10
3954.4123236494137927
 20
197.1224146202945917
 30
0.0
 11
3952.9162653817152204
 21
197.1224146202945917
 31
0.0
  0
LINE
  5
11281
  8
0
 10
3952.3257142006150389
 20
197.1224146202945917
 30
0.0
 11
3936.8422842793588643
 21
197.1224146203946077
 31
0.0
  0
LINE
  5
11282
  8
0
 10
3926.9997645943599309
 20
197.1266746344946057
 30
0.0
 11
3924.7506071139600863
 21
197.1266746344946057
 31
0.0
  0
LINE
  5
11283
  8
0
 10
3919.632496877759877
 20
197.1266746344946057
 30
0.0
 11
3919.612811838459038
 21
197.1266746344946057
 31
0.0
  0
LINE
  5
11284
  8
0
 10
3955.0241838856150025
 20
197.1342236622946018
 30
0.0
 11
3955.3521634546150381
 21
197.1342236622946018
 31
0.0
  0
LINE
  5
11285
  8
0
 10
3931.5568512084601025
 20
197.1480051715946047
 30
0.0
 11
3931.7387832591589358
 21
197.1480051715946047
 31
0.0
  0
LINE
  5
11286
  8
0
 10
3931.7727069202592247
 20
197.1480051715946047
 30
0.0
 11
3931.8324417596600142
 21
197.1480051715946047
 31
0.0
  0
LINE
  5
11287
  8
0
 10
3955.3949627886931921
 20
197.1525881920944983
 30
0.0
 11
3955.5146858541138499
 21
197.1525881920944983
 31
0.0
  0
LINE
  5
11288
  8
0
 10
3955.0241838856150025
 20
197.1617827173946011
 30
0.0
 11
3955.3757855018138798
 21
197.1617827173946011
 31
0.0
  0
LINE
  5
11289
  8
0
 10
3954.6747500706142091
 20
197.1629258838945873
 30
0.0
 11
3954.4123236494137927
 21
197.1629258838945873
 31
0.0
  0
LINE
  5
1128A
  8
0
 10
3954.6682291612141853
 20
197.1639378234945923
 30
0.0
 11
3952.9162653817152204
 21
197.1639378234945923
 31
0.0
  0
LINE
  5
1128B
  8
0
 10
3952.3257142006150389
 20
197.1639378234945923
 30
0.0
 11
3936.8422842793588643
 21
197.1639378234945923
 31
0.0
  0
LINE
  5
1128C
  8
0
 10
3954.6682291612141853
 20
197.1641351683946084
 30
0.0
 11
3954.6735477039142097
 21
197.1641351683946084
 31
0.0
  0
LINE
  5
1128D
  8
0
 10
3955.0241838856150025
 20
197.1641351683946084
 30
0.0
 11
3955.378627084215168
 21
197.1641351683946084
 31
0.0
  0
LINE
  5
1128E
  8
0
 10
3955.403517877413833
 20
197.1641351683946084
 30
0.0
 11
3955.4162996844138434
 21
197.1641351683946084
 31
0.0
  0
LINE
  5
1128F
  8
0
 10
3936.8422842793588643
 20
197.167690210994607
 30
0.0
 11
3931.8033419833150219
 21
197.167690210994607
 31
0.0
  0
LINE
  5
11290
  8
0
 10
3931.5568512084601025
 20
197.167690210994607
 30
0.0
 11
3931.5879491555588174
 21
197.167690210994607
 31
0.0
  0
LINE
  5
11291
  8
0
 10
3931.5879491555588174
 20
197.167690210994607
 30
0.0
 11
3926.9997645943599309
 21
197.167690210994607
 31
0.0
  0
LINE
  5
11292
  8
0
 10
3952.3257142006150389
 20
197.167690210894591
 30
0.0
 11
3952.9162653817152204
 21
197.167690210894591
 31
0.0
  0
LINE
  5
11293
  8
0
 10
3954.9831897911149099
 20
197.2070602896945957
 30
0.0
 11
3932.0076386100590753
 21
197.2070602896945957
 31
0.0
  0
LINE
  5
11294
  8
0
 10
3931.7340165628597788
 20
197.2070602896945957
 30
0.0
 11
3931.6434653816600076
 21
197.2070602896945957
 31
0.0
  0
LINE
  5
11295
  8
0
 10
3931.572598845459197
 20
197.2070602896945957
 30
0.0
 11
3924.7506071139600863
 21
197.2070602897946117
 31
0.0
  0
LINE
  5
11296
  8
0
 10
3919.632496877759877
 20
197.2070602897946117
 30
0.0
 11
3919.612811838459038
 21
197.2070602897946117
 31
0.0
  0
LINE
  5
11297
  8
0
 10
3931.5830489979598497
 20
197.2238295815946003
 30
0.0
 11
3931.6316543579600875
 21
197.2238291051945964
 31
0.0
  0
LINE
  5
11298
  8
0
 10
3931.7340165628597788
 20
197.2464303684946003
 30
0.0
 11
3924.7506071139600863
 21
197.2464303684946003
 31
0.0
  0
LINE
  5
11299
  8
0
 10
3931.8166937281598621
 20
197.3645406039946124
 30
0.0
 11
3931.9899220745592174
 21
197.3645406039946124
 31
0.0
  0
LINE
  5
1129A
  8
0
 10
3931.8166937281598621
 20
197.3881626512944933
 30
0.0
 11
3931.9899220745592174
 21
197.3881626512944933
 31
0.0
  0
LINE
  5
1129B
  8
0
 10
3931.7340165628597788
 20
197.4826508408945926
 30
0.0
 11
3924.7506071139600863
 21
197.4826508408945926
 31
0.0
  0
LINE
  5
1129C
  8
0
 10
3919.632496877759877
 20
197.4826508409946086
 30
0.0
 11
3919.612811838459038
 21
197.4826508409946086
 31
0.0
  0
LINE
  5
1129D
  8
0
 10
3931.7676544289602134
 20
197.488383053594589
 30
0.0
 11
3931.7733867240599466
 21
197.488383053594589
 31
0.0
  0
LINE
  5
1129E
  8
0
 10
3931.7645889196592179
 20
197.4914485627946021
 30
0.0
 11
3931.7733867148599529
 21
197.4914485627946021
 31
0.0
  0
LINE
  5
1129F
  8
0
 10
3931.6316543581588121
 20
197.5023358795945967
 30
0.0
 11
3931.582576107659861
 21
197.5023358795945967
 31
0.0
  0
LINE
  5
112A0
  8
0
 10
3931.749686116158955
 20
197.5063513663945969
 30
0.0
 11
3931.7733866696589757
 21
197.5063513663945969
 31
0.0
  0
LINE
  5
112A1
  8
0
 10
3931.7418121003588567
 20
197.5142253820945939
 30
0.0
 11
3931.7733866387588932
 21
197.5142253820945939
 31
0.0
  0
LINE
  5
112A2
  8
0
 10
3954.9831897911149099
 20
197.5220209195946097
 30
0.0
 11
3932.0076386100590753
 21
197.5220209196945973
 31
0.0
  0
LINE
  5
112A3
  8
0
 10
3931.7340165628597788
 20
197.5220209196945973
 30
0.0
 11
3931.6434653816600076
 21
197.5220209196945973
 31
0.0
  0
LINE
  5
112A4
  8
0
 10
3931.5725992393590786
 20
197.5220209196945973
 30
0.0
 11
3924.7506071139600863
 21
197.5220209196945973
 31
0.0
  0
LINE
  5
112A5
  8
0
 10
3952.3257142006150389
 20
197.5613909982945984
 30
0.0
 11
3952.9162653817152204
 21
197.5613909982945984
 31
0.0
  0
LINE
  5
112A6
  8
0
 10
3954.6682291612141853
 20
197.5692820278945874
 30
0.0
 11
3952.9162653817152204
 21
197.5692820278945874
 31
0.0
  0
LINE
  5
112A7
  8
0
 10
3952.3257142006150389
 20
197.5692820278945874
 30
0.0
 11
3936.8422842793588643
 21
197.5692820279946034
 31
0.0
  0
LINE
  5
112A8
  8
0
 10
3932.1572449092600436
 20
197.5692820279946034
 30
0.0
 11
3932.0701778433590334
 21
197.5692820279946034
 31
0.0
  0
LINE
  5
112A9
  8
0
 10
3932.0276197571588455
 20
197.5692820279946034
 30
0.0
 11
3932.0076386100590753
 21
197.5692820279946034
 31
0.0
  0
LINE
  5
112AA
  8
0
 10
3931.5568512084601025
 20
197.5810760377945883
 30
0.0
 11
3931.7126791469599993
 21
197.5810760377945883
 31
0.0
  0
LINE
  5
112AB
  8
0
 10
3955.4736425469150163
 20
197.6007630586946107
 30
0.0
 11
3955.1220409307138652
 21
197.6007630586946107
 31
0.0
  0
LINE
  5
112AC
  8
0
 10
3954.6682291612141853
 20
197.6060826736946012
 30
0.0
 11
3955.0504521791149273
 21
197.6060826736946012
 31
0.0
  0
LINE
  5
112AD
  8
0
 10
3955.4736425469150163
 20
197.6283221138945976
 30
0.0
 11
3955.1456629779149807
 21
197.62832211379461
 31
0.0
  0
LINE
  5
112AE
  8
0
 10
3931.8166937281598621
 20
197.6482668385945942
 30
0.0
 11
3931.8127567202600403
 21
197.6482668385945942
 31
0.0
  0
LINE
  5
112AF
  8
0
 10
3931.8166937281598621
 20
197.6490018683946062
 30
0.0
 11
3931.8127567202600403
 21
197.6490018683946062
 31
0.0
  0
LINE
  5
112B0
  8
0
 10
3926.9997645943599309
 20
197.6490018683946062
 30
0.0
 11
3924.7506071139600863
 21
197.6490018683946062
 31
0.0
  0
LINE
  5
112B1
  8
0
 10
3931.8166937281598621
 20
197.6699817210945866
 30
0.0
 11
3931.8127567202600403
 21
197.6699817210945866
 31
0.0
  0
LINE
  5
112B2
  8
0
 10
3931.8166937281598621
 20
197.6735957227946017
 30
0.0
 11
3932.0076386100590753
 21
197.6735957227946017
 31
0.0
  0
LINE
  5
112B3
  8
0
 10
3919.612811838459038
 20
197.6778557367946121
 30
0.0
 11
3919.632496877759877
 21
197.6778557367946121
 31
0.0
  0
LINE
  5
112B4
  8
0
 10
3924.7506071139600863
 20
197.6778557367946121
 30
0.0
 11
3926.9997645943599309
 21
197.6778557367946121
 31
0.0
  0
LINE
  5
112B5
  8
0
 10
3931.8127567202600403
 20
197.6778557367946121
 30
0.0
 11
3932.0076386100590753
 21
197.6778557367946121
 31
0.0
  0
LINE
  5
112B6
  8
0
 10
3955.5383079013149654
 20
197.6834382422946135
 30
0.0
 11
3955.8335545593149618
 21
197.6834382422946135
 31
0.0
  0
LINE
  5
112B7
  8
0
 10
3931.7499965063598211
 20
197.1465417544945922
 30
0.0
 11
3931.5794542755597831
 21
197.168798859794606
 31
0.0
  0
LINE
  5
112B8
  8
0
 10
3931.6434653816600076
 20
197.2041204437946078
 30
0.0
 11
3931.7511320311591589
 21
197.190069097594602
 31
0.0
  0
LINE
  5
112B9
  8
0
 10
3931.5796013388589927
 20
197.5577630872946031
 30
0.0
 11
3931.7705301424598474
 21
197.5912105403945986
 31
0.0
  0
LINE
  5
112BA
  8
0
 10
3931.7511520141601977
 20
197.5360886457945924
 30
0.0
 11
3931.6434653816600076
 21
197.5220338295945908
 31
0.0
  0
LINE
  5
112BB
  8
0
 10
3955.0504521791149273
 20
197.7647929164945992
 30
0.0
 11
3955.4556307360148821
 21
197.7647929164945992
 31
0.0
  0
LINE
  5
112BC
  8
0
 10
3919.632496877759877
 20
197.8018714847945887
 30
0.0
 11
3918.1167488462588153
 21
197.8018714847945887
 31
0.0
  0
LINE
  5
112BD
  8
0
 10
3932.1769299486600175
 20
197.8448555652946084
 30
0.0
 11
3936.8225992399597999
 21
197.8448555652946084
 31
0.0
  0
LINE
  5
112BE
  8
0
 10
3931.7930567202588463
 20
197.8448555652946084
 30
0.0
 11
3927.0194645943602154
 21
197.8448555652946084
 31
0.0
  0
ARC
  5
112BF
  8
0
 10
3927.0194645943602154
 20
197.8251555652946081
 30
0.0
 40
0.0197
 50
90.0
 51
180.0
  0
LINE
  5
112C0
  8
0
 10
3952.3257142006150389
 20
197.9202624845945877
 30
0.0
 11
3932.0076386100590753
 21
197.9202749180946057
 31
0.0
  0
LINE
  5
112C1
  8
0
 10
3952.9162653817152204
 20
197.9281438930946138
 30
0.0
 11
3955.0504521791149273
 21
197.9281438930946138
 31
0.0
  0
LINE
  5
112C2
  8
0
 10
3924.7309220746601568
 20
198.1404541619945974
 30
0.0
 11
3920.0104496336589364
 21
198.1404541619945974
 31
0.0
  0
LINE
  5
112C3
  8
0
 10
3936.7881401681602256
 20
197.2070602896945957
 30
0.0
 11
3936.7881401681602256
 21
197.167690210994607
 31
0.0
  0
LINE
  5
112C4
  8
0
 10
3936.8422842793588643
 20
197.167690210994607
 30
0.0
 11
3936.8422842793588643
 21
196.9708398172946033
 31
0.0
  0
LINE
  5
112C5
  8
0
 10
3936.8422842793588643
 20
197.5220209195946097
 30
0.0
 11
3936.8422842793588643
 21
197.825170525894606
 31
0.0
  0
LINE
  5
112C6
  8
0
 10
3918.0380086887598736
 20
202.3862021934945972
 30
0.0
 11
3918.4947016021601485
 21
202.3862021934945972
 31
0.0
  0
LINE
  5
112C7
  8
0
 10
3955.2703624755149576
 20
197.1809148504945881
 30
0.0
 11
3955.0443110169148895
 21
197.4069663090945994
 31
0.0
  0
LINE
  5
112C8
  8
0
 10
3955.0691804698149099
 20
197.4078477920946
 30
0.0
 11
3955.2721024042139106
 21
197.2049258576946045
 31
0.0
  0
LINE
  5
112C9
  8
0
 10
3955.3478240751142039
 20
197.2528086792945885
 30
0.0
 11
3955.1164136374150075
 21
197.4842191169946091
 31
0.0
  0
LINE
  5
112CA
  8
0
 10
3955.1061132630147767
 20
197.4945194913946125
 30
0.0
 11
3955.0577883503151497
 21
197.542844404094609
 31
0.0
  0
LINE
  5
112CB
  8
0
 10
3955.3800023046151182
 20
197.2211176295946018
 30
0.0
 11
3955.3592032049150475
 21
197.2419167292945872
 31
0.0
  0
LINE
  5
112CC
  8
0
 10
3955.05833237641491
 20
197.5706264074945864
 30
0.0
 11
3955.3939217297138384
 21
197.2350370540945903
 31
0.0
  0
LINE
  5
112CD
  8
0
 10
3955.439494056213789
 20
197.191919368594597
 30
0.0
 11
3955.1039047028148161
 21
197.5275087218946055
 31
0.0
  0
LINE
  5
112CE
  8
0
 10
3955.0504521791149273
 20
197.6060826736946012
 30
0.0
 11
3955.0866210648150627
 21
197.5699137880945955
 31
0.0
  0
LINE
  5
112CF
  8
0
 10
3955.1178241279149006
 20
197.54142814649461
 30
0.0
 11
3955.1386232276149713
 21
197.5206290467945962
 31
0.0
  0
LINE
  5
112D0
  8
0
 10
3955.1500023574139959
 20
197.5097370967945949
 30
0.0
 11
3955.3814127952141462
 21
197.2783266590946027
 31
0.0
  0
LINE
  5
112D1
  8
0
 10
3955.3917131695147873
 20
197.2680262846945993
 30
0.0
 11
3955.4400380823149135
 21
197.2197013719946028
 31
0.0
  0
LINE
  5
112D2
  8
0
 10
3955.4286459628151533
 20
197.3546979839946118
 30
0.0
 11
3955.2257240283151987
 21
197.5576199183946073
 31
0.0
  0
LINE
  5
112D3
  8
0
 10
3955.2274639570150612
 20
197.5816309254946077
 30
0.0
 11
3955.4535154157138095
 21
197.3555794669946124
 31
0.0
  0
LINE
  5
112D4
  8
0
 10
3955.1164136374150075
 20
197.4842191169946091
 30
0.0
 11
3955.0689932814148051
 21
197.4354969013946004
 31
0.0
  0
LINE
  5
112D5
  8
0
 10
3955.0443110166138467
 20
197.4327172452946115
 30
0.0
 11
3955.1061132630147767
 21
197.4945194913946125
 31
0.0
  0
LINE
  5
112D6
  8
0
 10
3955.1386232276149713
 20
197.5206290467945962
 30
0.0
 11
3955.199625107014981
 21
197.5816309262945936
 31
0.0
  0
LINE
  5
112D7
  8
0
 10
3955.1978851790140652
 20
197.5576199183946073
 30
0.0
 11
3955.1500023574139959
 21
197.5097370967945949
 31
0.0
  0
LINE
  5
112D8
  8
0
 10
3955.2999412536150885
 20
197.2049258576946045
 30
0.0
 11
3955.3478240751142039
 21
197.2528086792945885
 31
0.0
  0
LINE
  5
112D9
  8
0
 10
3955.3592032049150475
 20
197.2419167292945872
 30
0.0
 11
3955.2982013255150378
 21
197.1809148497945898
 31
0.0
  0
LINE
  5
112DA
  8
0
 10
3955.4535154160139427
 20
197.3298285307946003
 30
0.0
 11
3955.3917131695147873
 21
197.2680262846945993
 31
0.0
  0
LINE
  5
112DB
  8
0
 10
3952.3257142006150389
 20
195.8946530005945874
 30
0.0
 11
3952.3257142006150389
 21
197.167690210894591
 31
0.0
  0
LINE
  5
112DC
  8
0
 10
3952.3257142006150389
 20
197.5613909982945984
 30
0.0
 11
3952.3257142006150389
 21
198.834428208594602
 31
0.0
  0
LINE
  5
112DD
  8
0
 10
3952.3453992399149683
 20
197.2070602896945957
 30
0.0
 11
3952.3453992399149683
 21
197.167690210894591
 31
0.0
  0
LINE
  5
112DE
  8
0
 10
3952.3453992399149683
 20
197.5220209195946097
 30
0.0
 11
3952.3453992399149683
 21
197.5613909982945984
 31
0.0
  0
LINE
  5
112DF
  8
0
 10
3952.8965803423138823
 20
197.2070602896945957
 30
0.0
 11
3952.8965803423138823
 21
197.167690210894591
 31
0.0
  0
LINE
  5
112E0
  8
0
 10
3952.8965803423138823
 20
197.5220209195946097
 30
0.0
 11
3952.8965803423138823
 21
197.5613909982945984
 31
0.0
  0
LINE
  5
112E1
  8
0
 10
3952.9162653817152204
 20
198.834428208594602
 30
0.0
 11
3952.9162653817152204
 21
197.5613909982945984
 31
0.0
  0
LINE
  5
112E2
  8
0
 10
3952.9162653817152204
 20
197.167690210894591
 30
0.0
 11
3952.9162653817152204
 21
195.8946530005945874
 31
0.0
  0
LINE
  5
112E3
  8
0
 10
3955.3814127952141462
 20
197.2783266590946027
 30
0.0
 11
3955.4288331512148034
 21
197.3270488746946114
 31
0.0
  0
LINE
  5
112E4
  8
0
 10
3954.4123236494137927
 20
197.0521944913946015
 30
0.0
 11
3954.4123236494137927
 21
197.1639378234945923
 31
0.0
  0
LINE
  5
112E5
  8
0
 10
3954.6681799486141244
 20
197.5511494814946047
 30
0.0
 11
3954.6681799486141244
 21
197.5343191478945926
 31
0.0
  0
LINE
  5
112E6
  8
0
 10
3954.6681799486141244
 20
197.1947865223945939
 30
0.0
 11
3954.6681799486141244
 21
197.1779561887946102
 31
0.0
  0
LINE
  5
112E7
  8
0
 10
3954.6682291612141853
 20
197.5332830981946017
 30
0.0
 11
3954.6682291612141853
 21
197.5220209195946097
 31
0.0
  0
LINE
  5
112E8
  8
0
 10
3954.6682291612141853
 20
197.2070602896945957
 30
0.0
 11
3954.6682291612141853
 21
197.1958274035945919
 31
0.0
  0
LINE
  5
112E9
  8
0
 10
3954.6682291612141853
 20
197.1639720141945986
 30
0.0
 11
3954.6682291612141853
 21
197.1735904934946007
 31
0.0
  0
LINE
  5
112EA
  8
0
 10
3954.6682291612141853
 20
197.5524843120944922
 30
0.0
 11
3954.6682291612141853
 21
197.6060826736946012
 31
0.0
  0
LINE
  5
112EB
  8
0
 10
3954.7295213540141958
 20
197.1943616757945961
 30
0.0
 11
3954.7295213540141958
 21
197.1952492659945904
 31
0.0
  0
LINE
  5
112EC
  8
0
 10
3954.7295213540141958
 20
197.533831943194599
 30
0.0
 11
3954.7295213540141958
 21
197.5347439945944927
 31
0.0
  0
LINE
  5
112ED
  8
0
 10
3954.9320086888142214
 20
197.1324061335945999
 30
0.0
 11
3954.9320086888142214
 21
197.1309346487946073
 31
0.0
  0
LINE
  5
112EE
  8
0
 10
3954.9831897911149099
 20
197.5372600233945946
 30
0.0
 11
3954.9831897911149099
 21
197.5220209195946097
 31
0.0
  0
LINE
  5
112EF
  8
0
 10
3954.9831897911149099
 20
197.5220209195946097
 30
0.0
 11
3954.9831897911149099
 21
197.2070602896945957
 31
0.0
  0
LINE
  5
112F0
  8
0
 10
3954.9831897911149099
 20
197.2070602896945957
 30
0.0
 11
3954.9831897911149099
 21
197.1918211857945948
 31
0.0
  0
LINE
  5
112F1
  8
0
 10
3955.0241838856150025
 20
197.5289249806945975
 30
0.0
 11
3955.0241838856150025
 21
197.1617827173946011
 31
0.0
  0
LINE
  5
112F2
  8
0
 10
3955.0504521791149273
 20
197.6060826736946012
 30
0.0
 11
3955.0504521791149273
 21
197.9281438930946138
 31
0.0
  0
LINE
  5
112F3
  8
0
 10
3955.4162996844138434
 20
197.2151137403945995
 30
0.0
 11
3955.4162996844138434
 21
197.1641351683946084
 31
0.0
  0
LINE
  5
112F4
  8
0
 10
3955.4556307360148821
 20
197.1309346487946073
 30
0.0
 11
3955.4556307360148821
 21
197.1525881920944983
 31
0.0
  0
LINE
  5
112F5
  8
0
 10
3955.4736425470150607
 20
197.2336207954946019
 30
0.0
 11
3955.4736425469150163
 21
197.6007630586946107
 31
0.0
  0
LINE
  5
112F6
  8
0
 10
3955.5146858541138499
 20
197.1361941478945994
 30
0.0
 11
3955.5146858541138499
 21
197.1112496094945925
 31
0.0
  0
LINE
  5
112F7
  8
0
 10
3955.5146858541138499
 20
197.1361941478945994
 30
0.0
 11
3955.5146858541138499
 21
197.6598161949945904
 31
0.0
  0
LINE
  5
112F8
  8
0
 10
3955.5146858541138499
 20
197.6598161950946064
 30
0.0
 11
3955.5146858541138499
 21
197.7057377986945994
 31
0.0
  0
LINE
  5
112F9
  8
0
 10
3955.8335545593149618
 20
197.0628722814016101
 30
0.0
 11
3955.8335545593149618
 21
197.731869777990596
 31
0.0
  0
LINE
  5
112FA
  8
0
 10
3957.4083577089149912
 20
197.7318764361922945
 30
0.0
 11
3957.4083577089149912
 21
197.0628722813943909
 31
0.0
  0
ARC
  5
112FB
  8
0
 10
3918.8254102635592062
 20
168.2408478627945954
 30
0.0
 40
29.5275590550999993
 50
88.5091477174099168
 51
91.4828094054919063
  0
ARC
  5
112FC
  8
0
 10
3918.8254102635592062
 20
168.2408478628946114
 30
0.0
 40
29.5275590550999993
 50
89.9982380012918952
 51
89.9999999998957776
  0
ARC
  5
112FD
  8
0
 10
3918.8254102635592062
 20
168.2408478628946114
 30
0.0
 40
29.5275590550999993
 50
88.5091477191040639
 51
88.5108126358036742
  0
ARC
  5
112FE
  8
0
 10
3918.8254102635592062
 20
168.2408478628946114
 30
0.0
 40
29.5275590550999993
 50
91.4828093257104911
 51
91.4908522806092463
  0
ARC
  5
112FF
  8
0
 10
3920.0104496336589364
 20
199.6365171540946051
 30
0.0
 40
1.4960629920999999
 50
180.0
 51
270.0
  0
ARC
  5
11300
  8
0
 10
3918.1167488462588153
 20
197.8806116422946104
 30
0.0
 40
0.0787401575
 50
179.9999999949990013
 51
269.9999999977072207
  0
ARC
  5
11301
  8
0
 10
3919.6520961384590009
 20
197.5486803411945971
 30
0.0
 40
0.0393700787
 50
183.7828846866190986
 51
240.1440423878759134
  0
ARC
  5
11302
  8
0
 10
3919.5931267990599736
 20
197.0697055419946082
 30
0.0
 40
0.0196850394
 50
270.0
 51
359.9999999998991029
  0
ARC
  5
11303
  8
0
 10
3919.5931267990599736
 20
197.7387332149945962
 30
0.0
 40
0.0196850394
 50
0.0
 51
88.5091477119104155
  0
ARC
  5
11304
  8
0
 10
3918.0576937281598475
 20
197.7387332149945962
 30
0.0
 40
0.0196850394
 50
91.4908496614973359
 51
179.9999999975003107
  0
ARC
  5
11305
  8
0
 10
3918.0576937281598475
 20
197.0697055420945958
 30
0.0
 40
0.0196850394
 50
180.000000007800196
 51
268.2414809619994003
  0
ARC
  5
11306
  8
0
 10
3919.6521819171598509
 20
197.0341549493946047
 30
0.0
 40
0.0196850394
 50
180.0
 51
270.0000000007034942
  0
ARC
  5
11307
  8
0
 10
3924.7309220746601568
 20
197.0341549493946047
 30
0.0
 40
0.0196850394
 50
270.000000000208388
 51
0.0
  0
ARC
  5
11308
  8
0
 10
3924.7309220746601568
 20
198.120769122594595
 30
0.0
 40
0.0196850394
 50
0.0
 51
90.0000000007034942
  0
ARC
  5
11309
  8
0
 10
3918.4947016021601485
 20
202.3665171540945948
 30
0.0
 40
0.0196850394
 50
0.0
 51
90.0
  0
ARC
  5
1130A
  8
0
 10
3918.061630736060124
 20
197.7467120712946098
 30
0.0
 40
0.0118110236
 50
91.4828094348918768
 51
180.0000000022000108
  0
ARC
  5
1130B
  8
0
 10
3918.061630736060124
 20
197.0616844998945965
 30
0.0
 40
0.0118110236
 50
180.0000000019996946
 51
267.9372759304101237
  0
ARC
  5
1130C
  8
0
 10
3918.0498197124588842
 20
197.687698256494599
 30
0.0
 40
0.0118110236
 50
179.9999995504990125
 51
269.9999987836956166
  0
ARC
  5
1130D
  8
0
 10
3918.0498197124588842
 20
197.1168321146946028
 30
0.0
 40
0.0118110236
 50
90.0000012177113291
 51
180.0000004416990862
  0
ARC
  5
1130E
  8
0
 10
3918.8254102636587959
 20
218.2678345101946036
 30
0.0
 40
21.2317110569999983
 50
267.9372759572120231
 51
272.0738386028094169
  0
ARC
  5
1130F
  8
0
 10
3918.8254102636587959
 20
218.2678345102945912
 30
0.0
 40
21.2317110569999983
 50
267.9261613967995004
 51
267.9372761701941954
  0
ARC
  5
11310
  8
0
 10
3931.9881670662598481
 20
195.1157025987945985
 30
0.0
 40
2.4850590974000002
 50
89.9595363418014387
 51
94.8670789074019467
  0
ARC
  5
11311
  8
0
 10
3931.9881670662598481
 20
195.1157025987945985
 30
0.0
 40
2.4614370445999998
 50
89.9595376208989137
 51
93.9946837718099744
  0
ARC
  5
11312
  8
0
 10
3931.9899220745592174
 20
197.4826508401945944
 30
0.0
 40
0.1181102362
 50
270.0000000045075126
 51
278.6281697174965757
  0
ARC
  5
11313
  8
0
 10
3931.9899220745592174
 20
197.4826508401945944
 30
0.0
 40
0.1181102362
 50
19.4732498793033209
 51
89.9999999615947956
  0
ARC
  5
11314
  8
0
 10
3931.9899220745592174
 20
197.4826508401945944
 30
0.0
 40
0.094488189
 50
24.6271031270955696
 51
90.0101491908911271
  0
ARC
  5
11315
  8
0
 10
3931.9899220745592174
 20
197.4826508401945944
 30
0.0
 40
0.094488189
 50
269.9999999579991936
 51
280.8091581395894991
  0
ARC
  5
11316
  8
0
 10
3931.75763976305916
 20
197.2050996056946133
 30
0.0
 40
0.0590606108
 50
262.5687373521928976
 51
0.0011193145997496
  0
ARC
  5
11317
  8
0
 10
3931.7773236493599143
 20
197.5524310178946052
 30
0.0
 40
0.0393700787
 50
89.999999443905935
 51
99.9364098650099919
  0
ARC
  5
11318
  8
0
 10
3931.7536776225588255
 20
197.2096089897945888
 30
0.0
 40
0.0197117999
 50
270.0927848511959724
 51
359.9306963869997276
  0
ARC
  5
11319
  8
0
 10
3931.7536820308600909
 20
197.5165457884945965
 30
0.0
 40
0.0197076356
 50
359.9938050746994804
 51
97.3764799164107018
  0
ARC
  5
1131A
  8
0
 10
3932.1769299486600175
 20
197.8251705259945936
 30
0.0
 40
0.0196850394
 50
89.9999999997915552
 51
179.9999999997997122
  0
ARC
  5
1131B
  8
0
 10
3927.0194496336598604
 20
196.9708398172946033
 30
0.0
 40
0.0196850394
 50
179.9999999997997122
 51
269.9999999989057073
  0
ARC
  5
1131C
  8
0
 10
3931.7536656171600953
 20
197.2089618334946124
 30
0.0
 40
0.0190618574
 50
262.3619923638048022
 51
270.1320191541079225
  0
ARC
  5
1131D
  8
0
 10
3931.6316543580592224
 20
197.514146903194586
 30
0.0
 40
0.0118110236
 50
270.0000001130010219
 51
359.9999987796994105
  0
ARC
  5
1131E
  8
0
 10
3931.6316543580592224
 20
197.2120180815946071
 30
0.0
 40
0.0118110236
 50
0.000001219899967
 51
90.0000004403051861
  0
ARC
  5
1131F
  8
0
 10
3931.5830594694598403
 20
197.2133688756946128
 30
0.0
 40
0.0104616582
 50
90.0573552656888836
 51
179.9426490858998875
  0
ARC
  5
11320
  8
0
 10
3931.5804732556589443
 20
197.5499374955946053
 30
0.0
 40
0.0078740157
 50
96.3575968917069332
 51
179.9999966646992107
  0
ARC
  5
11321
  8
0
 10
3931.5804732556589443
 20
197.1766066637945869
 30
0.0
 40
0.0078740157
 50
179.9999998390998996
 51
262.564472951194773
  0
ARC
  5
11322
  8
0
 10
3956.6210480587142229
 20
176.5337588663946065
 30
0.0
 40
21.2317110569
 50
87.9261561820504198
 51
92.074340738723194
  0
ARC
  5
11323
  8
0
 10
3955.8532545593147915
 20
197.731869777990596
 30
0.0
 40
0.0197
 50
92.074340738723194
 51
180.0
  0
ARC
  5
11324
  8
0
 10
3957.3886577089137973
 20
197.7318764361922945
 30
0.0
 40
0.0197
 50
0.0
 51
87.9261561820504198
  0
ARC
  5
11325
  8
0
 10
3936.8225992399597999
 20
197.825170525894606
 30
0.0
 40
0.0196850394
 50
0.0
 51
89.9999999997915552
  0
ARC
  5
11326
  8
0
 10
3936.8225992399597999
 20
196.9708398172946033
 30
0.0
 40
0.0196850394
 50
270.0000000005991865
 51
359.9999999997996838
  0
ARC
  5
11327
  8
0
 10
3952.6209897911139706
 20
195.59288706129459
 30
0.0
 40
0.3937007874
 50
143.8710725278016014
 51
36.128927471703193
  0
ARC
  5
11328
  8
0
 10
3953.0343756179140655
 20
195.8946530005945874
 30
0.0
 40
0.1181102362
 50
179.9999999997997122
 51
216.1289274717032072
  0
ARC
  5
11329
  8
0
 10
3952.2076039643138756
 20
195.8946530005945874
 30
0.0
 40
0.1181102362
 50
323.871072527801573
 51
359.9999999997996838
  0
ARC
  5
1132A
  8
0
 10
3954.688676995815058
 20
197.1779561887946102
 30
0.0
 40
0.0204970472
 50
180.0000016448994131
 51
257.7654487105021985
  0
ARC
  5
1132B
  8
0
 10
3954.680478176914221
 20
197.1947865223945939
 30
0.0
 40
0.0122982283
 50
93.6143180091086577
 51
179.9999974424000015
  0
ARC
  5
1132C
  8
0
 10
3954.7177103304147749
 20
197.1952492659945904
 30
0.0
 40
0.0118110236
 50
0.0000012206001979
 51
90.000000440696013
  0
ARC
  5
1132D
  8
0
 10
3954.7335458942138757
 20
197.1951415693945933
 30
0.0
 40
0.0040994094
 50
190.9671040477986139
 51
262.2404722540049988
  0
ARC
  5
1132E
  8
0
 10
3952.6209897911139706
 20
199.1361941478945994
 30
0.0
 40
0.3937007874
 50
323.871072527801573
 51
216.1289274717032072
  0
ARC
  5
1132F
  8
0
 10
3952.2076039644148295
 20
198.834428208594602
 30
0.0
 40
0.1181102362
 50
0.0
 51
36.128927471703193
  0
ARC
  5
11330
  8
0
 10
3953.0343756179140655
 20
198.834428208594602
 30
0.0
 40
0.1181102362
 50
143.8710725278016014
 51
179.9999999997997122
  0
ARC
  5
11331
  8
0
 10
3954.688676995815058
 20
197.5511494814946047
 30
0.0
 40
0.0204970472
 50
102.2345510661082955
 51
179.9999983270000996
  0
ARC
  5
11332
  8
0
 10
3954.680478176914221
 20
197.5343191478945926
 30
0.0
 40
0.0122982283
 50
180.0000024733002988
 51
269.9999996595900029
  0
ARC
  5
11333
  8
0
 10
3954.7177103304147749
 20
197.533831943194599
 30
0.0
 40
0.0118110236
 50
270.0000001102912961
 51
359.9999987787988971
  0
ARC
  5
11334
  8
0
 10
3954.7335458942138757
 20
197.5339641008945932
 30
0.0
 40
0.0040994094
 50
97.7607046705965956
 51
169.0328960877000952
  0
ARC
  5
11335
  8
0
 10
3955.547328415913853
 20
196.2364876649945984
 30
0.0
 40
1.3937836059999991
 50
91.3420009618068462
 51
93.0304980287960888
  0
ARC
  5
11336
  8
0
 10
3954.9393331096148358
 20
196.205015161994595
 30
0.0
 40
1.3897604015
 50
87.58472551890776
 51
100.5727981623927008
  0
ARC
  5
11337
  8
0
 10
3954.8916763003139749
 20
196.7102672893946078
 30
0.0
 40
0.8428340773
 50
84.6947656633017374
 51
100.848426914897999
  0
ARC
  5
11338
  8
0
 10
3955.4951599907149102
 20
197.2476088327946115
 30
0.0
 40
0.0787401575
 50
225.0121067497946967
 51
273.4116341977002094
  0
ARC
  5
11339
  8
0
 10
3955.4556307360148821
 20
197.1112496094945925
 30
0.0
 40
0.0590551181
 50
269.999999999791612
 51
359.9999999997996838
  0
ARC
  5
1133A
  8
0
 10
3955.3521634546150381
 20
197.1932787803945928
 30
0.0
 40
0.0590551181
 50
270.0000000033090259
 51
44.9999990894077584
  0
ARC
  5
1133B
  8
0
 10
3955.3521634546150381
 20
197.1932787803945928
 30
0.0
 40
0.0393700787
 50
306.8698976463941221
 51
44.9999991193002771
  0
ARC
  5
1133C
  8
0
 10
3955.5383079013149654
 20
197.1361941478945994
 30
0.0
 40
0.0236220472
 50
180.0000000125992017
 51
270.0000000105001732
  0
ARC
  5
1133D
  8
0
 10
3954.9516937281150604
 20
197.1309346487946073
 30
0.0
 40
0.0196850394
 50
179.9999999997997122
 51
269.999999999791612
  0
ARC
  5
1133E
  8
0
 10
3955.4359456966149082
 20
197.1309346487946073
 30
0.0
 40
0.0196850394
 50
269.999999999791612
 51
359.9999999997996838
  0
ARC
  5
1133F
  8
0
 10
3955.2860218289138174
 20
197.2188452826945877
 30
0.0
 40
0.0196850394
 50
225.0000006552068896
 51
314.9999994394058831
  0
ARC
  5
11340
  8
0
 10
3955.2842819010152198
 20
197.1948342747946015
 30
0.0
 40
0.0196850394
 50
224.9999976626041871
 51
314.9999988547941143
  0
ARC
  5
11341
  8
0
 10
3955.4147265379151577
 20
197.3407785592945913
 30
0.0
 40
0.0196850394
 50
315.775789493190814
 51
44.9999995477996535
  0
ARC
  5
11342
  8
0
 10
3955.4539575077142217
 20
197.2336207962945878
 30
0.0
 40
0.0196850394
 50
224.9999978525966924
 51
359.9999974289996203
  0
ARC
  5
11343
  8
0
 10
3955.4406399480139953
 20
197.3427039986945886
 30
0.0
 40
0.0182086614
 50
315.0000001686981932
 51
45.0000010970070932
  0
ARC
  5
11344
  8
0
 10
3954.9708915627138595
 20
197.1918211857945948
 30
0.0
 40
0.0122982283
 50
263.9999998618986865
 51
0.0000026641001816
  0
ARC
  5
11345
  8
0
 10
3954.9504980168148904
 20
198.5260581110946134
 30
0.0
 40
1.3937836059999991
 50
258.9908627670876058
 51
273.0304980218035098
  0
ARC
  5
11346
  8
0
 10
3955.5584933228137743
 20
198.5575306140945884
 30
0.0
 40
1.3897604015
 50
267.5814126931501846
 51
268.1936799312093171
  0
ARC
  5
11347
  8
0
 10
3954.8917626516149539
 20
198.0188303627946027
 30
0.0
 40
0.8428424701999999
 50
259.1429847554994126
 51
275.2992860250880085
  0
ARC
  5
11348
  8
0
 10
3955.0026664419137887
 20
197.5149369432946003
 30
0.0
 40
0.0787401575
 50
45.0121067437920033
 51
93.4699493574966738
  0
ARC
  5
11349
  8
0
 10
3955.4556307360148821
 20
197.7057377983944946
 30
0.0
 40
0.0590551181
 50
0.0000001437997471
 51
89.9999999997915552
  0
ARC
  5
1134A
  8
0
 10
3955.1456629779149807
 20
197.5692669956945906
 30
0.0
 40
0.0590551181
 50
90.0000000102135971
 51
224.9999990963027869
  0
ARC
  5
1134B
  8
0
 10
3955.1456629779149807
 20
197.5692669956945906
 30
0.0
 40
0.0393700787
 50
126.8698976532967038
 51
224.9999991263001107
  0
ARC
  5
1134C
  8
0
 10
3955.5383079013149654
 20
197.6598161950946064
 30
0.0
 40
0.0236220472
 50
90.0000000120895862
 51
180.000000010899214
  0
ARC
  5
1134D
  8
0
 10
3955.0830998947149055
 20
197.4217672167945068
 30
0.0
 40
0.0196850394
 50
135.7757894861983061
 51
224.9999995409046107
  0
ARC
  5
1134E
  8
0
 10
3955.043868924914932
 20
197.5289249797945956
 30
0.0
 40
0.0196850394
 50
44.9999978455968517
 51
179.9999974219988985
  0
ARC
  5
1134F
  8
0
 10
3955.2118046036139276
 20
197.5437004933945957
 30
0.0
 40
0.0196850394
 50
45.0000006622068227
 51
134.9999994465979967
  0
ARC
  5
11350
  8
0
 10
3955.213544531514799
 20
197.5677115011945943
 30
0.0
 40
0.0196850394
 50
44.9999976697963575
 51
134.9999988617950919
  0
ARC
  5
11351
  8
0
 10
3955.0571864846137942
 20
197.4198417773945948
 30
0.0
 40
0.0182086614
 50
135.0000001618894032
 51
225.0000010900936047
  0
ARC
  5
11352
  8
0
 10
3954.9708915627138595
 20
197.5372600233945946
 30
0.0
 40
0.0122982283
 50
359.9999973352988718
 51
95.9999994105917551
  0
ARC
  5
11353
  8
0
 10
3956.6209561342138841
 20
218.2609865223946031
 30
0.0
 40
21.2317110569999983
 50
267.9259077214223908
 51
272.0740922780561277
  0
ARC
  5
11354
  8
0
 10
3955.8532545593147915
 20
197.0628722814016101
 30
0.0
 40
0.0197
 50
180.0
 51
267.9259077214223908
  0
ARC
  5
11355
  8
0
 10
3957.3886577089137973
 20
197.0628722813943909
 30
0.0
 40
0.0197
 50
272.0740922780299798
 51
0.0
  0
ARC
  5
11356
  8
0
 10
3931.5813025316851963
 20
197.5111068887468946
 30
0.0
 40
0.0088629903143653
 50
169.1069067575764109
 51
278.2617728894194897
  0
ARC
  5
11357
  8
0
 10
3919.6190261466108495
 20
197.6490151820127039
 30
0.0
 40
0.0062500926619564
 50
30.6757371377518488
 51
173.8659209065386904
  0
ENDSEC
  0
EOF
