  0
SECTION
  2
HEADER
  9
$ACADVER
  1
AC1009
  9
$INSBASE
 10
3800.6755148106440174
 20
160.5017876849771028
 30
0.0
  9
$EXTMIN
 10
3780.7842198994198952
 20
160.4933543912052016
 30
-0.0015258207003583
  9
$EXTMAX
 10
3820.3747806151041004
 20
239.3054495564182105
 30
0.0000000349246037
  9
$LIMMIN
 10
0.0
 20
0.0
  9
$LIMMAX
 10
11.6929133858000007
 20
8.2677165353999982
  9
$ORTHOMODE
 70
     0
  9
$REGENMODE
 70
     1
  9
$FILLMODE
 70
     1
  9
$QTEXTMODE
 70
     0
  9
$MIRRTEXT
 70
     0
  9
$DRAGMODE
 70
     2
  9
$LTSCALE
 40
0.6431102362
  9
$OSMODE
 70
  4095
  9
$ATTMODE
 70
     1
  9
$TEXTSIZE
 40
0.2
  9
$TRACEWID
 40
0.05
  9
$TEXTSTYLE
  7
STANDARD
  9
$CLAYER
  8
0
  9
$CELTYPE
  6
BYLAYER
  9
$CECOLOR
 62
   256
  9
$DIMSCALE
 40
1.0
  9
$DIMASZ
 40
0.1875
  9
$DIMEXO
 40
0.0625
  9
$DIMDLI
 40
0.4443307087
  9
$DIMRND
 40
0.0
  9
$DIMDLE
 40
0.0
  9
$DIMEXE
 40
0.125
  9
$DIMTP
 40
0.01
  9
$DIMTM
 40
0.01
  9
$DIMTXT
 40
2.0
  9
$DIMCEN
 40
0.1052362205
  9
$DIMTSZ
 40
0.0
  9
$DIMTOL
 70
     1
  9
$DIMLIM
 70
     0
  9
$DIMTIH
 70
     1
  9
$DIMTOH
 70
     1
  9
$DIMSE1
 70
     0
  9
$DIMSE2
 70
     0
  9
$DIMTAD
 70
     0
  9
$DIMZIN
 70
     0
  9
$DIMBLK
  1

  9
$DIMASO
 70
     1
  9
$DIMSHO
 70
     1
  9
$DIMPOST
  1
\X
  9
$DIMAPOST
  1

  9
$DIMALT
 70
     1
  9
$DIMALTD
 70
     2
  9
$DIMALTF
 40
25.3999999999999986
  9
$DIMLFAC
 40
1.0
  9
$DIMTOFL
 70
     0
  9
$DIMTVP
 40
0.0
  9
$DIMTIX
 70
     0
  9
$DIMSOXD
 70
     0
  9
$DIMSAH
 70
     0
  9
$DIMBLK1
  1

  9
$DIMBLK2
  1

  9
$DIMSTYLE
  2
STANDARD
  9
$DIMCLRD
 70
     0
  9
$DIMCLRE
 70
     0
  9
$DIMCLRT
 70
     0
  9
$DIMTFAC
 40
1.0
  9
$DIMGAP
 40
0.09
  9
$LUNITS
 70
     2
  9
$LUPREC
 70
     4
  9
$SKETCHINC
 40
0.1
  9
$FILLETRAD
 40
0.0
  9
$AUNITS
 70
     0
  9
$AUPREC
 70
     0
  9
$MENU
  1
.
  9
$ELEVATION
 40
0.0
  9
$PELEVATION
 40
0.0
  9
$THICKNESS
 40
0.0
  9
$LIMCHECK
 70
     0
  9
$BLIPMODE
 70
     0
  9
$CHAMFERA
 40
0.0
  9
$CHAMFERB
 40
0.0
  9
$SKPOLY
 70
     0
  9
$TDCREATE
 40
2458060.468368056230247
  9
$TDUPDATE
 40
2459527.7731828708201647
  9
$TDINDWG
 40
0.7295672454
  9
$TDUSRTIMER
 40
0.7295672454
  9
$USRTIMER
 70
     1
  9
$ANGBASE
 50
0.0
  9
$ANGDIR
 70
     0
  9
$PDMODE
 70
     0
  9
$PDSIZE
 40
0.3125
  9
$PLINEWID
 40
0.0
  9
$COORDS
 70
     1
  9
$SPLFRAME
 70
     0
  9
$SPLINETYPE
 70
     6
  9
$SPLINESEGS
 70
     8
  9
$ATTDIA
 70
     1
  9
$ATTREQ
 70
     1
  9
$HANDLING
 70
     1
  9
$HANDSEED
  5
10F3F
  9
$SURFTAB1
 70
     6
  9
$SURFTAB2
 70
     6
  9
$SURFTYPE
 70
     6
  9
$SURFU
 70
     6
  9
$SURFV
 70
     6
  9
$UCSNAME
  2

  9
$UCSORG
 10
0.0
 20
0.0
 30
0.0
  9
$UCSXDIR
 10
1.0
 20
0.0
 30
0.0
  9
$UCSYDIR
 10
0.0
 20
1.0
 30
0.0
  9
$PUCSNAME
  2

  9
$PUCSORG
 10
0.0
 20
0.0
 30
0.0
  9
$PUCSXDIR
 10
1.0
 20
0.0
 30
0.0
  9
$PUCSYDIR
 10
0.0
 20
1.0
 30
0.0
  9
$USERI1
 70
     0
  9
$USERI2
 70
     0
  9
$USERI3
 70
     0
  9
$USERI4
 70
     0
  9
$USERI5
 70
     0
  9
$USERR1
 40
0.0
  9
$USERR2
 40
0.0
  9
$USERR3
 40
0.0
  9
$USERR4
 40
0.0
  9
$USERR5
 40
0.0
  9
$WORLDVIEW
 70
     1
  9
$SHADEDGE
 70
     3
  9
$SHADEDIF
 70
    70
  9
$TILEMODE
 70
     1
  9
$MAXACTVP
 70
    64
  9
$PLIMCHECK
 70
     0
  9
$PEXTMIN
 10
1.0000000000000000E+20
 20
1.0000000000000000E+20
 30
1.0000000000000000E+20
  9
$PEXTMAX
 10
-1.0000000000000000E+20
 20
-1.0000000000000000E+20
 30
-1.0000000000000000E+20
  9
$PLIMMIN
 10
0.0
 20
0.0
  9
$PLIMMAX
 10
12.0
 20
9.0
  9
$UNITMODE
 70
     0
  9
$VISRETAIN
 70
     1
  9
$PLINEGEN
 70
     0
  9
$PSLTSCALE
 70
     1
  0
ENDSEC
  0
SECTION
  2
TABLES
  0
TABLE
  2
VPORT
 70
     1
  0
VPORT
  2
*ACTIVE
 70
     0
 10
0.0
 20
0.0
 11
1.0
 21
1.0
 12
156.5036945931996968
 22
39.9551614740140906
 13
0.0
 23
0.0
 14
1.0
 24
1.0
 15
0.0
 25
0.0
 16
0.0
 26
0.0
 36
26.6346482412083887
 17
3644.0758056640620453
 27
159.9442404997975871
 37
0.0
 40
79.5716383535563239
 41
2.8393393393393391
 42
50.0
 43
0.0
 44
0.0
 50
0.0
 51
0.0
 71
     0
 72
   100
 73
     1
 74
     1
 75
     0
 76
     0
 77
     0
 78
     0
  0
ENDTAB
  0
TABLE
  2
LTYPE
 70
     2
  0
LTYPE
  2
CONTINUOUS
 70
     0
  3
Solid line
 72
    65
 73
     0
 40
0.0
  0
LTYPE
  2
PHANTOM2
 70
     0
  3
___ _ _ ___ _ _ ___ _ _ ___ _ _
 72
    65
 73
     6
 40
1.25
 49
0.625
 49
-0.125
 49
0.125
 49
-0.125
 49
0.125
 49
-0.125
  0
ENDTAB
  0
TABLE
  2
LAYER
 70
     2
  0
LAYER
  2
0
 70
     0
 62
   255
  6
CONTINUOUS
  0
LAYER
  2
DEFPOINTS
 70
     0
 62
     7
  6
CONTINUOUS
  0
ENDTAB
  0
TABLE
  2
STYLE
 70
     1
  0
STYLE
  2
STANDARD
 70
     0
 40
0.0
 41
0.8
 50
0.0
 71
     0
 42
0.2
  3
txt
  4

  0
ENDTAB
  0
TABLE
  2
VIEW
 70
     0
  0
ENDTAB
  0
TABLE
  2
UCS
 70
     0
  0
ENDTAB
  0
TABLE
  2
APPID
 70
    10
  0
APPID
  2
ACAD
 70
     0
  0
APPID
  2
ACAD_MLEADERVER
 70
     0
  0
APPID
  2
ACAD_EXEMPT_FROM_CAD_STANDARDS
 70
     0
  0
APPID
  2
ACAD_NAV_VCDISPLAY
 70
     0
  0
APPID
  2
ACAECLAYERSTANDARD
 70
     0
  0
APPID
  2
ACCMTRANSPARENCY
 70
     0
  0
APPID
  2
ACAD_DSTYLE_DIMJAG
 70
     0
  0
APPID
  2
ACAD_DSTYLE_DIMTALN
 70
     0
  0
APPID
  2
ACDBATTR
 70
     0
  0
APPID
  2
ACAD_PSEXT
 70
     0
  0
ENDTAB
  0
TABLE
  2
DIMSTYLE
 70
     1
  0
DIMSTYLE
  2
STANDARD
 70
     0
  3

  4

  5

  6

  7

 40
1.0
 41
0.1875
 42
0.0625
 43
0.38
 44
0.125
 45
0.0
 46
0.0
 47
0.01
 48
0.01
140
0.15625
141
0.09
142
0.0
143
25.3999999999999986
144
1.0
145
0.0
146
1.0
147
0.09
 71
     1
 72
     0
 73
     1
 74
     1
 75
     0
 76
     0
 77
     0
 78
     4
170
     0
171
     2
172
     0
173
     0
174
     0
175
     0
176
     0
177
     0
178
     0
  0
ENDTAB
  0
ENDSEC
  0
SECTION
  2
BLOCKS
  0
BLOCK
  8
0
  2
$MODEL_SPACE
 70
     0
 10
0.0
 20
0.0
 30
0.0
  3
$MODEL_SPACE
  1

  0
ENDBLK
  5
21
  8
0
  0
BLOCK
 67
     1
  8
0
  2
$PAPER_SPACE
 70
     0
 10
0.0
 20
0.0
 30
0.0
  3
$PAPER_SPACE
  1

  0
ENDBLK
  5
1D
 67
     1
  8
0
  0
ENDSEC
  0
SECTION
  2
ENTITIES
  0
ATTDEF
  5
AA11
  8
DEFPOINTS
 10
3800.6719057630070893
 20
160.5059918827620891
 30
0.0
 40
0.001
  1
K-1.1922.003
  3

  2
MODELNUMBER
 70
     0
1001
ACDBATTR
1070
     0
1070
     1
  0
ATTDEF
  5
AA12
  8
DEFPOINTS
 10
3800.6719057630070893
 20
160.5043252160955092
 30
0.0
 40
0.001
  1

  3

  2
TRADENAME
 70
     0
1001
ACDBATTR
1070
     0
1070
     1
  0
ATTDEF
  5
AA13
  8
DEFPOINTS
 10
3800.6719057630070893
 20
160.5026585494287872
 30
0.0
 40
0.001
  1
SHOWER DOOR
  3

  2
PRODUCT
 70
     0
1001
ACDBATTR
1070
     0
1070
     1
  0
LINE
  5
10D2D
  8
0
 10
3820.36073528307179
 20
160.5017876849771028
 30
0.0
 11
3780.9902943382171543
 21
160.5017876849771028
 31
0.0
  0
LINE
  5
10D2E
  8
0
 10
3794.7689793776171427
 20
161.0962758738770049
 30
0.0
 11
3817.3646092988719829
 21
161.0962758738770049
 31
0.0
  0
LINE
  5
10D2F
  8
0
 10
3794.7689793776171427
 20
161.0962758739771061
 30
0.0
 11
3782.5650974879181376
 21
161.0962758739771061
 31
0.0
  0
LINE
  5
10D30
  8
0
 10
3782.5650974879181376
 20
161.1041498896771031
 30
0.0
 11
3794.7689793776171427
 21
161.1041498896771031
 31
0.0
  0
LINE
  5
10D31
  8
0
 10
3794.5248848894179901
 20
161.1317089447771025
 30
0.0
 11
3794.7689815941171219
 21
161.1317089447771025
 31
0.0
  0
LINE
  5
10D32
  8
0
 10
3794.7689793776171427
 20
161.1907640628770082
 30
0.0
 11
3817.3646092988719829
 21
161.1907640628770082
 31
0.0
  0
LINE
  5
10D33
  8
0
 10
3817.3646092988719829
 20
161.2498191809771129
 30
0.0
 11
3794.9618927634169268
 21
161.2498191809771129
 31
0.0
  0
LINE
  5
10D34
  8
0
 10
3817.3646092988719829
 20
161.2576931967770975
 30
0.0
 11
3818.4472864641720662
 21
161.2576931967770975
 31
0.0
  0
LINE
  5
10D35
  8
0
 10
3818.3685853338720335
 20
161.5293467400771021
 30
0.0
 11
3794.9618927634169268
 21
161.5293467400771021
 31
0.0
  0
LINE
  5
10D36
  8
0
 10
3817.6205148106719207
 20
161.5450947715769985
 30
0.0
 11
3818.3685853338720335
 21
161.5450947715769985
 31
0.0
  0
LINE
  5
10D37
  8
0
 10
3817.6205148106719207
 20
161.8010002833771068
 30
0.0
 11
3794.9618927634169268
 21
161.8010002833769931
 31
0.0
  0
LINE
  5
10D38
  8
0
 10
3799.5977195351179034
 20
172.3718664250770871
 30
0.0
 11
3794.9618927634169268
 21
172.3718664250770871
 31
0.0
  0
LINE
  5
10D39
  8
0
 10
3794.7847274091182044
 20
172.3718664250770871
 30
0.0
 11
3790.1489006375168174
 21
172.3718664250770871
 31
0.0
  0
LINE
  5
10D3A
  8
0
 10
3793.9185856768172016
 20
172.9407640628770082
 30
0.0
 11
3794.7847274091182044
 21
172.9407640628770082
 31
0.0
  0
LINE
  5
10D3B
  8
0
 10
3794.5779084572168358
 20
172.9427325668771118
 30
0.0
 11
3794.0465539378178619
 21
172.9427325668771118
 31
0.0
  0
LINE
  5
10D3C
  8
0
 10
3793.9185856768172016
 20
172.9427325668771118
 30
0.0
 11
3794.0465600853171964
 21
172.9427325668771118
 31
0.0
  0
LINE
  5
10D3D
  8
0
 10
3794.5778670534177763
 20
172.9427325668771118
 30
0.0
 11
3794.7256722910169628
 21
172.9427325668771118
 31
0.0
  0
LINE
  5
10D3E
  8
0
 10
3793.9894518186169989
 20
172.9486380786771065
 30
0.0
 11
3793.9185856768172016
 21
172.9486380786771065
 31
0.0
  0
LINE
  5
10D3F
  8
0
 10
3793.9973258343170528
 20
172.9821026455771005
 30
0.0
 11
3794.9618927634169268
 21
172.9821026455771005
 31
0.0
  0
LINE
  5
10D40
  8
0
 10
3793.9973258343170528
 20
173.9269845353769881
 30
0.0
 11
3794.9618927634169268
 21
173.9269845353769881
 31
0.0
  0
LINE
  5
10D41
  8
0
 10
3794.0170108737170267
 20
173.9387955589770911
 30
0.0
 11
3794.6075620548172083
 21
173.9387955589770911
 31
0.0
  0
LINE
  5
10D42
  8
0
 10
3793.9894518186169989
 20
173.9447010707771142
 30
0.0
 11
3793.9185856768172016
 21
173.9447010707771142
 31
0.0
  0
LINE
  5
10D43
  8
0
 10
3794.6075620548172083
 20
173.9545435904771011
 30
0.0
 11
3794.0170108737170267
 21
173.9545435904771011
 31
0.0
  0
LINE
  5
10D44
  8
0
 10
3793.9185856768172016
 20
173.9643861101770881
 30
0.0
 11
3793.9894518186169989
 21
173.9643861101770881
 31
0.0
  0
LINE
  5
10D45
  8
0
 10
3794.7256722910169628
 20
173.9663546140770904
 30
0.0
 11
3794.5780677125171678
 21
173.9663546140770904
 31
0.0
  0
LINE
  5
10D46
  8
0
 10
3794.5780677125171678
 20
173.9663546140770904
 30
0.0
 11
3794.0465618542170887
 21
173.9663546140770904
 31
0.0
  0
LINE
  5
10D47
  8
0
 10
3793.9185856768172016
 20
173.9663546140770904
 30
0.0
 11
3794.0465618542170887
 21
173.9663546140770904
 31
0.0
  0
LINE
  5
10D48
  8
0
 10
3794.7847274091182044
 20
173.9683231180771088
 30
0.0
 11
3793.9185856768172016
 21
173.9683231180771088
 31
0.0
  0
LINE
  5
10D49
  8
0
 10
3790.1489006375168174
 20
174.5372207557770139
 30
0.0
 11
3794.7847274091182044
 21
174.5372207557770139
 31
0.0
  0
LINE
  5
10D4A
  8
0
 10
3794.9618927634169268
 20
174.5372207557770139
 30
0.0
 11
3799.5977195351179034
 21
174.5372207557770139
 31
0.0
  0
LINE
  5
10D4B
  8
0
 10
3780.9902943382171543
 20
160.5017876849771028
 30
0.0
 11
3780.9902943382171543
 21
239.2222601258771135
 31
0.0
  0
LINE
  5
10D4C
  8
0
 10
3780.9902943382171543
 20
239.2222601258771135
 30
0.0
 11
3780.9902943382171543
 21
239.3010002833771068
 31
0.0
  0
LINE
  5
10D4D
  8
0
 10
3781.0021053619170743
 20
239.2222601258771135
 30
0.0
 11
3781.0021053619170743
 21
239.2813002833771066
 31
0.0
  0
LINE
  5
10D4E
  8
0
 10
3782.5650974879181376
 20
239.2813002833771066
 30
0.0
 11
3782.5650974879181376
 21
160.5017876849771028
 31
0.0
  0
LINE
  5
10D4F
  8
0
 10
3782.5847825272171576
 20
238.6198979211771132
 30
0.0
 11
3782.5847825272171576
 21
239.2222601258771135
 31
0.0
  0
LINE
  5
10D50
  8
0
 10
3787.7028927634169122
 20
239.2222601258771135
 30
0.0
 11
3787.7028927634169122
 21
238.6198979211771132
 31
0.0
  0
LINE
  5
10D51
  8
0
 10
3789.9520502438172116
 20
172.5687168187770908
 30
0.0
 11
3789.9520502438172116
 21
174.3403703620770955
 31
0.0
  0
LINE
  5
10D52
  8
0
 10
3789.9520502438172116
 20
226.3876144565770971
 30
0.0
 11
3789.9520502438172116
 21
228.1592679998771018
 31
0.0
  0
LINE
  5
10D53
  8
0
 10
3793.9185856768172016
 20
227.7872207557770992
 30
0.0
 11
3793.9185856768172016
 21
226.7596617006770998
 31
0.0
  0
LINE
  5
10D54
  8
0
 10
3793.9185856768172016
 20
172.9683231180771088
 30
0.0
 11
3793.9185856768172016
 21
173.9447010707771142
 31
0.0
  0
LINE
  5
10D55
  8
0
 10
3793.9185856768172016
 20
173.9683231180771088
 30
0.0
 11
3793.9185856768172016
 21
172.9407640628770082
 31
0.0
  0
LINE
  5
10D56
  8
0
 10
3793.9185856768172016
 20
226.7872207557770992
 30
0.0
 11
3793.9185856768172016
 21
227.7635987085770921
 31
0.0
  0
LINE
  5
10D57
  8
0
 10
3793.9579557556180589
 20
227.7872207557770992
 30
0.0
 11
3793.9579557556180589
 21
227.7852522518770968
 31
0.0
  0
LINE
  5
10D58
  8
0
 10
3793.9579557556180589
 20
226.7616302046770898
 30
0.0
 11
3793.9579557556180589
 21
226.7596617006770998
 31
0.0
  0
LINE
  5
10D59
  8
0
 10
3793.9579557556180589
 20
173.9683231180771088
 30
0.0
 11
3793.9579557556180589
 21
173.9663546140770904
 31
0.0
  0
LINE
  5
10D5A
  8
0
 10
3793.9579557556180589
 20
172.9427325668771118
 30
0.0
 11
3793.9579557556180589
 21
172.9407640628770082
 31
0.0
  0
LINE
  5
10D5B
  8
0
 10
3793.9894518186169989
 20
172.9486380786771065
 30
0.0
 11
3793.9894518186169989
 21
173.9643861101770881
 31
0.0
  0
LINE
  5
10D5C
  8
0
 10
3793.9894518186169989
 20
226.7675357164771128
 30
0.0
 11
3793.9894518186169989
 21
227.7832837479770092
 31
0.0
  0
LINE
  5
10D5D
  8
0
 10
3793.9973258343170528
 20
172.9821026455771005
 30
0.0
 11
3793.9973258343170528
 21
173.9269845353769881
 31
0.0
  0
LINE
  5
10D5E
  8
0
 10
3793.9973258343170528
 20
226.8010002833771068
 30
0.0
 11
3793.9973258343170528
 21
227.7458821731771081
 31
0.0
  0
LINE
  5
10D5F
  8
0
 10
3794.0170108737170267
 20
227.7734412282771075
 30
0.0
 11
3794.0170108737170267
 21
227.7576931967770975
 31
0.0
  0
LINE
  5
10D60
  8
0
 10
3794.0170108737170267
 20
172.9545435904771011
 30
0.0
 11
3794.0170108737170267
 21
172.9702916219769975
 31
0.0
  0
LINE
  5
10D61
  8
0
 10
3794.0170108737170267
 20
173.9545435904771011
 30
0.0
 11
3794.0170108737170267
 21
173.9387955589770911
 31
0.0
  0
LINE
  5
10D62
  8
0
 10
3794.0170108737170267
 20
226.7734412282771075
 30
0.0
 11
3794.0170108737170267
 21
226.7891892597770038
 31
0.0
  0
LINE
  5
10D63
  8
0
 10
3794.1668301398171934
 20
172.9407640628770082
 30
0.0
 11
3794.1668301398171934
 21
172.9427325668771118
 31
0.0
  0
LINE
  5
10D64
  8
0
 10
3794.1668301398171934
 20
226.7596617006770998
 30
0.0
 11
3794.1668301398171934
 21
226.7616302046770898
 31
0.0
  0
LINE
  5
10D65
  8
0
 10
3794.178641163417069
 20
226.7616302046770898
 30
0.0
 11
3794.178641163417069
 21
226.7596617006770998
 31
0.0
  0
LINE
  5
10D66
  8
0
 10
3794.178641163417069
 20
172.9427325668771118
 30
0.0
 11
3794.178641163417069
 21
172.9407640628770082
 31
0.0
  0
LINE
  5
10D67
  8
0
 10
3794.1893534328169153
 20
226.7616302046770898
 30
0.0
 11
3794.1893534328169153
 21
226.7596617006770998
 31
0.0
  0
LINE
  5
10D68
  8
0
 10
3794.1893534328169153
 20
172.9427325668771118
 30
0.0
 11
3794.1893534328169153
 21
172.9407640628770082
 31
0.0
  0
LINE
  5
10D69
  8
0
 10
3794.2154488747169125
 20
173.9663546140770904
 30
0.0
 11
3794.2154488747169125
 21
173.9683231180771088
 31
0.0
  0
LINE
  5
10D6A
  8
0
 10
3794.2154488747169125
 20
227.7852522518770968
 30
0.0
 11
3794.2154488747169125
 21
227.7872207557770992
 31
0.0
  0
LINE
  5
10D6B
  8
0
 10
3794.2272598983167882
 20
227.7872207557770992
 30
0.0
 11
3794.2272598983167882
 21
227.7852522518770968
 31
0.0
  0
LINE
  5
10D6C
  8
0
 10
3794.2272598983167882
 20
173.9683231180771088
 30
0.0
 11
3794.2272598983167882
 21
173.9663546140770904
 31
0.0
  0
LINE
  5
10D6D
  8
0
 10
3794.2335463068170611
 20
227.7458821731771081
 30
0.0
 11
3794.2335463068170611
 21
226.8010002833771068
 31
0.0
  0
LINE
  5
10D6E
  8
0
 10
3794.2335463068170611
 20
173.9269845353769881
 30
0.0
 11
3794.2335463068170611
 21
172.9821026455771005
 31
0.0
  0
LINE
  5
10D6F
  8
0
 10
3794.246998574717054
 20
227.7872207557770992
 30
0.0
 11
3794.246998574717054
 21
227.7852522518770968
 31
0.0
  0
LINE
  5
10D70
  8
0
 10
3794.246998574717054
 20
173.9683231180771088
 30
0.0
 11
3794.246998574717054
 21
173.9663546140770904
 31
0.0
  0
LINE
  5
10D71
  8
0
 10
3794.3775743538180905
 20
173.9663546140770904
 30
0.0
 11
3794.3775743538180905
 21
173.9683231180771088
 31
0.0
  0
LINE
  5
10D72
  8
0
 10
3794.3775743538180905
 20
227.7852522518770968
 30
0.0
 11
3794.3775743538180905
 21
227.7872207557770992
 31
0.0
  0
LINE
  5
10D73
  8
0
 10
3794.397313030216992
 20
227.7872207557770992
 30
0.0
 11
3794.397313030216992
 21
227.7852522518770968
 31
0.0
  0
LINE
  5
10D74
  8
0
 10
3794.397313030216992
 20
173.9683231180771088
 30
0.0
 11
3794.397313030216992
 21
173.9663546140770904
 31
0.0
  0
LINE
  5
10D75
  8
0
 10
3794.4091240538168677
 20
227.7872207557770992
 30
0.0
 11
3794.4091240538168677
 21
227.7852522518770968
 31
0.0
  0
LINE
  5
10D76
  8
0
 10
3794.4091240538168677
 20
173.9683231180771088
 30
0.0
 11
3794.4091240538168677
 21
173.9663546140770904
 31
0.0
  0
LINE
  5
10D77
  8
0
 10
3794.4352194957177744
 20
172.9407640628770082
 30
0.0
 11
3794.4352194957177744
 21
172.9427325668771118
 31
0.0
  0
LINE
  5
10D78
  8
0
 10
3794.4352194957177744
 20
226.7596617006770998
 30
0.0
 11
3794.4352194957177744
 21
226.7616302046770898
 31
0.0
  0
LINE
  5
10D79
  8
0
 10
3794.4459317650171215
 20
226.7616302046770898
 30
0.0
 11
3794.4459317650171215
 21
226.7596617006770998
 31
0.0
  0
LINE
  5
10D7A
  8
0
 10
3794.4459317650171215
 20
172.9427325668771118
 30
0.0
 11
3794.4459317650171215
 21
172.9407640628770082
 31
0.0
  0
LINE
  5
10D7B
  8
0
 10
3794.4577427887170415
 20
226.7616302046770898
 30
0.0
 11
3794.4577427887170415
 21
226.7596617006770998
 31
0.0
  0
LINE
  5
10D7C
  8
0
 10
3794.4577427887170415
 20
172.9427325668771118
 30
0.0
 11
3794.4577427887170415
 21
172.9407640628770082
 31
0.0
  0
LINE
  5
10D7D
  8
0
 10
3794.5248848894179901
 20
161.1317089447771025
 30
0.0
 11
3794.5248848894179901
 21
172.3718664250770871
 31
0.0
  0
LINE
  5
10D7E
  8
0
 10
3794.5248848894179901
 20
174.5372207557770139
 30
0.0
 11
3794.5248848894179901
 21
226.1907640628770935
 31
0.0
  0
LINE
  5
10D7F
  8
0
 10
3794.5248848894179901
 20
228.3561183935771055
 30
0.0
 11
3794.5248848894179901
 21
239.0450947715771122
 31
0.0
  0
LINE
  5
10D80
  8
0
 10
3794.6075620548172083
 20
227.7734412282771075
 30
0.0
 11
3794.6075620548172083
 21
227.7576931967770975
 31
0.0
  0
LINE
  5
10D81
  8
0
 10
3794.6075620548172083
 20
172.9545435904771011
 30
0.0
 11
3794.6075620548172083
 21
172.9702916219769975
 31
0.0
  0
LINE
  5
10D82
  8
0
 10
3794.6075620548172083
 20
173.9545435904771011
 30
0.0
 11
3794.6075620548172083
 21
173.9387955589770911
 31
0.0
  0
LINE
  5
10D83
  8
0
 10
3794.6075620548172083
 20
226.7734412282771075
 30
0.0
 11
3794.6075620548172083
 21
226.7891892597770038
 31
0.0
  0
LINE
  5
10D84
  8
0
 10
3794.686302212317969
 20
161.1041498896771031
 30
0.0
 11
3794.686302212317969
 21
161.1317089447771025
 31
0.0
  0
LINE
  5
10D85
  8
0
 10
3794.7034163854182225
 20
173.9269845353769881
 30
0.0
 11
3794.7034163854182225
 21
173.9663546140770904
 31
0.0
  0
LINE
  5
10D86
  8
0
 10
3794.7034163854182225
 20
227.7458821731771081
 30
0.0
 11
3794.7034163854182225
 21
227.7852522518770968
 31
0.0
  0
LINE
  5
10D87
  8
0
 10
3794.7256722910169628
 20
227.7872207557770992
 30
0.0
 11
3794.7256722910169628
 21
227.7852522518770968
 31
0.0
  0
LINE
  5
10D88
  8
0
 10
3794.7256722910169628
 20
226.7616302046770898
 30
0.0
 11
3794.7256722910169628
 21
226.7596617006770998
 31
0.0
  0
LINE
  5
10D89
  8
0
 10
3794.7256722910169628
 20
172.9427325668771118
 30
0.0
 11
3794.7256722910169628
 21
172.9821026455771005
 31
0.0
  0
LINE
  5
10D8A
  8
0
 10
3794.7256722910169628
 20
173.9269845353769881
 30
0.0
 11
3794.7256722910169628
 21
173.9663546140770904
 31
0.0
  0
LINE
  5
10D8B
  8
0
 10
3794.7256722910169628
 20
173.9683231180771088
 30
0.0
 11
3794.7256722910169628
 21
173.9663546140770904
 31
0.0
  0
LINE
  5
10D8C
  8
0
 10
3794.7256722910169628
 20
172.9427325668771118
 30
0.0
 11
3794.7256722910169628
 21
172.9407640628770082
 31
0.0
  0
LINE
  5
10D8D
  8
0
 10
3794.7256722910169628
 20
226.7616302046770898
 30
0.0
 11
3794.7256722910169628
 21
226.8010002833771068
 31
0.0
  0
LINE
  5
10D8E
  8
0
 10
3794.7256722910169628
 20
227.7458821731771081
 30
0.0
 11
3794.7256722910169628
 21
227.7852522518770968
 31
0.0
  0
LINE
  5
10D8F
  8
0
 10
3794.7662706000178332
 20
172.9407640628770082
 30
0.0
 11
3794.7662705786169681
 21
172.9821026455771005
 31
0.0
  0
LINE
  5
10D90
  8
0
 10
3794.7662700886171478
 20
173.9269845353769881
 30
0.0
 11
3794.7662700672181018
 21
173.9683231180771088
 31
0.0
  0
LINE
  5
10D91
  8
0
 10
3794.7662707919171226
 20
226.7596617006770998
 30
0.0
 11
3794.7662707919171226
 21
226.8010002833771068
 31
0.0
  0
LINE
  5
10D92
  8
0
 10
3794.7662707907170443
 20
227.7458821731771081
 30
0.0
 11
3794.7662707906169999
 21
227.7872207557770992
 31
0.0
  0
LINE
  5
10D93
  8
0
 10
3794.7689793776171427
 20
239.0450947715771122
 30
0.0
 11
3794.7689793776171427
 21
228.3561183935771055
 31
0.0
  0
LINE
  5
10D94
  8
0
 10
3794.7689793776171427
 20
227.7872207557770992
 30
0.0
 11
3794.7689793776171427
 21
227.7458821731771081
 31
0.0
  0
LINE
  5
10D95
  8
0
 10
3794.7689793776171427
 20
226.1907640628770935
 30
0.0
 11
3794.7689793776171427
 21
174.5372207557770139
 31
0.0
  0
LINE
  5
10D96
  8
0
 10
3794.7689793776171427
 20
173.9683231180771088
 30
0.0
 11
3794.7689793776171427
 21
173.9269845353769881
 31
0.0
  0
LINE
  5
10D97
  8
0
 10
3794.7689793776171427
 20
172.3718664250770871
 30
0.0
 11
3794.7689793776171427
 21
161.1907640628770082
 31
0.0
  0
LINE
  5
10D98
  8
0
 10
3794.7689793776171427
 20
161.1907640628770082
 30
0.0
 11
3794.7689793776171427
 21
161.0962758738770049
 31
0.0
  0
LINE
  5
10D99
  8
0
 10
3794.7847274091182044
 20
172.3718664250770871
 30
0.0
 11
3794.7847274091182044
 21
172.9407640628770082
 31
0.0
  0
LINE
  5
10D9A
  8
0
 10
3794.7847274091182044
 20
173.9683231180771088
 30
0.0
 11
3794.7847274091182044
 21
174.5372207557770139
 31
0.0
  0
LINE
  5
10D9B
  8
0
 10
3794.7847274091182044
 20
226.1907640628770935
 30
0.0
 11
3794.7847274091182044
 21
226.7596617006770998
 31
0.0
  0
LINE
  5
10D9C
  8
0
 10
3794.7847274091182044
 20
227.7872207557770992
 30
0.0
 11
3794.7847274091182044
 21
228.3561183935771055
 31
0.0
  0
LINE
  5
10D9D
  8
0
 10
3794.9599242595181749
 20
239.0844648502771008
 30
0.0
 11
3794.9599242595181749
 21
227.7458821731771081
 31
0.0
  0
LINE
  5
10D9E
  8
0
 10
3794.9618927634169268
 20
172.9821026455771005
 30
0.0
 11
3794.9618927634169268
 21
161.1907640628770935
 31
0.0
  0
LINE
  5
10D9F
  8
0
 10
3794.9618927634169268
 20
173.9269845353769881
 30
0.0
 11
3794.9618927634169268
 21
226.8010002833771068
 31
0.0
  0
LINE
  5
10DA0
  8
0
 10
3795.0603179603172066
 20
161.1907640628770082
 30
0.0
 11
3795.0603179603172066
 21
161.2498191809771129
 31
0.0
  0
LINE
  5
10DA1
  8
0
 10
3815.2189746531730634
 20
194.655343511676989
 30
0.0
 11
3815.9275762279721675
 21
194.655343511676989
 31
0.0
  0
LINE
  5
10DA2
  8
0
 10
3799.7945699288170545
 20
228.1592679998771018
 30
0.0
 11
3799.7945699288170545
 21
226.3876144565770971
 31
0.0
  0
LINE
  5
10DA3
  8
0
 10
3799.7945699288170545
 20
174.3403703620770955
 30
0.0
 11
3799.7945699288170545
 21
172.5687168187770908
 31
0.0
  0
LINE
  5
10DA4
  8
0
 10
3815.9275762279721675
 20
205.9939261888771114
 30
0.0
 11
3815.2189746531730634
 21
205.9939261888771114
 31
0.0
  0
ARC
  5
10DA5
  8
0
 10
3815.2189746531730634
 20
205.9545261888771108
 30
0.0
 40
0.0394
 50
90.0
 51
180.0
  0
LINE
  5
10DA6
  8
0
 10
3815.1795746531720397
 20
194.6947435116769896
 30
0.0
 11
3815.1795746531720397
 21
205.9545261888771108
 31
0.0
  0
ARC
  5
10DA7
  8
0
 10
3815.2189746531730634
 20
194.6947435116769896
 30
0.0
 40
0.0394
 50
180.0
 51
270.0
  0
LINE
  5
10DA8
  8
0
 10
3815.9669762279731913
 20
194.6947435116769896
 30
0.0
 11
3815.9669762279731913
 21
205.9545261888771108
 31
0.0
  0
ARC
  5
10DA9
  8
0
 10
3815.9275762279721675
 20
194.6947435116769896
 30
0.0
 40
0.0394
 50
270.0
 51
0.0
  0
ARC
  5
10DAA
  8
0
 10
3815.9275762279721675
 20
205.9545261888771108
 30
0.0
 40
0.0394
 50
0.0
 51
90.0
  0
LINE
  5
10DAB
  8
0
 10
3817.3646092988719829
 20
161.2576931967770975
 30
0.0
 11
3817.3646092988719829
 21
160.5017876849771028
 31
0.0
  0
LINE
  5
10DAC
  8
0
 10
3817.6204655980718599
 20
161.8010002833771068
 30
0.0
 11
3817.6204655980718599
 21
239.0647798109770861
 31
0.0
  0
LINE
  5
10DAD
  8
0
 10
3817.6205148106719207
 20
161.5450947715769985
 30
0.0
 11
3817.6205148106719207
 21
161.8010002833771068
 31
0.0
  0
LINE
  5
10DAE
  8
0
 10
3817.9354754405721906
 20
239.0844648502771008
 30
0.0
 11
3817.9354754405721906
 21
239.0647798109770861
 31
0.0
  0
LINE
  5
10DAF
  8
0
 10
3818.3685853338720335
 20
161.5293467400771021
 30
0.0
 11
3818.3685853338720335
 21
239.0647798109770861
 31
0.0
  0
LINE
  5
10DB0
  8
0
 10
3818.3917679408718868
 20
161.2576931967770975
 30
0.0
 11
3818.3917679408718868
 21
239.0647798109770861
 31
0.0
  0
LINE
  5
10DB1
  8
0
 10
3818.4669715035729496
 20
239.1001979211771129
 30
0.0
 11
3818.4669715035729496
 21
161.2380081573770099
 31
0.0
  0
LINE
  5
10DB2
  8
0
 10
3818.4669715035729496
 20
161.2380081573770099
 30
0.0
 11
3818.4669715035729496
 21
160.5017876849771028
 31
0.0
  0
LINE
  5
10DB3
  8
0
 10
3818.7859321334722154
 20
160.5017876849771028
 30
0.0
 11
3818.7859321334722154
 21
239.1631900471770962
 31
0.0
  0
LINE
  5
10DB4
  8
0
 10
3820.36073528307179
 20
239.1631900471770962
 30
0.0
 11
3820.36073528307179
 21
160.5017876849771028
 31
0.0
  0
ARC
  5
10DB5
  8
0
 10
3820.3410352830719603
 20
239.1631900471770962
 30
0.0
 40
0.0197
 50
0.0
 51
90.0
  0
LINE
  5
10DB6
  8
0
 10
3799.5977195351179034
 20
226.1907640628770935
 30
0.0
 11
3794.9618927634169268
 21
226.1907640628770935
 31
0.0
  0
LINE
  5
10DB7
  8
0
 10
3794.7847274091182044
 20
226.1907640628770935
 30
0.0
 11
3790.1489006375168174
 21
226.1907640628770935
 31
0.0
  0
LINE
  5
10DB8
  8
0
 10
3793.9185856768172016
 20
226.7596617006770998
 30
0.0
 11
3794.7847274091182044
 21
226.7596617006770998
 31
0.0
  0
LINE
  5
10DB9
  8
0
 10
3794.5779084572168358
 20
226.7616302046770898
 30
0.0
 11
3794.0465539378178619
 21
226.7616302046770898
 31
0.0
  0
LINE
  5
10DBA
  8
0
 10
3793.9185856768172016
 20
226.7616302046770898
 30
0.0
 11
3794.0465600853171964
 21
226.7616302046770898
 31
0.0
  0
LINE
  5
10DBB
  8
0
 10
3794.5778670534177763
 20
226.7616302046770898
 30
0.0
 11
3794.7256722910169628
 21
226.7616302046770898
 31
0.0
  0
LINE
  5
10DBC
  8
0
 10
3793.9894518186169989
 20
226.7675357164771128
 30
0.0
 11
3793.9185856768172016
 21
226.7675357164771128
 31
0.0
  0
LINE
  5
10DBD
  8
0
 10
3793.9973258343170528
 20
226.8010002833771068
 30
0.0
 11
3794.9618927634169268
 21
226.8010002833771068
 31
0.0
  0
LINE
  5
10DBE
  8
0
 10
3793.9973258343170528
 20
227.7458821731771081
 30
0.0
 11
3794.9618927634169268
 21
227.7458821731771081
 31
0.0
  0
LINE
  5
10DBF
  8
0
 10
3794.0170108737170267
 20
227.7576931967770975
 30
0.0
 11
3794.6075620548172083
 21
227.7576931967770975
 31
0.0
  0
LINE
  5
10DC0
  8
0
 10
3793.9894518186169989
 20
227.7635987085770921
 30
0.0
 11
3793.9185856768172016
 21
227.7635987085770921
 31
0.0
  0
LINE
  5
10DC1
  8
0
 10
3794.6075620548172083
 20
227.7734412282771075
 30
0.0
 11
3794.0170108737170267
 21
227.7734412282771075
 31
0.0
  0
LINE
  5
10DC2
  8
0
 10
3793.9185856768172016
 20
227.7832837479770092
 30
0.0
 11
3793.9894518186169989
 21
227.7832837479770092
 31
0.0
  0
LINE
  5
10DC3
  8
0
 10
3794.7256722910169628
 20
227.7852522518770968
 30
0.0
 11
3794.5780677125171678
 21
227.7852522518770968
 31
0.0
  0
LINE
  5
10DC4
  8
0
 10
3794.5780677125171678
 20
227.7852522518770968
 30
0.0
 11
3794.0465618542170887
 21
227.7852522518770968
 31
0.0
  0
LINE
  5
10DC5
  8
0
 10
3793.9185856768172016
 20
227.7852522518770968
 30
0.0
 11
3794.0465618542170887
 21
227.7852522518770968
 31
0.0
  0
LINE
  5
10DC6
  8
0
 10
3794.7847274091182044
 20
227.7872207557770992
 30
0.0
 11
3793.9185856768172016
 21
227.7872207557770992
 31
0.0
  0
LINE
  5
10DC7
  8
0
 10
3790.1489006375168174
 20
228.3561183935771055
 30
0.0
 11
3794.7847274091182044
 21
228.3561183935771055
 31
0.0
  0
LINE
  5
10DC8
  8
0
 10
3794.9618927634169268
 20
228.3561183935771055
 30
0.0
 11
3799.5977195351179034
 21
228.3561183935771055
 31
0.0
  0
LINE
  5
10DC9
  8
0
 10
3787.6241526060171054
 20
238.5411577636770915
 30
0.0
 11
3782.6635226847179183
 21
238.5411577636770915
 31
0.0
  0
LINE
  5
10DCA
  8
0
 10
3794.5248848894179901
 20
239.0057246928770951
 30
0.0
 11
3787.7028927634169122
 21
239.0057246928770951
 31
0.0
  0
LINE
  5
10DCB
  8
0
 10
3782.5847825272171576
 20
239.0057246928770951
 30
0.0
 11
3782.5650974879181376
 21
239.0057246928770951
 31
0.0
  0
LINE
  5
10DCC
  8
0
 10
3794.9599242595181749
 20
239.0450947715771122
 30
0.0
 11
3787.7028927634169122
 21
239.0450947715771122
 31
0.0
  0
LINE
  5
10DCD
  8
0
 10
3782.5847825272171576
 20
239.0450947715771122
 30
0.0
 11
3782.5650974879181376
 21
239.0450947715771122
 31
0.0
  0
LINE
  5
10DCE
  8
0
 10
3817.6204655980718599
 20
239.0647798109770861
 30
0.0
 11
3818.4669715035729496
 21
239.0647798109770861
 31
0.0
  0
LINE
  5
10DCF
  8
0
 10
3817.9354754405721906
 20
239.0844648502771008
 30
0.0
 11
3794.9599242595181749
 21
239.0844648502771008
 31
0.0
  0
LINE
  5
10DD0
  8
0
 10
3818.4866715035727793
 20
239.1198979211771132
 30
0.0
 11
3818.7859321334722154
 21
239.1198979211771132
 31
0.0
  0
ARC
  5
10DD1
  8
0
 10
3818.4866715035727793
 20
239.1001979211771129
 30
0.0
 40
0.0197
 50
90.0
 51
180.0
  0
LINE
  5
10DD2
  8
0
 10
3820.3410352830719603
 20
239.1828900471770964
 30
0.0
 11
3818.8056321334720451
 21
239.1828900471770964
 31
0.0
  0
ARC
  5
10DD3
  8
0
 10
3818.8056321334720451
 20
239.1631900471770962
 30
0.0
 40
0.0197
 50
90.0
 51
180.0
  0
LINE
  5
10DD4
  8
0
 10
3781.0119329988169738
 20
239.2222601258771135
 30
0.0
 11
3782.5650974879181376
 21
239.2222601258771135
 31
0.0
  0
LINE
  5
10DD5
  8
0
 10
3782.5650974879181376
 20
239.2222601258771135
 30
0.0
 11
3780.9902943382171543
 21
239.2222601258771135
 31
0.0
  0
LINE
  5
10DD6
  8
0
 10
3780.9902943382171543
 20
239.3010002833771068
 30
0.0
 11
3787.6241526060171054
 21
239.3010002833771068
 31
0.0
  0
ARC
  5
10DD7
  8
0
 10
3781.0218053619178136
 20
239.2813002833771066
 30
0.0
 40
0.0197
 50
90.0
 51
180.0
  0
ARC
  5
10DD8
  8
0
 10
3782.5453974879169436
 20
239.2813002833771066
 30
0.0
 40
0.0197
 50
0.0
 51
90.0
  0
ARC
  5
10DD9
  8
0
 10
3790.1489006375168174
 20
174.3403703620770955
 30
0.0
 40
0.1968503937
 50
90.0
 51
180.0
  0
ARC
  5
10DDA
  8
0
 10
3790.1489006375168174
 20
172.5687168187770908
 30
0.0
 40
0.1968503937
 50
180.0
 51
270.0
  0
ARC
  5
10DDB
  8
0
 10
3794.5957510312177874
 20
172.9545435904771011
 30
0.0
 40
0.0118110236
 50
270.0
 51
0.0
  0
ARC
  5
10DDC
  8
0
 10
3794.0288218973169023
 20
172.9545435904771011
 30
0.0
 40
0.0118110236
 50
180.0
 51
270.0
  0
ARC
  5
10DDD
  8
0
 10
3794.5957510312177874
 20
172.9702916219769975
 30
0.0
 40
0.0118110236
 50
0.0
 51
90.0
  0
ARC
  5
10DDE
  8
0
 10
3794.0288218973169023
 20
172.9702916219769975
 30
0.0
 40
0.0118110236
 50
90.0
 51
180.0
  0
ARC
  5
10DDF
  8
0
 10
3794.0288218973169023
 20
173.9545435904771011
 30
0.0
 40
0.0118110236
 50
90.0
 51
180.0
  0
ARC
  5
10DE0
  8
0
 10
3794.5957510312177874
 20
173.9545435904771011
 30
0.0
 40
0.0118110236
 50
0.0
 51
90.0
  0
ARC
  5
10DE1
  8
0
 10
3794.0288218973169023
 20
173.9387955589770911
 30
0.0
 40
0.0118110236
 50
180.0
 51
270.0
  0
ARC
  5
10DE2
  8
0
 10
3794.5957510312177874
 20
173.9387955589770911
 30
0.0
 40
0.0118110236
 50
270.0
 51
0.0
  0
ARC
  5
10DE3
  8
0
 10
3790.1489006375168174
 20
228.1592679998771018
 30
0.0
 40
0.1968503937
 50
90.0
 51
180.0
  0
ARC
  5
10DE4
  8
0
 10
3790.1489006375168174
 20
226.3876144565770971
 30
0.0
 40
0.1968503937
 50
180.0
 51
270.0
  0
ARC
  5
10DE5
  8
0
 10
3782.6635226847179183
 20
238.6198979211771132
 30
0.0
 40
0.0787401575
 50
180.0
 51
270.0
  0
ARC
  5
10DE6
  8
0
 10
3787.6241526060171054
 20
238.6198979211771132
 30
0.0
 40
0.0787401575
 50
270.0
 51
0.0
  0
ARC
  5
10DE7
  8
0
 10
3782.6635226847179183
 20
239.2222601258771135
 30
0.0
 40
0.0787401575
 50
90.0
 51
180.0
  0
ARC
  5
10DE8
  8
0
 10
3787.6241526060171054
 20
239.2222601258771135
 30
0.0
 40
0.0787401575
 50
0.0
 51
90.0
  0
ARC
  5
10DE9
  8
0
 10
3794.5957510312177874
 20
226.7734412282771075
 30
0.0
 40
0.0118110236
 50
270.0
 51
0.0
  0
ARC
  5
10DEA
  8
0
 10
3794.0288218973169023
 20
226.7734412282771075
 30
0.0
 40
0.0118110236
 50
180.0
 51
270.0
  0
ARC
  5
10DEB
  8
0
 10
3794.5957510312177874
 20
226.7891892597770038
 30
0.0
 40
0.0118110236
 50
0.0
 51
90.0
  0
ARC
  5
10DEC
  8
0
 10
3794.0288218973169023
 20
226.7891892597770038
 30
0.0
 40
0.0118110236
 50
90.0
 51
180.0
  0
ARC
  5
10DED
  8
0
 10
3794.0288218973169023
 20
227.7734412282771075
 30
0.0
 40
0.0118110236
 50
90.0
 51
180.0
  0
ARC
  5
10DEE
  8
0
 10
3794.5957510312177874
 20
227.7734412282771075
 30
0.0
 40
0.0118110236
 50
0.0
 51
90.0
  0
ARC
  5
10DEF
  8
0
 10
3794.0288218973169023
 20
227.7576931967770975
 30
0.0
 40
0.0118110236
 50
180.0
 51
270.0
  0
ARC
  5
10DF0
  8
0
 10
3794.5957510312177874
 20
227.7576931967770975
 30
0.0
 40
0.0118110236
 50
270.0
 51
0.0
  0
ARC
  5
10DF1
  8
0
 10
3799.5977195351179034
 20
172.5687168187770908
 30
0.0
 40
0.1968503937
 50
270.0
 51
0.0
  0
ARC
  5
10DF2
  8
0
 10
3799.5977195351179034
 20
174.3403703620770955
 30
0.0
 40
0.1968503937
 50
0.0
 51
90.0
  0
ARC
  5
10DF3
  8
0
 10
3818.4472864641720662
 20
161.2380081573770099
 30
0.0
 40
0.0196850394
 50
0.0
 51
90.0
  0
ARC
  5
10DF4
  8
0
 10
3799.5977195351179034
 20
226.3876144565770971
 30
0.0
 40
0.1968503937
 50
270.0
 51
0.0
  0
ARC
  5
10DF5
  8
0
 10
3799.5977195351179034
 20
228.1592679998771018
 30
0.0
 40
0.1968503937
 50
0.0
 51
90.0
  0
LINE
  5
10DF6
  8
0
 10
3782.5454124485181637
 20
239.3007713170771069
 30
0.0
 11
3782.5453040457177849
 21
239.3009999848771088
 31
0.0
  0
ENDSEC
  0
EOF
