  0
SECTION
  2
HEADER
  9
$ACADVER
  1
AC1009
  9
$INSBASE
 10
3788.9402068441481788
 20
158.2081456417865866
 30
0.0
  9
$EXTMIN
 10
3786.7385964297482133
 20
158.2081456417865866
 30
0.0
  9
$EXTMAX
 10
3793.9256123493469204
 20
237.0073582401865906
 30
0.0
  9
$LIMMIN
 10
0.0
 20
0.0
  9
$LIMMAX
 10
11.6929133858000007
 20
8.2677165353999982
  9
$ORTHOMODE
 70
     0
  9
$REGENMODE
 70
     1
  9
$FILLMODE
 70
     1
  9
$QTEXTMODE
 70
     0
  9
$MIRRTEXT
 70
     0
  9
$DRAGMODE
 70
     2
  9
$LTSCALE
 40
0.6431102362
  9
$OSMODE
 70
  4095
  9
$ATTMODE
 70
     1
  9
$TEXTSIZE
 40
0.2
  9
$TRACEWID
 40
0.05
  9
$TEXTSTYLE
  7
STANDARD
  9
$CLAYER
  8
0
  9
$CELTYPE
  6
BYLAYER
  9
$CECOLOR
 62
   256
  9
$DIMSCALE
 40
1.0
  9
$DIMASZ
 40
0.1875
  9
$DIMEXO
 40
0.0625
  9
$DIMDLI
 40
0.4443307087
  9
$DIMRND
 40
0.0
  9
$DIMDLE
 40
0.0
  9
$DIMEXE
 40
0.125
  9
$DIMTP
 40
0.01
  9
$DIMTM
 40
0.01
  9
$DIMTXT
 40
2.0
  9
$DIMCEN
 40
0.1052362205
  9
$DIMTSZ
 40
0.0
  9
$DIMTOL
 70
     1
  9
$DIMLIM
 70
     0
  9
$DIMTIH
 70
     1
  9
$DIMTOH
 70
     1
  9
$DIMSE1
 70
     0
  9
$DIMSE2
 70
     0
  9
$DIMTAD
 70
     0
  9
$DIMZIN
 70
     0
  9
$DIMBLK
  1

  9
$DIMASO
 70
     1
  9
$DIMSHO
 70
     1
  9
$DIMPOST
  1
\X
  9
$DIMAPOST
  1

  9
$DIMALT
 70
     1
  9
$DIMALTD
 70
     2
  9
$DIMALTF
 40
25.3999999999999986
  9
$DIMLFAC
 40
1.0
  9
$DIMTOFL
 70
     0
  9
$DIMTVP
 40
0.0
  9
$DIMTIX
 70
     0
  9
$DIMSOXD
 70
     0
  9
$DIMSAH
 70
     0
  9
$DIMBLK1
  1

  9
$DIMBLK2
  1

  9
$DIMSTYLE
  2
STANDARD
  9
$DIMCLRD
 70
     0
  9
$DIMCLRE
 70
     0
  9
$DIMCLRT
 70
     0
  9
$DIMTFAC
 40
1.0
  9
$DIMGAP
 40
0.09
  9
$LUNITS
 70
     2
  9
$LUPREC
 70
     4
  9
$SKETCHINC
 40
0.1
  9
$FILLETRAD
 40
0.0
  9
$AUNITS
 70
     0
  9
$AUPREC
 70
     0
  9
$MENU
  1
.
  9
$ELEVATION
 40
0.0
  9
$PELEVATION
 40
0.0
  9
$THICKNESS
 40
0.0
  9
$LIMCHECK
 70
     0
  9
$BLIPMODE
 70
     0
  9
$CHAMFERA
 40
0.0
  9
$CHAMFERB
 40
0.0
  9
$SKPOLY
 70
     0
  9
$TDCREATE
 40
2458060.468368056230247
  9
$TDUPDATE
 40
2459527.741064814850688
  9
$TDINDWG
 40
0.7263380787
  9
$TDUSRTIMER
 40
0.7263380787
  9
$USRTIMER
 70
     1
  9
$ANGBASE
 50
0.0
  9
$ANGDIR
 70
     0
  9
$PDMODE
 70
     0
  9
$PDSIZE
 40
0.3125
  9
$PLINEWID
 40
0.0
  9
$COORDS
 70
     1
  9
$SPLFRAME
 70
     0
  9
$SPLINETYPE
 70
     6
  9
$SPLINESEGS
 70
     8
  9
$ATTDIA
 70
     1
  9
$ATTREQ
 70
     1
  9
$HANDLING
 70
     1
  9
$HANDSEED
  5
10DDF
  9
$SURFTAB1
 70
     6
  9
$SURFTAB2
 70
     6
  9
$SURFTYPE
 70
     6
  9
$SURFU
 70
     6
  9
$SURFV
 70
     6
  9
$UCSNAME
  2

  9
$UCSORG
 10
0.0
 20
0.0
 30
0.0
  9
$UCSXDIR
 10
1.0
 20
0.0
 30
0.0
  9
$UCSYDIR
 10
0.0
 20
1.0
 30
0.0
  9
$PUCSNAME
  2

  9
$PUCSORG
 10
0.0
 20
0.0
 30
0.0
  9
$PUCSXDIR
 10
1.0
 20
0.0
 30
0.0
  9
$PUCSYDIR
 10
0.0
 20
1.0
 30
0.0
  9
$USERI1
 70
     0
  9
$USERI2
 70
     0
  9
$USERI3
 70
     0
  9
$USERI4
 70
     0
  9
$USERI5
 70
     0
  9
$USERR1
 40
0.0
  9
$USERR2
 40
0.0
  9
$USERR3
 40
0.0
  9
$USERR4
 40
0.0
  9
$USERR5
 40
0.0
  9
$WORLDVIEW
 70
     1
  9
$SHADEDGE
 70
     3
  9
$SHADEDIF
 70
    70
  9
$TILEMODE
 70
     1
  9
$MAXACTVP
 70
    64
  9
$PLIMCHECK
 70
     0
  9
$PEXTMIN
 10
1.0000000000000000E+20
 20
1.0000000000000000E+20
 30
1.0000000000000000E+20
  9
$PEXTMAX
 10
-1.0000000000000000E+20
 20
-1.0000000000000000E+20
 30
-1.0000000000000000E+20
  9
$PLIMMIN
 10
0.0
 20
0.0
  9
$PLIMMAX
 10
12.0
 20
9.0
  9
$UNITMODE
 70
     0
  9
$VISRETAIN
 70
     1
  9
$PLINEGEN
 70
     0
  9
$PSLTSCALE
 70
     1
  0
ENDSEC
  0
SECTION
  2
TABLES
  0
TABLE
  2
VPORT
 70
     1
  0
VPORT
  2
*ACTIVE
 70
     0
 10
0.0
 20
0.0
 11
1.0
 21
1.0
 12
163.6359169826957043
 22
37.6574380675004718
 13
0.0
 23
0.0
 14
1.0
 24
1.0
 15
0.0
 25
0.0
 16
0.0
 26
0.0
 36
26.6346482412083887
 17
3644.0758056640620453
 27
159.9442404997975871
 37
0.0
 40
79.5875261956504971
 41
2.7890855457227128
 42
50.0
 43
0.0
 44
0.0
 50
0.0
 51
0.0
 71
     0
 72
   100
 73
     1
 74
     1
 75
     0
 76
     0
 77
     0
 78
     0
  0
ENDTAB
  0
TABLE
  2
LTYPE
 70
     2
  0
LTYPE
  2
CONTINUOUS
 70
     0
  3
Solid line
 72
    65
 73
     0
 40
0.0
  0
LTYPE
  2
PHANTOM2
 70
     0
  3
___ _ _ ___ _ _ ___ _ _ ___ _ _
 72
    65
 73
     6
 40
1.25
 49
0.625
 49
-0.125
 49
0.125
 49
-0.125
 49
0.125
 49
-0.125
  0
ENDTAB
  0
TABLE
  2
LAYER
 70
     2
  0
LAYER
  2
0
 70
     0
 62
   255
  6
CONTINUOUS
  0
LAYER
  2
DEFPOINTS
 70
     0
 62
     7
  6
CONTINUOUS
  0
ENDTAB
  0
TABLE
  2
STYLE
 70
     1
  0
STYLE
  2
STANDARD
 70
     0
 40
0.0
 41
0.8
 50
0.0
 71
     0
 42
0.2
  3
txt
  4

  0
ENDTAB
  0
TABLE
  2
VIEW
 70
     0
  0
ENDTAB
  0
TABLE
  2
UCS
 70
     0
  0
ENDTAB
  0
TABLE
  2
APPID
 70
    10
  0
APPID
  2
ACAD
 70
     0
  0
APPID
  2
ACAD_MLEADERVER
 70
     0
  0
APPID
  2
ACAD_EXEMPT_FROM_CAD_STANDARDS
 70
     0
  0
APPID
  2
ACAD_NAV_VCDISPLAY
 70
     0
  0
APPID
  2
ACAECLAYERSTANDARD
 70
     0
  0
APPID
  2
ACCMTRANSPARENCY
 70
     0
  0
APPID
  2
ACAD_DSTYLE_DIMJAG
 70
     0
  0
APPID
  2
ACAD_DSTYLE_DIMTALN
 70
     0
  0
APPID
  2
ACDBATTR
 70
     0
  0
APPID
  2
ACAD_PSEXT
 70
     0
  0
ENDTAB
  0
TABLE
  2
DIMSTYLE
 70
     1
  0
DIMSTYLE
  2
STANDARD
 70
     0
  3

  4

  5

  6

  7

 40
1.0
 41
0.1875
 42
0.0625
 43
0.38
 44
0.125
 45
0.0
 46
0.0
 47
0.01
 48
0.01
140
0.15625
141
0.09
142
0.0
143
25.3999999999999986
144
1.0
145
0.0
146
1.0
147
0.09
 71
     1
 72
     0
 73
     1
 74
     1
 75
     0
 76
     0
 77
     0
 78
     4
170
     0
171
     2
172
     0
173
     0
174
     0
175
     0
176
     0
177
     0
178
     0
  0
ENDTAB
  0
ENDSEC
  0
SECTION
  2
BLOCKS
  0
BLOCK
  8
0
  2
$MODEL_SPACE
 70
     0
 10
0.0
 20
0.0
 30
0.0
  3
$MODEL_SPACE
  1

  0
ENDBLK
  5
21
  8
0
  0
BLOCK
 67
     1
  8
0
  2
$PAPER_SPACE
 70
     0
 10
0.0
 20
0.0
 30
0.0
  3
$PAPER_SPACE
  1

  0
ENDBLK
  5
1D
 67
     1
  8
0
  0
ENDSEC
  0
SECTION
  2
ENTITIES
  0
ATTDEF
  5
AA11
  8
DEFPOINTS
 10
3788.9364804883480247
 20
158.2128780793030103
 30
0.0
 40
0.001
  1
K-1.1922.002
  3

  2
MODELNUMBER
 70
     0
1001
ACDBATTR
1070
     0
1070
     1
  0
ATTDEF
  5
AA12
  8
DEFPOINTS
 10
3788.9364804883480247
 20
158.2112114126362883
 30
0.0
 40
0.001
  1

  3

  2
TRADENAME
 70
     0
1001
ACDBATTR
1070
     0
1070
     1
  0
ATTDEF
  5
AA13
  8
DEFPOINTS
 10
3788.9364804883480247
 20
158.2095447459697084
 30
0.0
 40
0.001
  1
SHOWER DOOR
  3

  2
PRODUCT
 70
     0
1001
ACDBATTR
1070
     0
1070
     1
  0
LINE
  5
10C3A
  8
0
 10
3788.5725966144477752
 20
158.2081456417865866
 30
0.0
 11
3789.3078170738481276
 21
158.2081456417865866
 31
0.0
  0
LINE
  5
10C3B
  8
0
 10
3789.4521044820480711
 20
159.1303172930865912
 30
0.0
 11
3789.3048800790470523
 21
159.1719198918866027
 31
0.0
  0
LINE
  5
10C3C
  8
0
 10
3789.3048800790470523
 20
159.2113974134865941
 30
0.0
 11
3789.4596705722478873
 21
159.1533799815865962
 31
0.0
  0
LINE
  5
10C3D
  8
0
 10
3789.3531761319918587
 20
170.0782243818865993
 30
0.0
 11
3789.3048800790470523
 21
170.0782243818865993
 31
0.0
  0
LINE
  5
10C3E
  8
0
 10
3788.5725966144477752
 20
170.0782243818865993
 30
0.0
 11
3788.5102499730478485
 21
170.0782243818865993
 31
0.0
  0
LINE
  5
10C3F
  8
0
 10
3788.5102499730478485
 20
172.2435787125866113
 30
0.0
 11
3788.5725966144477752
 21
172.2435787125866113
 31
0.0
  0
LINE
  5
10C40
  8
0
 10
3789.3048800790470523
 20
172.2435787125866113
 30
0.0
 11
3789.3531761319941324
 21
172.2435787125866113
 31
0.0
  0
LINE
  5
10C41
  8
0
 10
3786.7779665084481167
 20
192.3617014684865865
 30
0.0
 11
3788.5725966144477752
 21
192.3617014684865865
 31
0.0
  0
LINE
  5
10C42
  8
0
 10
3786.7385964297482133
 20
192.4010715472865911
 30
0.0
 11
3786.7385964297482133
 21
203.6609140669866065
 31
0.0
  0
LINE
  5
10C43
  8
0
 10
3787.3644248627479101
 20
192.3617014684865865
 30
0.0
 11
3787.3644248627479101
 21
193.0316435639570045
 31
0.0
  0
LINE
  5
10C44
  8
0
 10
3787.5259980045480006
 20
193.1097329645866125
 30
0.0
 11
3787.5259980045480006
 21
202.9522526496866988
 31
0.0
  0
LINE
  5
10C45
  8
0
 10
3787.4856520221960636
 20
193.0703628858865954
 30
0.0
 11
3788.5725966144477752
 21
193.0703628858865954
 31
0.0
  0
LINE
  5
10C46
  8
0
 10
3788.4905649336478746
 20
172.2238936732865966
 30
0.0
 11
3788.4905649336478746
 21
170.0979094212866016
 31
0.0
  0
LINE
  5
10C47
  8
0
 10
3788.5538800658478067
 20
236.267200759886606
 30
0.0
 11
3788.5538800658478067
 21
236.9876732007865883
 31
0.0
  0
LINE
  5
10C48
  8
0
 10
3788.5686856211477789
 20
236.8695629645866063
 30
0.0
 11
3788.5686856211477789
 21
236.7711377677865983
 31
0.0
  0
LINE
  5
10C49
  8
0
 10
3788.5725966144477752
 20
158.2081456417865866
 30
0.0
 11
3788.5725966144477752
 21
236.7711377677865983
 31
0.0
  0
LINE
  5
10C4A
  8
0
 10
3788.6533052758481972
 20
158.2081456417865866
 30
0.0
 11
3788.6533052758481972
 21
236.7711377677865983
 31
0.0
  0
LINE
  5
10C4B
  8
0
 10
3788.836402156647182
 20
236.4561771377867103
 30
0.0
 11
3788.836402156647182
 21
236.7711377677865983
 31
0.0
  0
LINE
  5
10C4C
  8
0
 10
3789.033252550348152
 20
236.4561771377867103
 30
0.0
 11
3789.033252550348152
 21
236.7711377677865983
 31
0.0
  0
LINE
  5
10C4D
  8
0
 10
3789.2123603940481189
 20
158.2081456417865866
 30
0.0
 11
3789.2123603940481189
 21
236.7711377677865983
 31
0.0
  0
LINE
  5
10C4E
  8
0
 10
3789.3009690858480099
 20
236.8695629645866063
 30
0.0
 11
3789.3009690858480099
 21
236.7711377677865983
 31
0.0
  0
LINE
  5
10C4F
  8
0
 10
3789.3078170738481276
 20
158.2081456417865866
 30
0.0
 11
3789.3078170738481276
 21
159.1710899573866129
 31
0.0
  0
LINE
  5
10C50
  8
0
 10
3789.3078170738481276
 20
159.2102965907866121
 30
0.0
 11
3789.3078170738481276
 21
170.0782243818865993
 31
0.0
  0
LINE
  5
10C51
  8
0
 10
3789.3078170738481276
 20
172.2435787125866113
 30
0.0
 11
3789.3078170738481276
 21
192.3617014684865865
 31
0.0
  0
LINE
  5
10C52
  8
0
 10
3789.3078170738481276
 20
193.0703628858865954
 30
0.0
 11
3789.3078170738481276
 21
202.9916227283866021
 31
0.0
  0
LINE
  5
10C53
  8
0
 10
3789.3078170738481276
 20
203.7002841456865951
 30
0.0
 11
3789.3078170738481276
 21
223.8971220196866057
 31
0.0
  0
LINE
  5
10C54
  8
0
 10
3789.3078170738481276
 20
226.0624763503865893
 30
0.0
 11
3789.3078170738481276
 21
236.2475157204866036
 31
0.0
  0
LINE
  5
10C55
  8
0
 10
3789.6798643178481143
 20
236.267200759886606
 30
0.0
 11
3789.6798643178481143
 21
236.9876732007865883
 31
0.0
  0
LINE
  5
10C56
  8
0
 10
3793.9256123492477855
 20
236.9286180826865973
 30
0.0
 11
3793.9256123492477855
 21
236.3262558779865969
 31
0.0
  0
LINE
  5
10C57
  8
0
 10
3789.3048800790470523
 20
236.2475157204866036
 30
0.0
 11
3793.8468721918479787
 21
236.2475157204866036
 31
0.0
  0
LINE
  5
10C58
  8
0
 10
3788.836402156647182
 20
236.4561771377867103
 30
0.0
 11
3789.033252550348152
 21
236.4561771377867103
 31
0.0
  0
LINE
  5
10C59
  8
0
 10
3789.3048800790470523
 20
236.7711377677865983
 30
0.0
 11
3789.2227182046481175
 21
236.7711377677865983
 31
0.0
  0
LINE
  5
10C5A
  8
0
 10
3788.6547584919480869
 20
236.7711377677865983
 30
0.0
 11
3788.5825919415478893
 21
236.7711377677865983
 31
0.0
  0
LINE
  5
10C5B
  8
0
 10
3788.5686856211477789
 20
236.7711377677865983
 30
0.0
 11
3789.2909737587478958
 21
236.7711377677865983
 31
0.0
  0
LINE
  5
10C5C
  8
0
 10
3788.5883706605482075
 20
236.8892480039866086
 30
0.0
 11
3789.2812840465471709
 21
236.8892480039866086
 31
0.0
  0
LINE
  5
10C5D
  8
0
 10
3789.6798643178481143
 20
236.928618082686711
 30
0.0
 11
3788.5538800658478067
 21
236.9286180826865973
 31
0.0
  0
LINE
  5
10C5E
  8
0
 10
3788.5735651052477806
 20
237.0073582401865906
 30
0.0
 11
3793.8468721918479787
 21
237.0073582401865906
 31
0.0
  0
ARC
  5
10C5F
  8
0
 10
3786.7779665084481167
 20
192.4010715472865911
 30
0.0
 40
0.0393700787
 50
180.0
 51
270.0
  0
ARC
  5
10C60
  8
0
 10
3787.565368083247904
 20
193.1097329645866125
 30
0.0
 40
0.0393700787
 50
180.0
 51
270.0
  0
ARC
  5
10C61
  8
0
 10
3788.5102499730478485
 20
170.0979094212866016
 30
0.0
 40
0.0196850394
 50
179.9999999987998081
 51
270.0
  0
ARC
  5
10C62
  8
0
 10
3788.5102499730478485
 20
172.2238936732865966
 30
0.0
 40
0.0196850394
 50
90.0
 51
180.0000000002995932
  0
ARC
  5
10C63
  8
0
 10
3789.4554075040477983
 20
159.1420061166865878
 30
0.0
 40
0.0121465449
 50
254.2207954760910127
 51
69.4533672414128915
  0
ARC
  5
10C64
  8
0
 10
3788.5735651052477806
 20
236.9876732007865883
 30
0.0
 40
0.0196850394
 50
90.0
 51
180.0000000007001972
  0
ARC
  5
10C65
  8
0
 10
3788.5735651052477806
 20
236.267200759886606
 30
0.0
 40
0.0196850394
 50
179.9999999992998028
 51
267.1799474161340981
  0
ARC
  5
10C66
  8
0
 10
3789.2812840465471709
 20
236.8695629645866063
 30
0.0
 40
0.0196850394
 50
0.0
 51
89.9999999998957776
  0
ARC
  5
10C67
  8
0
 10
3788.5883706605482075
 20
236.8695629645866063
 30
0.0
 40
0.0196850394
 50
90.0
 51
180.0
  0
ARC
  5
10C68
  8
0
 10
3789.6601792784481404
 20
236.9876732007865883
 30
0.0
 40
0.0196850394
 50
0.0000000002002986
 51
90.0
  0
ARC
  5
10C69
  8
0
 10
3789.6601792784481404
 20
236.267200759886606
 30
0.0
 40
0.0196850394
 50
270.0
 51
0.0
  0
ARC
  5
10C6A
  8
0
 10
3793.8468721918479787
 20
236.9286180826865973
 30
0.0
 40
0.0787401575
 50
0.0
 51
90.0
  0
ARC
  5
10C6B
  8
0
 10
3793.8468721918479787
 20
236.3262558779865969
 30
0.0
 40
0.0787401575
 50
270.0
 51
0.0
  0
LINE
  5
10C6C
  8
0
 10
3789.3048800790470523
 20
158.2081456417865866
 30
0.0
 11
3789.3048800790470523
 21
236.7711377677867119
 31
0.0
  0
ARC
  5
10C6D
  8
0
 10
3739.7556570336791992
 20
171.1609015472782005
 30
0.0
 40
49.6286086874692671
 50
358.772221194190422
 51
1.227778805713595
  0
ARC
  5
10C6E
  8
0
 10
3789.3531761319941324
 20
172.2238787125866111
 30
0.0
 40
0.0197
 50
1.2277788057168511
 51
90.0
  0
ARC
  5
10C6F
  8
0
 10
3789.3531761319918587
 20
170.0979243818865996
 30
0.0
 40
0.0197
 50
270.0
 51
358.7722211940966872
  0
LINE
  5
10C70
  8
0
 10
3787.4370247509878027
 20
193.0609256848541975
 30
0.0
 11
3787.3644248627479101
 21
193.0316435639570045
 31
0.0
  0
ARC
  5
10C71
  8
0
 10
3787.4856520221960636
 20
192.9403628858867137
 30
0.0
 40
0.13
 50
90.0
 51
111.965975710893602
  0
LINE
  5
10C72
  8
0
 10
3786.7779665084481167
 20
203.7002841457866111
 30
0.0
 11
3788.5725966144477752
 21
203.7002841457866111
 31
0.0
  0
LINE
  5
10C73
  8
0
 10
3787.3644248627479101
 20
203.7002841457866111
 30
0.0
 11
3787.3644248627479101
 21
203.0303420503163068
 31
0.0
  0
LINE
  5
10C74
  8
0
 10
3787.4856520221960636
 20
202.9916227283866021
 30
0.0
 11
3788.5725966144477752
 21
202.9916227283866021
 31
0.0
  0
ARC
  5
10C75
  8
0
 10
3786.7779665084481167
 20
203.6609140669866065
 30
0.0
 40
0.0393700787
 50
90.0
 51
180.0
  0
ARC
  5
10C76
  8
0
 10
3787.565368083247904
 20
202.9522526496866988
 30
0.0
 40
0.0393700787
 50
90.0
 51
180.0
  0
LINE
  5
10C77
  8
0
 10
3787.4370247509878027
 20
203.0010599294190001
 30
0.0
 11
3787.3644248627479101
 21
203.0303420503163068
 31
0.0
  0
ARC
  5
10C78
  8
0
 10
3787.4856520221960636
 20
203.1216227283865976
 30
0.0
 40
0.13
 50
248.0340242891064122
 51
270.0
  0
LINE
  5
10C79
  8
0
 10
3791.0299350124478224
 20
192.3617014684865865
 30
0.0
 11
3789.3048800790470523
 21
192.3617014684865865
 31
0.0
  0
LINE
  5
10C7A
  8
0
 10
3791.0693050911481805
 20
192.4010715472865911
 30
0.0
 11
3791.0693050911481805
 21
203.6609140669866065
 31
0.0
  0
LINE
  5
10C7B
  8
0
 10
3790.4434766581471195
 20
192.3617014684865865
 30
0.0
 11
3790.4434766581471195
 21
193.0316435639570045
 31
0.0
  0
LINE
  5
10C7C
  8
0
 10
3790.2819035163479384
 20
193.1097329645866125
 30
0.0
 11
3790.2819035163479384
 21
202.9522526496866988
 31
0.0
  0
LINE
  5
10C7D
  8
0
 10
3790.3222494987007849
 20
193.0703628858865954
 30
0.0
 11
3789.3048800790470523
 21
193.0703628858865954
 31
0.0
  0
LINE
  5
10C7E
  8
0
 10
3788.5000844470469019
 20
193.0703628858865954
 30
0.0
 11
3788.5000844470469019
 21
202.9916227283866021
 31
0.0
  0
ARC
  5
10C7F
  8
0
 10
3791.0299350124478224
 20
192.4010715472865911
 30
0.0
 40
0.0393700787
 50
270.0
 51
0.0
  0
ARC
  5
10C80
  8
0
 10
3790.2425334376471255
 20
193.1097329645866125
 30
0.0
 40
0.0393700787
 50
270.0
 51
0.0
  0
LINE
  5
10C81
  8
0
 10
3790.3708767699081363
 20
193.0609256848541975
 30
0.0
 11
3790.4434766581471195
 21
193.0316435639570045
 31
0.0
  0
ARC
  5
10C82
  8
0
 10
3790.3222494987007849
 20
192.9403628858867137
 30
0.0
 40
0.13
 50
68.0340242891064122
 51
90.0
  0
LINE
  5
10C83
  8
0
 10
3791.0299350124478224
 20
203.7002841457866111
 30
0.0
 11
3789.3048800790470523
 21
203.7002841457866111
 31
0.0
  0
LINE
  5
10C84
  8
0
 10
3790.4434766581471195
 20
203.7002841457866111
 30
0.0
 11
3790.4434766581471195
 21
203.0303420503163068
 31
0.0
  0
LINE
  5
10C85
  8
0
 10
3790.3222494987007849
 20
202.9916227283866021
 30
0.0
 11
3789.3048800790470523
 21
202.9916227283866021
 31
0.0
  0
ARC
  5
10C86
  8
0
 10
3791.0299350124478224
 20
203.6609140669866065
 30
0.0
 40
0.0393700787
 50
0.0
 51
90.0
  0
ARC
  5
10C87
  8
0
 10
3790.2425334376471255
 20
202.9522526496866988
 30
0.0
 40
0.0393700787
 50
0.0
 51
90.0
  0
LINE
  5
10C88
  8
0
 10
3790.3708767699081363
 20
203.0010599294190001
 30
0.0
 11
3790.4434766581471195
 21
203.0303420503163068
 31
0.0
  0
ARC
  5
10C89
  8
0
 10
3790.3222494987007849
 20
203.1216227283865976
 30
0.0
 40
0.13
 50
270.0
 51
291.9659757108934741
  0
LINE
  5
10C8A
  8
0
 10
3789.3531761319918587
 20
226.0624763503865893
 30
0.0
 11
3789.3048800790470523
 21
226.0624763503865893
 31
0.0
  0
LINE
  5
10C8B
  8
0
 10
3788.5725966144477752
 20
226.0624763503865893
 30
0.0
 11
3788.5102499730478485
 21
226.0624763503865893
 31
0.0
  0
LINE
  5
10C8C
  8
0
 10
3788.5102499730478485
 20
223.8971220196866057
 30
0.0
 11
3788.5725966144477752
 21
223.8971220196866057
 31
0.0
  0
LINE
  5
10C8D
  8
0
 10
3789.3048800790470523
 20
223.8971220196866057
 30
0.0
 11
3789.3531761319941324
 21
223.8971220196866057
 31
0.0
  0
LINE
  5
10C8E
  8
0
 10
3788.4905649336478746
 20
223.9168070589867057
 30
0.0
 11
3788.4905649336478746
 21
226.042791310986587
 31
0.0
  0
ARC
  5
10C8F
  8
0
 10
3788.5102499730478485
 20
226.042791310986587
 30
0.0
 40
0.0196850394
 50
90.0
 51
180.0000000012001067
  0
ARC
  5
10C90
  8
0
 10
3788.5102499730478485
 20
223.9168070589867057
 30
0.0
 40
0.0196850394
 50
179.9999999996994973
 51
270.0
  0
ARC
  5
10C91
  8
0
 10
3739.7556570336791992
 20
224.9797991849951018
 30
0.0
 40
49.6286086874692671
 50
358.7722211942863737
 51
1.227778805809651
  0
ARC
  5
10C92
  8
0
 10
3789.3531761319941324
 20
223.9168220196866059
 30
0.0
 40
0.0197
 50
270.0
 51
358.7722211942831905
  0
ARC
  5
10C93
  8
0
 10
3789.3531761319918587
 20
226.042776350386589
 30
0.0
 40
0.0197
 50
1.227778805903265
 51
90.0
  0
ENDSEC
  0
EOF
