  0
SECTION
  2
HEADER
  9
$ACADVER
  1
AC1009
  9
$INSBASE
 10
3862.9719149901397941
 20
265.9424320804927788
 30
0.0
  9
$EXTMIN
 10
3847.607383691125051
 20
263.722802250178006
 30
-0.0000000000112498
  9
$EXTMAX
 10
3878.3236463038670081
 20
270.9380338379318118
 30
0.0000000000002956
  9
$LIMMIN
 10
0.0
 20
0.0
  9
$LIMMAX
 10
11.6929133858000007
 20
8.2677165353999982
  9
$ORTHOMODE
 70
     0
  9
$REGENMODE
 70
     1
  9
$FILLMODE
 70
     1
  9
$QTEXTMODE
 70
     0
  9
$MIRRTEXT
 70
     0
  9
$DRAGMODE
 70
     2
  9
$LTSCALE
 40
0.6431102362
  9
$OSMODE
 70
  4095
  9
$ATTMODE
 70
     1
  9
$TEXTSIZE
 40
0.2
  9
$TRACEWID
 40
0.05
  9
$TEXTSTYLE
  7
STANDARD
  9
$CLAYER
  8
0
  9
$CELTYPE
  6
BYLAYER
  9
$CECOLOR
 62
   256
  9
$DIMSCALE
 40
1.0
  9
$DIMASZ
 40
0.1875
  9
$DIMEXO
 40
0.0625
  9
$DIMDLI
 40
0.4443307087
  9
$DIMRND
 40
0.0
  9
$DIMDLE
 40
0.0
  9
$DIMEXE
 40
0.125
  9
$DIMTP
 40
0.01
  9
$DIMTM
 40
0.01
  9
$DIMTXT
 40
2.0
  9
$DIMCEN
 40
0.1052362205
  9
$DIMTSZ
 40
0.0
  9
$DIMTOL
 70
     1
  9
$DIMLIM
 70
     0
  9
$DIMTIH
 70
     1
  9
$DIMTOH
 70
     1
  9
$DIMSE1
 70
     0
  9
$DIMSE2
 70
     0
  9
$DIMTAD
 70
     0
  9
$DIMZIN
 70
     0
  9
$DIMBLK
  1

  9
$DIMASO
 70
     1
  9
$DIMSHO
 70
     1
  9
$DIMPOST
  1
\X
  9
$DIMAPOST
  1

  9
$DIMALT
 70
     1
  9
$DIMALTD
 70
     2
  9
$DIMALTF
 40
25.3999999999999986
  9
$DIMLFAC
 40
1.0
  9
$DIMTOFL
 70
     0
  9
$DIMTVP
 40
0.0
  9
$DIMTIX
 70
     0
  9
$DIMSOXD
 70
     0
  9
$DIMSAH
 70
     0
  9
$DIMBLK1
  1

  9
$DIMBLK2
  1

  9
$DIMSTYLE
  2
STANDARD
  9
$DIMCLRD
 70
     0
  9
$DIMCLRE
 70
     0
  9
$DIMCLRT
 70
     0
  9
$DIMTFAC
 40
1.0
  9
$DIMGAP
 40
0.09
  9
$LUNITS
 70
     2
  9
$LUPREC
 70
     4
  9
$SKETCHINC
 40
0.1
  9
$FILLETRAD
 40
0.0
  9
$AUNITS
 70
     0
  9
$AUPREC
 70
     0
  9
$MENU
  1
.
  9
$ELEVATION
 40
0.0
  9
$PELEVATION
 40
0.0
  9
$THICKNESS
 40
0.0
  9
$LIMCHECK
 70
     0
  9
$BLIPMODE
 70
     0
  9
$CHAMFERA
 40
0.0
  9
$CHAMFERB
 40
0.0
  9
$SKPOLY
 70
     0
  9
$TDCREATE
 40
2458060.468368056230247
  9
$TDUPDATE
 40
2459527.7554166670888662
  9
$TDINDWG
 40
0.7281552083
  9
$TDUSRTIMER
 40
0.7281552083
  9
$USRTIMER
 70
     1
  9
$ANGBASE
 50
0.0
  9
$ANGDIR
 70
     0
  9
$PDMODE
 70
     0
  9
$PDSIZE
 40
0.3125
  9
$PLINEWID
 40
0.0
  9
$COORDS
 70
     1
  9
$SPLFRAME
 70
     0
  9
$SPLINETYPE
 70
     6
  9
$SPLINESEGS
 70
     8
  9
$ATTDIA
 70
     1
  9
$ATTREQ
 70
     1
  9
$HANDLING
 70
     1
  9
$HANDSEED
  5
11291
  9
$SURFTAB1
 70
     6
  9
$SURFTAB2
 70
     6
  9
$SURFTYPE
 70
     6
  9
$SURFU
 70
     6
  9
$SURFV
 70
     6
  9
$UCSNAME
  2

  9
$UCSORG
 10
0.0
 20
0.0
 30
0.0
  9
$UCSXDIR
 10
1.0
 20
0.0
 30
0.0
  9
$UCSYDIR
 10
0.0
 20
1.0
 30
0.0
  9
$PUCSNAME
  2

  9
$PUCSORG
 10
0.0
 20
0.0
 30
0.0
  9
$PUCSXDIR
 10
1.0
 20
0.0
 30
0.0
  9
$PUCSYDIR
 10
0.0
 20
1.0
 30
0.0
  9
$USERI1
 70
     0
  9
$USERI2
 70
     0
  9
$USERI3
 70
     0
  9
$USERI4
 70
     0
  9
$USERI5
 70
     0
  9
$USERR1
 40
0.0
  9
$USERR2
 40
0.0
  9
$USERR3
 40
0.0
  9
$USERR4
 40
0.0
  9
$USERR5
 40
0.0
  9
$WORLDVIEW
 70
     1
  9
$SHADEDGE
 70
     3
  9
$SHADEDIF
 70
    70
  9
$TILEMODE
 70
     1
  9
$MAXACTVP
 70
    64
  9
$PLIMCHECK
 70
     0
  9
$PEXTMIN
 10
1.0000000000000000E+20
 20
1.0000000000000000E+20
 30
1.0000000000000000E+20
  9
$PEXTMAX
 10
-1.0000000000000000E+20
 20
-1.0000000000000000E+20
 30
-1.0000000000000000E+20
  9
$PLIMMIN
 10
0.0
 20
0.0
  9
$PLIMMAX
 10
12.0
 20
9.0
  9
$UNITMODE
 70
     0
  9
$VISRETAIN
 70
     1
  9
$PLINEGEN
 70
     0
  9
$PSLTSCALE
 70
     1
  0
ENDSEC
  0
SECTION
  2
TABLES
  0
TABLE
  2
VPORT
 70
     1
  0
VPORT
  2
*ACTIVE
 70
     0
 10
0.0
 20
0.0
 11
1.0
 21
1.0
 12
218.8897093334335011
 22
107.386177544257194
 13
0.0
 23
0.0
 14
1.0
 24
1.0
 15
0.0
 25
0.0
 16
0.0
 26
0.0
 36
26.6346482412083887
 17
3644.0758056640620453
 27
159.9442404997975871
 37
0.0
 40
10.8523755673622304
 41
2.8393393393393391
 42
50.0
 43
0.0
 44
0.0
 50
0.0
 51
0.0
 71
     0
 72
   100
 73
     1
 74
     1
 75
     0
 76
     0
 77
     0
 78
     0
  0
ENDTAB
  0
TABLE
  2
LTYPE
 70
     2
  0
LTYPE
  2
CONTINUOUS
 70
     0
  3
Solid line
 72
    65
 73
     0
 40
0.0
  0
LTYPE
  2
PHANTOM2
 70
     0
  3
___ _ _ ___ _ _ ___ _ _ ___ _ _
 72
    65
 73
     6
 40
1.25
 49
0.625
 49
-0.125
 49
0.125
 49
-0.125
 49
0.125
 49
-0.125
  0
ENDTAB
  0
TABLE
  2
LAYER
 70
     2
  0
LAYER
  2
0
 70
     0
 62
   255
  6
CONTINUOUS
  0
LAYER
  2
DEFPOINTS
 70
     0
 62
     7
  6
CONTINUOUS
  0
ENDTAB
  0
TABLE
  2
STYLE
 70
     1
  0
STYLE
  2
STANDARD
 70
     0
 40
0.0
 41
0.8
 50
0.0
 71
     0
 42
0.2
  3
txt
  4

  0
ENDTAB
  0
TABLE
  2
VIEW
 70
     0
  0
ENDTAB
  0
TABLE
  2
UCS
 70
     0
  0
ENDTAB
  0
TABLE
  2
APPID
 70
    10
  0
APPID
  2
ACAD
 70
     0
  0
APPID
  2
ACAD_MLEADERVER
 70
     0
  0
APPID
  2
ACAD_EXEMPT_FROM_CAD_STANDARDS
 70
     0
  0
APPID
  2
ACAD_NAV_VCDISPLAY
 70
     0
  0
APPID
  2
ACAECLAYERSTANDARD
 70
     0
  0
APPID
  2
ACCMTRANSPARENCY
 70
     0
  0
APPID
  2
ACAD_DSTYLE_DIMJAG
 70
     0
  0
APPID
  2
ACAD_DSTYLE_DIMTALN
 70
     0
  0
APPID
  2
ACDBATTR
 70
     0
  0
APPID
  2
ACAD_PSEXT
 70
     0
  0
ENDTAB
  0
TABLE
  2
DIMSTYLE
 70
     1
  0
DIMSTYLE
  2
STANDARD
 70
     0
  3

  4

  5

  6

  7

 40
1.0
 41
0.1875
 42
0.0625
 43
0.38
 44
0.125
 45
0.0
 46
0.0
 47
0.01
 48
0.01
140
0.15625
141
0.09
142
0.0
143
25.3999999999999986
144
1.0
145
0.0
146
1.0
147
0.09
 71
     1
 72
     0
 73
     1
 74
     1
 75
     0
 76
     0
 77
     0
 78
     4
170
     0
171
     2
172
     0
173
     0
174
     0
175
     0
176
     0
177
     0
178
     0
  0
ENDTAB
  0
ENDSEC
  0
SECTION
  2
BLOCKS
  0
BLOCK
  8
0
  2
$MODEL_SPACE
 70
     0
 10
0.0
 20
0.0
 30
0.0
  3
$MODEL_SPACE
  1

  0
ENDBLK
  5
21
  8
0
  0
BLOCK
 67
     1
  8
0
  2
$PAPER_SPACE
 70
     0
 10
0.0
 20
0.0
 30
0.0
  3
$PAPER_SPACE
  1

  0
ENDBLK
  5
1D
 67
     1
  8
0
  0
ENDSEC
  0
SECTION
  2
ENTITIES
  0
ATTDEF
  5
AA11
  8
DEFPOINTS
 10
3862.9671809435908472
 20
265.9375437299433997
 30
0.0
 40
0.001
  1
K-1.1922.001
  3

  2
MODELNUMBER
 70
     0
1001
ACDBATTR
1070
     0
1070
     1
  0
ATTDEF
  5
AA12
  8
DEFPOINTS
 10
3862.9671809435908472
 20
265.9358770632766777
 30
0.0
 40
0.001
  1

  3

  2
TRADENAME
 70
     0
1001
ACDBATTR
1070
     0
1070
     1
  0
ATTDEF
  5
AA13
  8
DEFPOINTS
 10
3862.9671809435908472
 20
265.9342103966101263
 30
0.0
 40
0.001
  1
SHOWER DOOR
  3

  2
PRODUCT
 70
     0
1001
ACDBATTR
1070
     0
1070
     1
  0
LINE
  5
110C9
  8
0
 10
3847.8831945176680165
 20
270.9312599151938912
 30
0.0
 11
3847.8831945176680165
 21
266.4256693639940181
 31
0.0
  0
LINE
  5
110CA
  8
0
 10
3847.8831945176680165
 20
265.6147632637939751
 30
0.0
 11
3847.8831945176680165
 21
265.6618898362939944
 31
0.0
  0
LINE
  5
110CB
  8
0
 10
3847.8831945176680165
 20
266.2327559782939943
 30
0.0
 11
3847.8831945176680165
 21
266.2837909366940039
 31
0.0
  0
LINE
  5
110CC
  8
0
 10
3847.8950055413679365
 20
265.6067422215940041
 30
0.0
 11
3847.8950055413679365
 21
266.2917697929939891
 31
0.0
  0
LINE
  5
110CD
  8
0
 10
3848.3595724704678105
 20
268.1815748757938991
 30
0.0
 11
3848.3595724704678105
 21
270.9115748757939741
 31
0.0
  0
LINE
  5
110CE
  8
0
 10
3849.4579976673680903
 20
266.2837909366940039
 30
0.0
 11
3849.4579976673680903
 21
265.6147632636939875
 31
0.0
  0
LINE
  5
110CF
  8
0
 10
3849.4776827066680198
 20
265.5792126710938987
 30
0.0
 11
3849.4776827066680198
 21
266.2091339309940281
 31
0.0
  0
LINE
  5
110D0
  8
0
 10
3849.4776827066680198
 20
266.2091339309940281
 30
0.0
 11
3849.4776827066680198
 21
266.3469292064939964
 31
0.0
  0
LINE
  5
110D1
  8
0
 10
3849.4695874826679756
 20
266.1972615681939942
 30
0.0
 11
3849.4776827066680198
 21
266.1892486789939767
 31
0.0
  0
LINE
  5
110D2
  8
0
 10
3854.5957929428677744
 20
266.6658268442939743
 30
0.0
 11
3854.5957929428677744
 21
266.2091339309940281
 31
0.0
  0
LINE
  5
110D3
  8
0
 10
3854.5957929428677744
 20
266.2091339309940281
 30
0.0
 11
3854.5957929428677744
 21
265.5792126710938987
 31
0.0
  0
LINE
  5
110D4
  8
0
 10
3851.5889504232682157
 20
265.515897538994011
 30
0.0
 11
3851.5889504232682157
 21
265.5595276316939817
 31
0.0
  0
LINE
  5
110D5
  8
0
 10
3851.7858008169678214
 20
265.5595276316939817
 30
0.0
 11
3851.7858008169678214
 21
265.4962124995939803
 31
0.0
  0
LINE
  5
110D6
  8
0
 10
3856.126351998068003
 20
265.7521180113939749
 30
0.0
 11
3856.126351998068003
 21
265.7127479326940147
 31
0.0
  0
LINE
  5
110D7
  8
0
 10
3856.1460370373679325
 20
265.7127479326940147
 30
0.0
 11
3856.1460370373679325
 21
265.693062893293984
 31
0.0
  0
LINE
  5
110D8
  8
0
 10
3856.1460370373679325
 20
266.067078641394005
 30
0.0
 11
3856.1460370373679325
 21
266.126133759493996
 31
0.0
  0
LINE
  5
110D9
  8
0
 10
3856.1617850688680846
 20
265.721664385494023
 30
0.0
 11
3856.1617845924670291
 21
265.7584370681939845
 31
0.0
  0
LINE
  5
110DA
  8
0
 10
3856.1617850680668198
 20
266.0578395123940254
 30
0.0
 11
3856.1617850688680846
 21
266.0949952177940077
 31
0.0
  0
LINE
  5
110DB
  8
0
 10
3856.2326512105678376
 20
266.0670915512940269
 30
0.0
 11
3856.2326512105678376
 21
266.0592046246939049
 31
0.0
  0
LINE
  5
110DC
  8
0
 10
3856.2326512105678376
 20
265.7570758035939775
 30
0.0
 11
3856.2326512105678376
 21
265.7491781654940155
 31
0.0
  0
LINE
  5
110DD
  8
0
 10
3856.3232023917680635
 20
265.7914880901939796
 30
0.0
 11
3856.3232023917680635
 21
266.0277085625938867
 31
0.0
  0
LINE
  5
110DE
  8
0
 10
3856.362573397468168
 20
265.7546428708939743
 30
0.0
 11
3856.3625724676680875
 21
266.0616031132939838
 31
0.0
  0
LINE
  5
110DF
  8
0
 10
3856.4019425491669608
 20
266.1395926931940039
 30
0.0
 11
3856.4019425491669608
 21
266.3702132869939874
 31
0.0
  0
ARC
  5
110E0
  8
0
 10
3856.3822425491680406
 20
266.3702132869939874
 30
0.0
 40
0.0197
 50
0.0
 51
90.0
  0
LINE
  5
110E1
  8
0
 10
3856.4058795570681468
 20
265.9095983256939917
 30
0.0
 11
3856.4058843585680734
 21
265.7501584811939779
 31
0.0
  0
LINE
  5
110E2
  8
0
 10
3856.4058795570681468
 20
266.2186534444940094
 30
0.0
 11
3856.4058795570681468
 21
266.1398713898939832
 31
0.0
  0
LINE
  5
110E3
  8
0
 10
3856.4058795571681912
 20
266.1162173489939846
 30
0.0
 11
3856.4058795570681468
 21
265.9332203729940147
 31
0.0
  0
LINE
  5
110E4
  8
0
 10
3856.4058795570681468
 20
265.7501584810939903
 30
0.0
 11
3856.4058795570681468
 21
265.7127479326940147
 31
0.0
  0
LINE
  5
110E5
  8
0
 10
3856.4216275885678442
 20
265.4962124995939803
 30
0.0
 11
3856.4216275885678442
 21
265.7127479326940147
 31
0.0
  0
LINE
  5
110E6
  8
0
 10
3856.5968244389669053
 20
266.465332639793985
 30
0.0
 11
3856.5968244389669053
 21
266.1444665324939933
 31
0.0
  0
LINE
  5
110E7
  8
0
 10
3856.5968244389669053
 20
266.1205067151939829
 30
0.0
 11
3856.5968244389669053
 21
266.067078641394005
 31
0.0
  0
LINE
  5
110E8
  8
0
 10
3856.5968244389669053
 20
265.7521180113939749
 30
0.0
 11
3856.5968244389669053
 21
265.7127479326940147
 31
0.0
  0
LINE
  5
110E9
  8
0
 10
3856.5968244389669053
 20
265.7521180113939749
 30
0.0
 11
3856.5968244389669053
 21
266.067078641394005
 31
0.0
  0
LINE
  5
110EA
  8
0
 10
3856.5987929428670213
 20
265.7127479326940147
 30
0.0
 11
3856.5987929428670213
 21
265.4962124995939803
 31
0.0
  0
LINE
  5
110EB
  8
0
 10
3856.7464307381678736
 20
266.067078641394005
 30
0.0
 11
3856.7464307381678736
 21
266.3702282476938876
 31
0.0
  0
LINE
  5
110EC
  8
0
 10
3856.8025228474680262
 20
265.7127479326940147
 30
0.0
 11
3856.8025228474680262
 21
265.7521180113939749
 31
0.0
  0
LINE
  5
110ED
  8
0
 10
3856.3428874310670835
 20
265.7718030507940057
 30
0.0
 11
3856.3232023917680635
 21
265.7914880901939796
 31
0.0
  0
LINE
  5
110EE
  8
0
 10
3856.3625724704679669
 20
266.0277085625938867
 30
0.0
 11
3856.3232023917680635
 21
266.067078641394005
 31
0.0
  0
LINE
  5
110EF
  8
0
 10
3856.3232023917680635
 20
266.0277085625938867
 30
0.0
 11
3856.3428874310670835
 21
266.0473936019939742
 31
0.0
  0
LINE
  5
110F0
  8
0
 10
3856.3232023917680635
 20
265.7521180113939749
 30
0.0
 11
3856.3625724704679669
 21
265.7914880901939796
 31
0.0
  0
LINE
  5
110F1
  8
0
 10
3856.4216275885678442
 20
265.4962124995939803
 30
0.0
 11
3851.6086354625681452
 21
265.4962124995939803
 31
0.0
  0
LINE
  5
110F2
  8
0
 10
3856.4216275885678442
 20
265.4962124995939803
 30
0.0
 11
3861.4117850688680846
 21
265.4962124995939803
 31
0.0
  0
LINE
  5
110F3
  8
0
 10
3854.5761079035678449
 20
265.5595276316939817
 30
0.0
 11
3849.4973677460679937
 21
265.5595276316939817
 31
0.0
  0
LINE
  5
110F4
  8
0
 10
3876.1078165649669245
 20
265.597252212993908
 30
0.0
 11
3875.0645094783681088
 21
265.5972522130940092
 31
0.0
  0
LINE
  5
110F5
  8
0
 10
3875.6038795570671027
 20
265.6563073311940002
 30
0.0
 11
3876.0881315255678601
 21
265.6563073311940002
 31
0.0
  0
LINE
  5
110F6
  8
0
 10
3876.4857403882670042
 20
265.6576298223939716
 30
0.0
 11
3876.1904937302679173
 21
265.657629822293984
 31
0.0
  0
LINE
  5
110F7
  8
0
 10
3875.0645094783681088
 20
265.6674723419940278
 30
0.0
 11
3873.568451210666808
 21
265.6674723419940278
 31
0.0
  0
LINE
  5
110F8
  8
0
 10
3872.9779000295679907
 20
265.6674723419940278
 30
0.0
 11
3861.4314701082680585
 21
265.6674723420940154
 31
0.0
  0
LINE
  5
110F9
  8
0
 10
3849.4776827066680198
 20
265.6717323561938997
 30
0.0
 11
3849.4579976673680903
 21
265.6717323561938997
 31
0.0
  0
LINE
  5
110FA
  8
0
 10
3875.6763697145679544
 20
265.6792813839940095
 30
0.0
 11
3876.0043492835679899
 21
265.6792813839940095
 31
0.0
  0
LINE
  5
110FB
  8
0
 10
3856.1460370373679325
 20
265.693062893293984
 30
0.0
 11
3856.3279690880681301
 21
265.693062893293984
 31
0.0
  0
LINE
  5
110FC
  8
0
 10
3856.3618927491679642
 20
265.693062893293984
 30
0.0
 11
3856.4216275885678442
 21
265.693062893293984
 31
0.0
  0
LINE
  5
110FD
  8
0
 10
3876.047148617646144
 20
265.6976459137940196
 30
0.0
 11
3876.166871683068166
 21
265.6976459137940196
 31
0.0
  0
LINE
  5
110FE
  8
0
 10
3875.6763697145679544
 20
265.7068404390939804
 30
0.0
 11
3876.0279713307668317
 21
265.7068404390939804
 31
0.0
  0
LINE
  5
110FF
  8
0
 10
3875.326935899567161
 20
265.707983605593995
 30
0.0
 11
3875.0645094783681088
 21
265.707983605593995
 31
0.0
  0
LINE
  5
11100
  8
0
 10
3875.3204149901680466
 20
265.708995545194
 30
0.0
 11
3873.568451210666808
 21
265.708995545194
 31
0.0
  0
LINE
  5
11101
  8
0
 10
3872.9779000295679907
 20
265.708995545194
 30
0.0
 11
3861.4314701082680585
 21
265.708995545194
 31
0.0
  0
LINE
  5
11102
  8
0
 10
3875.3204149901680466
 20
265.7091928900940161
 30
0.0
 11
3875.3257335328680711
 21
265.7091928900940161
 31
0.0
  0
LINE
  5
11103
  8
0
 10
3875.6763697145679544
 20
265.7091928900940161
 30
0.0
 11
3876.0308129131681198
 21
265.7091928900940161
 31
0.0
  0
LINE
  5
11104
  8
0
 10
3876.0557037063667849
 20
265.7091928900940161
 30
0.0
 11
3876.0684855133681594
 21
265.7091928900940161
 31
0.0
  0
LINE
  5
11105
  8
0
 10
3861.4314701082680585
 20
265.7127479326940147
 30
0.0
 11
3856.3925278122228519
 21
265.712747932693901
 31
0.0
  0
LINE
  5
11106
  8
0
 10
3856.1460370373679325
 20
265.7127479326940147
 30
0.0
 11
3856.1771349844680117
 21
265.7127479326940147
 31
0.0
  0
LINE
  5
11107
  8
0
 10
3856.1771349844680117
 20
265.7127479326940147
 30
0.0
 11
3854.5957929428677744
 21
265.7127479326940147
 31
0.0
  0
LINE
  5
11108
  8
0
 10
3872.9779000295679907
 20
265.7127479325940271
 30
0.0
 11
3873.568451210666808
 21
265.7127479325940271
 31
0.0
  0
LINE
  5
11109
  8
0
 10
3875.6353756200669523
 20
265.7521180113939749
 30
0.0
 11
3856.5968244389669053
 21
265.7521180113939749
 31
0.0
  0
LINE
  5
1110A
  8
0
 10
3856.3232023917680635
 20
265.7521180113939749
 30
0.0
 11
3856.2326512105678376
 21
265.7521180113939749
 31
0.0
  0
LINE
  5
1110B
  8
0
 10
3856.161784674367027
 20
265.7521180113939749
 30
0.0
 11
3854.5957929428677744
 21
265.7521180114940194
 31
0.0
  0
LINE
  5
1110C
  8
0
 10
3849.4776827066680198
 20
265.7521180114940194
 30
0.0
 11
3849.4579976673680903
 21
265.7521180114940194
 31
0.0
  0
LINE
  5
1110D
  8
0
 10
3856.1722348268681344
 20
265.7688873032939796
 30
0.0
 11
3856.2208401868679175
 21
265.7688868268940041
 31
0.0
  0
LINE
  5
1110E
  8
0
 10
3856.3232023917680635
 20
265.7914880901939796
 30
0.0
 11
3854.5957929428677744
 21
265.7914880901939796
 31
0.0
  0
LINE
  5
1110F
  8
0
 10
3856.4058795570681468
 20
265.9095983256939917
 30
0.0
 11
3856.5791079034670474
 21
265.9095983256939917
 31
0.0
  0
LINE
  5
11110
  8
0
 10
3856.4058795570681468
 20
265.9332203729940147
 30
0.0
 11
3856.5791079034670474
 21
265.9332203729940147
 31
0.0
  0
LINE
  5
11111
  8
0
 10
3856.3232023917680635
 20
266.0277085625938867
 30
0.0
 11
3854.5957929428677744
 21
266.0277085625938867
 31
0.0
  0
LINE
  5
11112
  8
0
 10
3849.4776827066680198
 20
266.0277085626939879
 30
0.0
 11
3849.4579976673680903
 21
266.0277085626939879
 31
0.0
  0
LINE
  5
11113
  8
0
 10
3856.3568402578680434
 20
266.0334407752940251
 30
0.0
 11
3856.3625725529668671
 21
266.0334407752940251
 31
0.0
  0
LINE
  5
11114
  8
0
 10
3856.3537747485679574
 20
266.0365062844940098
 30
0.0
 11
3856.3625725437677829
 21
266.0365062844940098
 31
0.0
  0
LINE
  5
11115
  8
0
 10
3856.2208401870680063
 20
266.0473936012940044
 30
0.0
 11
3856.1717619365667815
 21
266.0473936012940044
 31
0.0
  0
LINE
  5
11116
  8
0
 10
3856.3388719450681492
 20
266.0514090880939762
 30
0.0
 11
3856.36257249856817
 21
266.0514090880939762
 31
0.0
  0
LINE
  5
11117
  8
0
 10
3856.3309979292680509
 20
266.0592831037939732
 30
0.0
 11
3856.3625724676680875
 21
266.0592831037939732
 31
0.0
  0
LINE
  5
11118
  8
0
 10
3875.6353756200669523
 20
266.0670786412940174
 30
0.0
 11
3856.5968244389669053
 21
266.067078641394005
 31
0.0
  0
LINE
  5
11119
  8
0
 10
3856.3232023917680635
 20
266.067078641394005
 30
0.0
 11
3856.2326512105678376
 21
266.067078641394005
 31
0.0
  0
LINE
  5
1111A
  8
0
 10
3856.1617850682669086
 20
266.067078641394005
 30
0.0
 11
3854.5957929428677744
 21
266.0670786413938913
 31
0.0
  0
LINE
  5
1111B
  8
0
 10
3872.9779000295679907
 20
266.1064487199939776
 30
0.0
 11
3873.568451210666808
 21
266.1064487199939776
 31
0.0
  0
LINE
  5
1111C
  8
0
 10
3875.3204149901680466
 20
266.1143397495940235
 30
0.0
 11
3873.568451210666808
 21
266.1143397495940235
 31
0.0
  0
LINE
  5
1111D
  8
0
 10
3872.9779000295679907
 20
266.1143397495940235
 30
0.0
 11
3861.4314701082680585
 21
266.1143397496938974
 31
0.0
  0
LINE
  5
1111E
  8
0
 10
3856.7464307381678736
 20
266.1143397496938974
 30
0.0
 11
3856.6593636722668634
 21
266.1143397496938974
 31
0.0
  0
LINE
  5
1111F
  8
0
 10
3856.6168055860680397
 20
266.1143397496938974
 30
0.0
 11
3856.5968244389669053
 21
266.1143397496938974
 31
0.0
  0
LINE
  5
11120
  8
0
 10
3856.1460370373679325
 20
266.126133759493996
 30
0.0
 11
3856.3018649758678293
 21
266.126133759493996
 31
0.0
  0
LINE
  5
11121
  8
0
 10
3876.1258283758679681
 20
266.1458207803939899
 30
0.0
 11
3875.7742267596681813
 21
266.1458207803939899
 31
0.0
  0
LINE
  5
11122
  8
0
 10
3875.3204149901680466
 20
266.1511403953940089
 30
0.0
 11
3875.7026380080678791
 21
266.1511403953940089
 31
0.0
  0
LINE
  5
11123
  8
0
 10
3876.1258283758679681
 20
266.1733798355940053
 30
0.0
 11
3875.7978488068670231
 21
266.1733798354940177
 31
0.0
  0
LINE
  5
11124
  8
0
 10
3856.4058795570681468
 20
266.1933245602940019
 30
0.0
 11
3856.4019425491669608
 21
266.1933245602940019
 31
0.0
  0
LINE
  5
11125
  8
0
 10
3856.4058795570681468
 20
266.1940595900940139
 30
0.0
 11
3856.4019425491669608
 21
266.1940595900940139
 31
0.0
  0
LINE
  5
11126
  8
0
 10
3856.4058795570681468
 20
266.2150394427940228
 30
0.0
 11
3856.4019425491669608
 21
266.2150394427940228
 31
0.0
  0
LINE
  5
11127
  8
0
 10
3856.4058795570681468
 20
266.2186534444940094
 30
0.0
 11
3856.5968244389669053
 21
266.2186534444940094
 31
0.0
  0
LINE
  5
11128
  8
0
 10
3849.4579976673680903
 20
266.2229134584940198
 30
0.0
 11
3849.4776827066680198
 21
266.2229134584940198
 31
0.0
  0
LINE
  5
11129
  8
0
 10
3856.4019425491669608
 20
266.2229134584940198
 30
0.0
 11
3856.5968244389669053
 21
266.2229134584940198
 31
0.0
  0
LINE
  5
1112A
  8
0
 10
3876.1904937302679173
 20
266.2284959639940212
 30
0.0
 11
3876.4857403882670042
 21
266.2284959639940212
 31
0.0
  0
LINE
  5
1112B
  8
0
 10
3856.3391823352671963
 20
265.6915994761940283
 30
0.0
 11
3856.1686401044671584
 21
265.7138565814939852
 31
0.0
  0
LINE
  5
1112C
  8
0
 10
3856.2326512105678376
 20
265.7491781654940155
 30
0.0
 11
3856.3403178600678984
 21
265.7351268192940097
 31
0.0
  0
LINE
  5
1112D
  8
0
 10
3856.1687871677681869
 20
266.1028208089940108
 30
0.0
 11
3856.3597159713681322
 21
266.1362682620938926
 31
0.0
  0
LINE
  5
1112E
  8
0
 10
3856.3403378430680277
 20
266.0811463674940001
 30
0.0
 11
3856.2326512105678376
 21
266.0670915512940269
 31
0.0
  0
LINE
  5
1112F
  8
0
 10
3875.7026380080678791
 20
266.3098506381940069
 30
0.0
 11
3876.1078165649669245
 21
266.3098506381940069
 31
0.0
  0
LINE
  5
11130
  8
0
 10
3849.4776827066680198
 20
266.3469292064939964
 30
0.0
 11
3847.9619346751678677
 21
266.3469292064939964
 31
0.0
  0
LINE
  5
11131
  8
0
 10
3856.766115777566938
 20
266.3899132869939876
 30
0.0
 11
3861.4117850688680846
 21
266.3899132869939876
 31
0.0
  0
LINE
  5
11132
  8
0
 10
3856.3822425491680406
 20
266.3899132869939876
 30
0.0
 11
3854.5957929428677744
 21
266.3899132869939876
 31
0.0
  0
LINE
  5
11133
  8
0
 10
3872.9779000295679907
 20
266.4653202062939954
 30
0.0
 11
3856.5968244389669053
 21
266.465332639793985
 31
0.0
  0
LINE
  5
11134
  8
0
 10
3873.568451210666808
 20
266.473201614793993
 30
0.0
 11
3875.7026380080678791
 21
266.473201614793993
 31
0.0
  0
LINE
  5
11135
  8
0
 10
3854.5761079035678449
 20
266.6855118836938914
 30
0.0
 11
3849.8556354625679887
 21
266.6855118836938914
 31
0.0
  0
LINE
  5
11136
  8
0
 10
3861.3773259970680556
 20
265.7521180113939749
 30
0.0
 11
3861.3773259970680556
 21
265.7127479326940147
 31
0.0
  0
LINE
  5
11137
  8
0
 10
3861.4314701082680585
 20
265.7127479326940147
 30
0.0
 11
3861.4314701082680585
 21
265.515897538994011
 31
0.0
  0
LINE
  5
11138
  8
0
 10
3861.4314701082680585
 20
266.0670786412940174
 30
0.0
 11
3861.4314701082680585
 21
266.3702282475940137
 31
0.0
  0
LINE
  5
11139
  8
0
 10
3847.8831945176680165
 20
270.9312599151938912
 30
0.0
 11
3848.3398874310678366
 21
270.9312599151938912
 31
0.0
  0
LINE
  5
1113A
  8
0
 10
3875.9225483044679095
 20
265.7259725721939958
 30
0.0
 11
3875.6964968458678413
 21
265.9520240307938934
 31
0.0
  0
LINE
  5
1113B
  8
0
 10
3875.7213662987678617
 20
265.9529055137940077
 30
0.0
 11
3875.9242882331682267
 21
265.7499835793939837
 31
0.0
  0
LINE
  5
1113C
  8
0
 10
3876.0000099040680652
 20
265.7978664009939962
 30
0.0
 11
3875.7685994663670499
 21
266.0292768386939883
 31
0.0
  0
LINE
  5
1113D
  8
0
 10
3875.7582990919668191
 20
266.0395772130939918
 30
0.0
 11
3875.7099741792681016
 21
266.0879021257940167
 31
0.0
  0
LINE
  5
1113E
  8
0
 10
3876.03218813356807
 20
265.7661753512940095
 30
0.0
 11
3876.0113890338679994
 21
265.7869744509940233
 31
0.0
  0
LINE
  5
1113F
  8
0
 10
3875.7105182053678618
 20
266.1156841291939941
 30
0.0
 11
3876.0461075586681545
 21
265.780094775793998
 31
0.0
  0
LINE
  5
11140
  8
0
 10
3876.0916798851671956
 20
265.7369770902939763
 30
0.0
 11
3875.7560905317682227
 21
266.0725664435939848
 31
0.0
  0
LINE
  5
11141
  8
0
 10
3875.7026380080678791
 20
266.1511403953940089
 30
0.0
 11
3875.7388068937680146
 21
266.1149715097939747
 31
0.0
  0
LINE
  5
11142
  8
0
 10
3875.7700099568678525
 20
266.086485868193904
 30
0.0
 11
3875.7908090565679231
 21
266.0656867684938902
 31
0.0
  0
LINE
  5
11143
  8
0
 10
3875.8021881863678573
 20
266.0547948184939742
 30
0.0
 11
3876.0335986241680075
 21
265.823384380793982
 31
0.0
  0
LINE
  5
11144
  8
0
 10
3876.0438989984668297
 20
265.8130840063939786
 30
0.0
 11
3876.0922239112678653
 21
265.7647590936940105
 31
0.0
  0
LINE
  5
11145
  8
0
 10
3876.0808317917681052
 20
265.8997557056939058
 30
0.0
 11
3875.8779098572681505
 21
266.1026776400939866
 31
0.0
  0
LINE
  5
11146
  8
0
 10
3875.879649785968013
 20
266.126688647193987
 30
0.0
 11
3876.1057012446681256
 21
265.9006371886940201
 31
0.0
  0
LINE
  5
11147
  8
0
 10
3875.7685994663670499
 20
266.0292768386939883
 30
0.0
 11
3875.7211791103668475
 21
265.9805546230940081
 31
0.0
  0
LINE
  5
11148
  8
0
 10
3875.6964968455681628
 20
265.9777749669939908
 30
0.0
 11
3875.7582990919668191
 21
266.0395772130939918
 31
0.0
  0
LINE
  5
11149
  8
0
 10
3875.7908090565679231
 20
266.0656867684938902
 30
0.0
 11
3875.8518109359679329
 21
266.1266886479940013
 31
0.0
  0
LINE
  5
1114A
  8
0
 10
3875.8500710079670171
 20
266.1026776400939866
 30
0.0
 11
3875.8021881863678573
 21
266.0547948184939742
 31
0.0
  0
LINE
  5
1114B
  8
0
 10
3875.9521270825680404
 20
265.7499835793939837
 30
0.0
 11
3876.0000099040680652
 21
265.7978664009939962
 31
0.0
  0
LINE
  5
1114C
  8
0
 10
3876.0113890338679994
 20
265.7869744509940233
 30
0.0
 11
3875.9503871544679896
 21
265.7259725714940259
 31
0.0
  0
LINE
  5
1114D
  8
0
 10
3876.1057012449678041
 20
265.8748862524939796
 30
0.0
 11
3876.0438989984668297
 21
265.8130840063939786
 31
0.0
  0
LINE
  5
1114E
  8
0
 10
3872.9779000295679907
 20
264.4397107222939098
 30
0.0
 11
3872.9779000295679907
 21
265.7127479325940271
 31
0.0
  0
LINE
  5
1114F
  8
0
 10
3872.9779000295679907
 20
266.1064487199939776
 30
0.0
 11
3872.9779000295679907
 21
267.3794859302939813
 31
0.0
  0
LINE
  5
11150
  8
0
 10
3872.9975850688679202
 20
265.7521180113939749
 30
0.0
 11
3872.9975850688679202
 21
265.7127479325940271
 31
0.0
  0
LINE
  5
11151
  8
0
 10
3872.9975850688679202
 20
266.0670786412940174
 30
0.0
 11
3872.9975850688679202
 21
266.1064487199939776
 31
0.0
  0
LINE
  5
11152
  8
0
 10
3873.5487661712681984
 20
265.7521180113939749
 30
0.0
 11
3873.5487661712681984
 21
265.7127479325940271
 31
0.0
  0
LINE
  5
11153
  8
0
 10
3873.5487661712681984
 20
266.0670786412940174
 30
0.0
 11
3873.5487661712681984
 21
266.1064487199939776
 31
0.0
  0
LINE
  5
11154
  8
0
 10
3873.568451210666808
 20
267.3794859302939813
 30
0.0
 11
3873.568451210666808
 21
266.1064487199939776
 31
0.0
  0
LINE
  5
11155
  8
0
 10
3873.568451210666808
 20
265.7127479325940271
 30
0.0
 11
3873.568451210666808
 21
264.4397107222939098
 31
0.0
  0
LINE
  5
11156
  8
0
 10
3876.0335986241680075
 20
265.823384380793982
 30
0.0
 11
3876.08101898016821
 21
265.8721065963939054
 31
0.0
  0
LINE
  5
11157
  8
0
 10
3875.0645094783681088
 20
265.5972522130940092
 30
0.0
 11
3875.0645094783681088
 21
265.708995545194
 31
0.0
  0
LINE
  5
11158
  8
0
 10
3875.3203657775679858
 20
266.0962072031940124
 30
0.0
 11
3875.3203657775679858
 21
266.0793768695938866
 31
0.0
  0
LINE
  5
11159
  8
0
 10
3875.3203657775679858
 20
265.7398442440940016
 30
0.0
 11
3875.3203657775679858
 21
265.7230139104939894
 31
0.0
  0
LINE
  5
1115A
  8
0
 10
3875.3204149901680466
 20
266.078340819893981
 30
0.0
 11
3875.3204149901680466
 21
266.0670786412940174
 31
0.0
  0
LINE
  5
1115B
  8
0
 10
3875.3204149901680466
 20
265.7521180113939749
 30
0.0
 11
3875.3204149901680466
 21
265.7408851252940281
 31
0.0
  0
LINE
  5
1115C
  8
0
 10
3875.3204149901680466
 20
265.7090297358939779
 30
0.0
 11
3875.3204149901680466
 21
265.7186482151939799
 31
0.0
  0
LINE
  5
1115D
  8
0
 10
3875.3204149901680466
 20
266.0975420337940136
 30
0.0
 11
3875.3204149901680466
 21
266.1511403953940089
 31
0.0
  0
LINE
  5
1115E
  8
0
 10
3875.3817071829680572
 20
265.7394193974939753
 30
0.0
 11
3875.3817071829680572
 21
265.7403069876939981
 31
0.0
  0
LINE
  5
1115F
  8
0
 10
3875.3817071829680572
 20
266.0788896648940067
 30
0.0
 11
3875.3817071829680572
 21
266.0798017162940141
 31
0.0
  0
LINE
  5
11160
  8
0
 10
3875.5841945177680827
 20
265.6774638552939791
 30
0.0
 11
3875.5841945177680827
 21
265.6759923704939865
 31
0.0
  0
LINE
  5
11161
  8
0
 10
3875.6353756200669523
 20
266.0823177450939738
 30
0.0
 11
3875.6353756200669523
 21
266.0670786412940174
 31
0.0
  0
LINE
  5
11162
  8
0
 10
3875.6353756200669523
 20
266.0670786412940174
 30
0.0
 11
3875.6353756200669523
 21
265.7521180113939749
 31
0.0
  0
LINE
  5
11163
  8
0
 10
3875.6353756200669523
 20
265.7521180113939749
 30
0.0
 11
3875.6353756200669523
 21
265.7368789074939741
 31
0.0
  0
LINE
  5
11164
  8
0
 10
3875.6763697145679544
 20
266.0739827023940052
 30
0.0
 11
3875.6763697145679544
 21
265.7068404390939804
 31
0.0
  0
LINE
  5
11165
  8
0
 10
3875.7026380080678791
 20
266.1511403953940089
 30
0.0
 11
3875.7026380080678791
 21
266.473201614793993
 31
0.0
  0
LINE
  5
11166
  8
0
 10
3876.0684855133681594
 20
265.7601714620939788
 30
0.0
 11
3876.0684855133681594
 21
265.7091928900940161
 31
0.0
  0
LINE
  5
11167
  8
0
 10
3876.1078165649669245
 20
265.6759923704939865
 30
0.0
 11
3876.1078165649669245
 21
265.6976459137940196
 31
0.0
  0
LINE
  5
11168
  8
0
 10
3876.1258283759671031
 20
265.7786785171940096
 30
0.0
 11
3876.1258283758679681
 21
266.1458207803939899
 31
0.0
  0
LINE
  5
11169
  8
0
 10
3876.166871683068166
 20
265.6812518695940071
 30
0.0
 11
3876.166871683068166
 21
265.6563073311940002
 31
0.0
  0
LINE
  5
1116A
  8
0
 10
3876.166871683068166
 20
265.6812518695940071
 30
0.0
 11
3876.166871683068166
 21
266.2048739166939981
 31
0.0
  0
LINE
  5
1116B
  8
0
 10
3876.166871683068166
 20
266.2048739167939857
 30
0.0
 11
3876.166871683068166
 21
266.2507955203939787
 31
0.0
  0
LINE
  5
1116C
  8
0
 10
3876.4857403882670042
 20
265.6079300031009893
 30
0.0
 11
3876.4857403882670042
 21
266.2769274996899753
 31
0.0
  0
LINE
  5
1116D
  8
0
 10
3878.0605435378679431
 20
266.2769341578916737
 30
0.0
 11
3878.0605435378679431
 21
265.6079300030938271
 31
0.0
  0
ARC
  5
1116E
  8
0
 10
3848.6705960924678038
 20
236.7859055844940031
 30
0.0
 40
29.5275590550999993
 50
88.5091477174099168
 51
91.4828094054919063
  0
ARC
  5
1116F
  8
0
 10
3848.6705960924678038
 20
236.7859055845939906
 30
0.0
 40
29.5275590550999993
 50
89.9982380012918952
 51
89.9999999998957776
  0
ARC
  5
11170
  8
0
 10
3848.6705960924678038
 20
236.7859055845939906
 30
0.0
 40
29.5275590550999993
 50
88.5091477191040639
 51
88.5108126358036742
  0
ARC
  5
11171
  8
0
 10
3848.6705960924678038
 20
236.7859055845939906
 30
0.0
 40
29.5275590550999993
 50
91.4828093257104911
 51
91.4908522806092463
  0
ARC
  5
11172
  8
0
 10
3849.8556354625679887
 20
268.1815748757938991
 30
0.0
 40
1.4960629920999999
 50
180.0
 51
270.0
  0
ARC
  5
11173
  8
0
 10
3847.9619346751678677
 20
266.4256693639940181
 30
0.0
 40
0.0787401575
 50
179.9999999949990013
 51
269.9999999977072207
  0
ARC
  5
11174
  8
0
 10
3849.4972819673680533
 20
266.0937380628939763
 30
0.0
 40
0.0393700787
 50
183.7828846866190986
 51
240.1440423878759134
  0
ARC
  5
11175
  8
0
 10
3849.4383126279681164
 20
265.6147632636939875
 30
0.0
 40
0.0196850394
 50
270.0
 51
359.9999999998991029
  0
ARC
  5
11176
  8
0
 10
3849.4383126279681164
 20
266.2837909366940039
 30
0.0
 40
0.0196850394
 50
0.0
 51
88.5091477119104155
  0
ARC
  5
11177
  8
0
 10
3847.9028795570679904
 20
266.2837909366940039
 30
0.0
 40
0.0196850394
 50
91.4908496614973359
 51
179.9999999975003107
  0
ARC
  5
11178
  8
0
 10
3847.9028795570679904
 20
265.6147632637939751
 30
0.0
 40
0.0196850394
 50
180.000000007800196
 51
268.2414809619994003
  0
ARC
  5
11179
  8
0
 10
3849.4973677460679937
 20
265.5792126710938987
 30
0.0
 40
0.0196850394
 50
180.0
 51
270.0000000007034942
  0
ARC
  5
1117A
  8
0
 10
3854.5761079035678449
 20
265.5792126710938987
 30
0.0
 40
0.0196850394
 50
270.000000000208388
 51
0.0
  0
ARC
  5
1117B
  8
0
 10
3854.5761079035678449
 20
266.6658268442939743
 30
0.0
 40
0.0196850394
 50
0.0
 51
90.0000000007034942
  0
ARC
  5
1117C
  8
0
 10
3848.3398874310678366
 20
270.9115748757939741
 30
0.0
 40
0.0196850394
 50
0.0
 51
90.0
  0
ARC
  5
1117D
  8
0
 10
3847.9068165649669027
 20
266.2917697929939891
 30
0.0
 40
0.0118110236
 50
91.4828094348918768
 51
180.0000000022000108
  0
ARC
  5
1117E
  8
0
 10
3847.9068165649669027
 20
265.6067422215940041
 30
0.0
 40
0.0118110236
 50
180.0000000019996946
 51
267.9372759304101237
  0
ARC
  5
1117F
  8
0
 10
3847.8950055413679365
 20
266.232755978193893
 30
0.0
 40
0.0118110236
 50
179.9999995504990125
 51
269.9999987836956166
  0
ARC
  5
11180
  8
0
 10
3847.8950055413679365
 20
265.661889836393982
 30
0.0
 40
0.0118110236
 50
90.0000012177113291
 51
180.0000004416990862
  0
ARC
  5
11181
  8
0
 10
3848.6705960925669388
 20
286.8128922318938976
 30
0.0
 40
21.2317110569999983
 50
267.9372759572120231
 51
272.0738386028094169
  0
ARC
  5
11182
  8
0
 10
3848.6705960925669388
 20
286.8128922319939988
 30
0.0
 40
21.2317110569999983
 50
267.9261613967995004
 51
267.9372761701941954
  0
ARC
  5
11183
  8
0
 10
3856.5773528951681328
 20
263.6607603204939778
 30
0.0
 40
2.4850590974000002
 50
89.9595363418014387
 51
94.8670789074019467
  0
ARC
  5
11184
  8
0
 10
3856.5773528951681328
 20
263.6607603204939778
 30
0.0
 40
2.4614370445999998
 50
89.9595376208989137
 51
93.9946837718099744
  0
ARC
  5
11185
  8
0
 10
3856.5791079034670474
 20
266.0277085618939736
 30
0.0
 40
0.1181102362
 50
270.0000000045075126
 51
278.6281697174965757
  0
ARC
  5
11186
  8
0
 10
3856.5791079034670474
 20
266.0277085618939736
 30
0.0
 40
0.1181102362
 50
19.4732498793033209
 51
89.9999999615947956
  0
ARC
  5
11187
  8
0
 10
3856.5791079034670474
 20
266.0277085618939736
 30
0.0
 40
0.094488189
 50
24.6271031270955696
 51
90.0101491908911271
  0
ARC
  5
11188
  8
0
 10
3856.5791079034670474
 20
266.0277085618939736
 30
0.0
 40
0.094488189
 50
269.9999999579991936
 51
280.8091581395894991
  0
ARC
  5
11189
  8
0
 10
3856.3468255919678995
 20
265.7501573273939925
 30
0.0
 40
0.0590606108
 50
262.5687373521928976
 51
0.0011193145997496
  0
ARC
  5
1118A
  8
0
 10
3856.3665094782668348
 20
266.0974887395939845
 30
0.0
 40
0.0393700787
 50
89.999999443905935
 51
99.9364098650099919
  0
ARC
  5
1118B
  8
0
 10
3856.3428634514680198
 20
265.7546667114939964
 30
0.0
 40
0.0197117999
 50
270.0927848511959724
 51
359.9306963869997276
  0
ARC
  5
1118C
  8
0
 10
3856.3428678597679209
 20
266.0616035101940042
 30
0.0
 40
0.0197076356
 50
359.9938050746994804
 51
97.3764799164107018
  0
ARC
  5
1118D
  8
0
 10
3856.766115777566938
 20
266.3702282476938876
 30
0.0
 40
0.0196850394
 50
89.9999999997915552
 51
179.9999999997997122
  0
ARC
  5
1118E
  8
0
 10
3851.6086354625681452
 20
265.515897538994011
 30
0.0
 40
0.0196850394
 50
179.9999999997997122
 51
269.9999999989057073
  0
ARC
  5
1118F
  8
0
 10
3856.3428514460679253
 20
265.7540195551939064
 30
0.0
 40
0.0190618574
 50
262.3619923638048022
 51
270.1320191541079225
  0
ARC
  5
11190
  8
0
 10
3856.2208401869670524
 20
266.0592046248939937
 30
0.0
 40
0.0118110236
 50
270.0000001130010219
 51
359.9999987796994105
  0
ARC
  5
11191
  8
0
 10
3856.2208401869670524
 20
265.7570758032940148
 30
0.0
 40
0.0118110236
 50
0.000001219899967
 51
90.0000004403051861
  0
ARC
  5
11192
  8
0
 10
3856.1722452983681251
 20
265.7584265973940205
 30
0.0
 40
0.0104616582
 50
90.0573552656888836
 51
179.9426490858998875
  0
ARC
  5
11193
  8
0
 10
3856.1696590845681385
 20
266.0949952172940129
 30
0.0
 40
0.0078740157
 50
96.3575968917069332
 51
179.9999966646992107
  0
ARC
  5
11194
  8
0
 10
3856.1696590845681385
 20
265.721664385494023
 30
0.0
 40
0.0078740157
 50
179.9999998390998996
 51
262.564472951194773
  0
ARC
  5
11195
  8
0
 10
3877.2732338876680842
 20
245.0788165880940142
 30
0.0
 40
21.2317110569
 50
87.9261561820504198
 51
92.074340738723194
  0
ARC
  5
11196
  8
0
 10
3876.5054403882668339
 20
266.2769274996899753
 30
0.0
 40
0.0197
 50
92.074340738723194
 51
180.0
  0
ARC
  5
11197
  8
0
 10
3878.0408435378672038
 20
266.2769341578916737
 30
0.0
 40
0.0197
 50
0.0
 51
87.9261561820504198
  0
ARC
  5
11198
  8
0
 10
3861.4117850688680846
 20
266.3702282475940137
 30
0.0
 40
0.0196850394
 50
0.0
 51
89.9999999997915552
  0
ARC
  5
11199
  8
0
 10
3861.4117850688680846
 20
265.515897538994011
 30
0.0
 40
0.0196850394
 50
270.0000000005991865
 51
359.9999999997996838
  0
ARC
  5
1119A
  8
0
 10
3873.2731756200669224
 20
264.1379447829939977
 30
0.0
 40
0.3937007874
 50
143.8710725278016014
 51
36.128927471703193
  0
ARC
  5
1119B
  8
0
 10
3873.6865614468679269
 20
264.4397107222939098
 30
0.0
 40
0.1181102362
 50
179.9999999997997122
 51
216.1289274717032072
  0
ARC
  5
1119C
  8
0
 10
3872.8597897932668275
 20
264.4397107222939098
 30
0.0
 40
0.1181102362
 50
323.871072527801573
 51
359.9999999997996838
  0
ARC
  5
1119D
  8
0
 10
3875.3408628247671004
 20
265.7230139104939894
 30
0.0
 40
0.0204970472
 50
180.0000016448994131
 51
257.7654487105021985
  0
ARC
  5
1119E
  8
0
 10
3875.3326640058671728
 20
265.7398442440940016
 30
0.0
 40
0.0122982283
 50
93.6143180091086577
 51
179.9999974424000015
  0
ARC
  5
1119F
  8
0
 10
3875.3698961593668173
 20
265.7403069876939981
 30
0.0
 40
0.0118110236
 50
0.0000012206001979
 51
90.000000440696013
  0
ARC
  5
111A0
  8
0
 10
3875.3857317231668276
 20
265.7401992910939725
 30
0.0
 40
0.0040994094
 50
190.9671040477986139
 51
262.2404722540049988
  0
ARC
  5
111A1
  8
0
 10
3873.2731756200669224
 20
267.6812518695940071
 30
0.0
 40
0.3937007874
 50
323.871072527801573
 51
216.1289274717032072
  0
ARC
  5
111A2
  8
0
 10
3872.8597897933677814
 20
267.3794859302939813
 30
0.0
 40
0.1181102362
 50
0.0
 51
36.128927471703193
  0
ARC
  5
111A3
  8
0
 10
3873.6865614468679269
 20
267.3794859302939813
 30
0.0
 40
0.1181102362
 50
143.8710725278016014
 51
179.9999999997997122
  0
ARC
  5
111A4
  8
0
 10
3875.3408628247671004
 20
266.0962072031940124
 30
0.0
 40
0.0204970472
 50
102.2345510661082955
 51
179.9999983270000996
  0
ARC
  5
111A5
  8
0
 10
3875.3326640058671728
 20
266.0793768695938866
 30
0.0
 40
0.0122982283
 50
180.0000024733002988
 51
269.9999996595900029
  0
ARC
  5
111A6
  8
0
 10
3875.3698961593668173
 20
266.0788896648940067
 30
0.0
 40
0.0118110236
 50
270.0000001102912961
 51
359.9999987787988971
  0
ARC
  5
111A7
  8
0
 10
3875.3857317231668276
 20
266.0790218225939725
 30
0.0
 40
0.0040994094
 50
97.7607046705965956
 51
169.0328960877000952
  0
ARC
  5
111A8
  8
0
 10
3876.199514244868169
 20
264.7815453866940061
 30
0.0
 40
1.3937836059999991
 50
91.3420009618068462
 51
93.0304980287960888
  0
ARC
  5
111A9
  8
0
 10
3875.5915189385677877
 20
264.7500728836939743
 30
0.0
 40
1.3897604015
 50
87.58472551890776
 51
100.5727981623927008
  0
ARC
  5
111AA
  8
0
 10
3875.5438621292678363
 20
265.2553250110939871
 30
0.0
 40
0.8428340773
 50
84.6947656633017374
 51
100.848426914897999
  0
ARC
  5
111AB
  8
0
 10
3876.1473458196669526
 20
265.7926665544940192
 30
0.0
 40
0.0787401575
 50
225.0121067497946967
 51
273.4116341977002094
  0
ARC
  5
111AC
  8
0
 10
3876.1078165649669245
 20
265.6563073311940002
 30
0.0
 40
0.0590551181
 50
269.999999999791612
 51
359.9999999997996838
  0
ARC
  5
111AD
  8
0
 10
3876.0043492835679899
 20
265.7383365020938868
 30
0.0
 40
0.0590551181
 50
270.0000000033090259
 51
44.9999990894077584
  0
ARC
  5
111AE
  8
0
 10
3876.0043492835679899
 20
265.7383365020938868
 30
0.0
 40
0.0393700787
 50
306.8698976463941221
 51
44.9999991193002771
  0
ARC
  5
111AF
  8
0
 10
3876.1904937302679173
 20
265.6812518695940071
 30
0.0
 40
0.0236220472
 50
180.0000000125992017
 51
270.0000000105001732
  0
ARC
  5
111B0
  8
0
 10
3875.6038795570671027
 20
265.6759923704939865
 30
0.0
 40
0.0196850394
 50
179.9999999997997122
 51
269.999999999791612
  0
ARC
  5
111B1
  8
0
 10
3876.0881315255678601
 20
265.6759923704939865
 30
0.0
 40
0.0196850394
 50
269.999999999791612
 51
359.9999999997996838
  0
ARC
  5
111B2
  8
0
 10
3875.938207657867224
 20
265.7639030043940238
 30
0.0
 40
0.0196850394
 50
225.0000006552068896
 51
314.9999994394058831
  0
ARC
  5
111B3
  8
0
 10
3875.9364677299668074
 20
265.7398919964938955
 30
0.0
 40
0.0196850394
 50
224.9999976626041871
 51
314.9999988547941143
  0
ARC
  5
111B4
  8
0
 10
3876.0669123668681095
 20
265.885836280993999
 30
0.0
 40
0.0196850394
 50
315.775789493190814
 51
44.9999995477996535
  0
ARC
  5
111B5
  8
0
 10
3876.1061433366680831
 20
265.7786785179940239
 30
0.0
 40
0.0196850394
 50
224.9999978525966924
 51
359.9999974289996203
  0
ARC
  5
111B6
  8
0
 10
3876.0928257769678567
 20
265.8877617203939963
 30
0.0
 40
0.0182086614
 50
315.0000001686981932
 51
45.0000010970070932
  0
ARC
  5
111B7
  8
0
 10
3875.6230773916681756
 20
265.7368789074939741
 30
0.0
 40
0.0122982283
 50
263.9999998618986865
 51
0.0000026641001816
  0
ARC
  5
111B8
  8
0
 10
3875.6026838457669328
 20
267.0711158327939074
 30
0.0
 40
1.3937836059999991
 50
258.9908627670876058
 51
273.0304980218035098
  0
ARC
  5
111B9
  8
0
 10
3876.2106791517680904
 20
267.1025883357939961
 30
0.0
 40
1.3897604015
 50
267.5814126931501846
 51
268.1936799312093171
  0
ARC
  5
111BA
  8
0
 10
3875.5439484805679058
 20
266.5638880844940104
 30
0.0
 40
0.8428424701999999
 50
259.1429847554994126
 51
275.2992860250880085
  0
ARC
  5
111BB
  8
0
 10
3875.6548522708681048
 20
266.059994664994008
 30
0.0
 40
0.0787401575
 50
45.0121067437920033
 51
93.4699493574966738
  0
ARC
  5
111BC
  8
0
 10
3876.1078165649669245
 20
266.250795520094016
 30
0.0
 40
0.0590551181
 50
0.0000001437997471
 51
89.9999999997915552
  0
ARC
  5
111BD
  8
0
 10
3875.7978488068670231
 20
266.1143247173940267
 30
0.0
 40
0.0590551181
 50
90.0000000102135971
 51
224.9999990963027869
  0
ARC
  5
111BE
  8
0
 10
3875.7978488068670231
 20
266.1143247173940267
 30
0.0
 40
0.0393700787
 50
126.8698976532967038
 51
224.9999991263001107
  0
ARC
  5
111BF
  8
0
 10
3876.1904937302679173
 20
266.2048739167939857
 30
0.0
 40
0.0236220472
 50
90.0000000120895862
 51
180.000000010899214
  0
ARC
  5
111C0
  8
0
 10
3875.7352857236669479
 20
265.9668249384940282
 30
0.0
 40
0.0196850394
 50
135.7757894861983061
 51
224.9999995409046107
  0
ARC
  5
111C1
  8
0
 10
3875.6960547538678838
 20
266.0739827014940033
 30
0.0
 40
0.0196850394
 50
44.9999978455968517
 51
179.9999974219988985
  0
ARC
  5
111C2
  8
0
 10
3875.863990432567789
 20
266.0887582150940034
 30
0.0
 40
0.0196850394
 50
45.0000006622068227
 51
134.9999994465979967
  0
ARC
  5
111C3
  8
0
 10
3875.8657303604668414
 20
266.1127692228939736
 30
0.0
 40
0.0196850394
 50
44.9999976697963575
 51
134.9999988617950919
  0
ARC
  5
111C4
  8
0
 10
3875.7093723135681103
 20
265.9648994990939741
 30
0.0
 40
0.0182086614
 50
135.0000001619077921
 51
225.0000010900936047
  0
ARC
  5
111C5
  8
0
 10
3875.6230773916681756
 20
266.0823177450939738
 30
0.0
 40
0.0122982283
 50
359.9999973352988718
 51
95.9999994105917551
  0
ARC
  5
111C6
  8
0
 10
3877.2731419631682002
 20
286.8060442440939823
 30
0.0
 40
21.2317110569999983
 50
267.9259077214223908
 51
272.0740922780561277
  0
ARC
  5
111C7
  8
0
 10
3876.5054403882668339
 20
265.6079300031009893
 30
0.0
 40
0.0197
 50
180.0
 51
267.9259077214223908
  0
ARC
  5
111C8
  8
0
 10
3878.0408435378672038
 20
265.6079300030938271
 30
0.0
 40
0.0197
 50
272.0740922780299798
 51
0.0
  0
ARC
  5
111C9
  8
0
 10
3856.1704883605930263
 20
266.056164610446217
 30
0.0
 40
0.0088629903143653
 50
169.1069067575764109
 51
278.2617728894194897
  0
ARC
  5
111CA
  8
0
 10
3849.4642119755189924
 20
266.1940729037120832
 30
0.0
 40
0.0062500926619564
 50
30.6757371377518488
 51
173.8659209065386904
  0
ENDSEC
  0
EOF
