  0
SECTION
  2
HEADER
  9
$ACADVER
  1
AC1009
  9
$INSBASE
 10
3787.3558658350648329
 20
237.8818403277898028
 30
0.0
  9
$EXTMIN
 10
3772.1775753139299923
 20
237.8672729066499016
 30
-0.0015258207003583
  9
$EXTMAX
 10
3802.5877151384270292
 20
316.6973452834138243
 30
0.0000000349246037
  9
$LIMMIN
 10
0.0
 20
0.0
  9
$LIMMAX
 10
11.6929133858000007
 20
8.2677165353999982
  9
$ORTHOMODE
 70
     0
  9
$REGENMODE
 70
     1
  9
$FILLMODE
 70
     1
  9
$QTEXTMODE
 70
     0
  9
$MIRRTEXT
 70
     0
  9
$DRAGMODE
 70
     2
  9
$LTSCALE
 40
0.6431102362
  9
$OSMODE
 70
  4095
  9
$ATTMODE
 70
     1
  9
$TEXTSIZE
 40
0.2
  9
$TRACEWID
 40
0.05
  9
$TEXTSTYLE
  7
STANDARD
  9
$CLAYER
  8
0
  9
$CELTYPE
  6
BYLAYER
  9
$CECOLOR
 62
   256
  9
$DIMSCALE
 40
1.0
  9
$DIMASZ
 40
0.1875
  9
$DIMEXO
 40
0.0625
  9
$DIMDLI
 40
0.4443307087
  9
$DIMRND
 40
0.0
  9
$DIMDLE
 40
0.0
  9
$DIMEXE
 40
0.125
  9
$DIMTP
 40
0.01
  9
$DIMTM
 40
0.01
  9
$DIMTXT
 40
2.0
  9
$DIMCEN
 40
0.1052362205
  9
$DIMTSZ
 40
0.0
  9
$DIMTOL
 70
     1
  9
$DIMLIM
 70
     0
  9
$DIMTIH
 70
     1
  9
$DIMTOH
 70
     1
  9
$DIMSE1
 70
     0
  9
$DIMSE2
 70
     0
  9
$DIMTAD
 70
     0
  9
$DIMZIN
 70
     0
  9
$DIMBLK
  1

  9
$DIMASO
 70
     1
  9
$DIMSHO
 70
     1
  9
$DIMPOST
  1
\X
  9
$DIMAPOST
  1

  9
$DIMALT
 70
     1
  9
$DIMALTD
 70
     2
  9
$DIMALTF
 40
25.3999999999999986
  9
$DIMLFAC
 40
1.0
  9
$DIMTOFL
 70
     0
  9
$DIMTVP
 40
0.0
  9
$DIMTIX
 70
     0
  9
$DIMSOXD
 70
     0
  9
$DIMSAH
 70
     0
  9
$DIMBLK1
  1

  9
$DIMBLK2
  1

  9
$DIMSTYLE
  2
STANDARD
  9
$DIMCLRD
 70
     0
  9
$DIMCLRE
 70
     0
  9
$DIMCLRT
 70
     0
  9
$DIMTFAC
 40
1.0
  9
$DIMGAP
 40
0.09
  9
$LUNITS
 70
     2
  9
$LUPREC
 70
     4
  9
$SKETCHINC
 40
0.1
  9
$FILLETRAD
 40
0.0
  9
$AUNITS
 70
     0
  9
$AUPREC
 70
     0
  9
$MENU
  1
.
  9
$ELEVATION
 40
0.0
  9
$PELEVATION
 40
0.0
  9
$THICKNESS
 40
0.0
  9
$LIMCHECK
 70
     0
  9
$BLIPMODE
 70
     0
  9
$CHAMFERA
 40
0.0
  9
$CHAMFERB
 40
0.0
  9
$SKPOLY
 70
     0
  9
$TDCREATE
 40
2458060.468368056230247
  9
$TDUPDATE
 40
2459527.7555787041783333
  9
$TDINDWG
 40
0.7287454861
  9
$TDUSRTIMER
 40
0.7287454861
  9
$USRTIMER
 70
     1
  9
$ANGBASE
 50
0.0
  9
$ANGDIR
 70
     0
  9
$PDMODE
 70
     0
  9
$PDSIZE
 40
0.3125
  9
$PLINEWID
 40
0.0
  9
$COORDS
 70
     1
  9
$SPLFRAME
 70
     0
  9
$SPLINETYPE
 70
     6
  9
$SPLINESEGS
 70
     8
  9
$ATTDIA
 70
     1
  9
$ATTREQ
 70
     1
  9
$HANDLING
 70
     1
  9
$HANDSEED
  5
10EFC
  9
$SURFTAB1
 70
     6
  9
$SURFTAB2
 70
     6
  9
$SURFTYPE
 70
     6
  9
$SURFU
 70
     6
  9
$SURFV
 70
     6
  9
$UCSNAME
  2

  9
$UCSORG
 10
0.0
 20
0.0
 30
0.0
  9
$UCSXDIR
 10
1.0
 20
0.0
 30
0.0
  9
$UCSYDIR
 10
0.0
 20
1.0
 30
0.0
  9
$PUCSNAME
  2

  9
$PUCSORG
 10
0.0
 20
0.0
 30
0.0
  9
$PUCSXDIR
 10
1.0
 20
0.0
 30
0.0
  9
$PUCSYDIR
 10
0.0
 20
1.0
 30
0.0
  9
$USERI1
 70
     0
  9
$USERI2
 70
     0
  9
$USERI3
 70
     0
  9
$USERI4
 70
     0
  9
$USERI5
 70
     0
  9
$USERR1
 40
0.0
  9
$USERR2
 40
0.0
  9
$USERR3
 40
0.0
  9
$USERR4
 40
0.0
  9
$USERR5
 40
0.0
  9
$WORLDVIEW
 70
     1
  9
$SHADEDGE
 70
     3
  9
$SHADEDIF
 70
    70
  9
$TILEMODE
 70
     1
  9
$MAXACTVP
 70
    64
  9
$PLIMCHECK
 70
     0
  9
$PEXTMIN
 10
1.0000000000000000E+20
 20
1.0000000000000000E+20
 30
1.0000000000000000E+20
  9
$PEXTMAX
 10
-1.0000000000000000E+20
 20
-1.0000000000000000E+20
 30
-1.0000000000000000E+20
  9
$PLIMMIN
 10
0.0
 20
0.0
  9
$PLIMMAX
 10
12.0
 20
9.0
  9
$UNITMODE
 70
     0
  9
$VISRETAIN
 70
     1
  9
$PLINEGEN
 70
     0
  9
$PSLTSCALE
 70
     1
  0
ENDSEC
  0
SECTION
  2
TABLES
  0
TABLE
  2
VPORT
 70
     1
  0
VPORT
  2
*ACTIVE
 70
     0
 10
0.0
 20
0.0
 11
1.0
 21
1.0
 12
143.3068395621158118
 22
117.3380685952342048
 13
0.0
 23
0.0
 14
1.0
 24
1.0
 15
0.0
 25
0.0
 16
0.0
 26
0.0
 36
26.6346482412083887
 17
3644.0758056640620453
 27
159.9442404997975871
 37
0.0
 40
79.589788818572373
 41
2.8393393393393391
 42
50.0
 43
0.0
 44
0.0
 50
0.0
 51
0.0
 71
     0
 72
   100
 73
     1
 74
     1
 75
     0
 76
     0
 77
     0
 78
     0
  0
ENDTAB
  0
TABLE
  2
LTYPE
 70
     2
  0
LTYPE
  2
CONTINUOUS
 70
     0
  3
Solid line
 72
    65
 73
     0
 40
0.0
  0
LTYPE
  2
PHANTOM2
 70
     0
  3
___ _ _ ___ _ _ ___ _ _ ___ _ _
 72
    65
 73
     6
 40
1.25
 49
0.625
 49
-0.125
 49
0.125
 49
-0.125
 49
0.125
 49
-0.125
  0
ENDTAB
  0
TABLE
  2
LAYER
 70
     2
  0
LAYER
  2
0
 70
     0
 62
   255
  6
CONTINUOUS
  0
LAYER
  2
DEFPOINTS
 70
     0
 62
     7
  6
CONTINUOUS
  0
ENDTAB
  0
TABLE
  2
STYLE
 70
     1
  0
STYLE
  2
STANDARD
 70
     0
 40
0.0
 41
0.8
 50
0.0
 71
     0
 42
0.2
  3
txt
  4

  0
ENDTAB
  0
TABLE
  2
VIEW
 70
     0
  0
ENDTAB
  0
TABLE
  2
UCS
 70
     0
  0
ENDTAB
  0
TABLE
  2
APPID
 70
    10
  0
APPID
  2
ACAD
 70
     0
  0
APPID
  2
ACAD_MLEADERVER
 70
     0
  0
APPID
  2
ACAD_EXEMPT_FROM_CAD_STANDARDS
 70
     0
  0
APPID
  2
ACAD_NAV_VCDISPLAY
 70
     0
  0
APPID
  2
ACAECLAYERSTANDARD
 70
     0
  0
APPID
  2
ACCMTRANSPARENCY
 70
     0
  0
APPID
  2
ACAD_DSTYLE_DIMJAG
 70
     0
  0
APPID
  2
ACAD_DSTYLE_DIMTALN
 70
     0
  0
APPID
  2
ACDBATTR
 70
     0
  0
APPID
  2
ACAD_PSEXT
 70
     0
  0
ENDTAB
  0
TABLE
  2
DIMSTYLE
 70
     1
  0
DIMSTYLE
  2
STANDARD
 70
     0
  3

  4

  5

  6

  7

 40
1.0
 41
0.1875
 42
0.0625
 43
0.38
 44
0.125
 45
0.0
 46
0.0
 47
0.01
 48
0.01
140
0.15625
141
0.09
142
0.0
143
25.3999999999999986
144
1.0
145
0.0
146
1.0
147
0.09
 71
     1
 72
     0
 73
     1
 74
     1
 75
     0
 76
     0
 77
     0
 78
     4
170
     0
171
     2
172
     0
173
     0
174
     0
175
     0
176
     0
177
     0
178
     0
  0
ENDTAB
  0
ENDSEC
  0
SECTION
  2
BLOCKS
  0
BLOCK
  8
0
  2
$MODEL_SPACE
 70
     0
 10
0.0
 20
0.0
 30
0.0
  3
$MODEL_SPACE
  1

  0
ENDBLK
  5
21
  8
0
  0
BLOCK
 67
     1
  8
0
  2
$PAPER_SPACE
 70
     0
 10
0.0
 20
0.0
 30
0.0
  3
$PAPER_SPACE
  1

  0
ENDBLK
  5
1D
 67
     1
  8
0
  0
ENDSEC
  0
SECTION
  2
ENTITIES
  0
ATTDEF
  5
AA11
  8
DEFPOINTS
 10
3787.3522567874260858
 20
237.8860445255749028
 30
0.0
 40
0.001
  1
K-1.1922.001
  3

  2
MODELNUMBER
 70
     0
1001
ACDBATTR
1070
     0
1070
     1
  0
ATTDEF
  5
AA12
  8
DEFPOINTS
 10
3787.3522567874260858
 20
237.8843778589082092
 30
0.0
 40
0.001
  1

  3

  2
TRADENAME
 70
     0
1001
ACDBATTR
1070
     0
1070
     1
  0
ATTDEF
  5
AA13
  8
DEFPOINTS
 10
3787.3522567874260858
 20
237.8827111922414872
 30
0.0
 40
0.001
  1
SHOWER DOOR
  3

  2
PRODUCT
 70
     0
1001
ACDBATTR
1070
     0
1070
     1
  0
LINE
  5
10D2C
  8
0
 10
3802.4445863075147827
 20
237.8818403277898028
 30
0.0
 11
3772.2671453626148832
 21
237.8818403277898028
 31
0.0
  0
LINE
  5
10D2D
  8
0
 10
3799.4484603233149755
 20
238.4763285167898914
 30
0.0
 11
3773.841948512314957
 21
238.4763285167898061
 31
0.0
  0
LINE
  5
10D2E
  8
0
 10
3773.841948512314957
 20
238.4842025324898032
 30
0.0
 11
3780.7898304020150135
 21
238.4842025324898032
 31
0.0
  0
LINE
  5
10D2F
  8
0
 10
3780.5457359138149513
 20
238.5117615875898025
 30
0.0
 11
3780.7898326185149926
 21
238.5117615875898025
 31
0.0
  0
LINE
  5
10D30
  8
0
 10
3780.7898304020150135
 20
238.5708167056897935
 30
0.0
 11
3799.4484603233149755
 21
238.5708167056897935
 31
0.0
  0
LINE
  5
10D31
  8
0
 10
3799.4484603233149755
 20
238.6298718237898129
 30
0.0
 11
3780.982743787813888
 21
238.6298718237898129
 31
0.0
  0
LINE
  5
10D32
  8
0
 10
3799.4484603233149755
 20
238.6377458395897975
 30
0.0
 11
3800.5311374886150588
 21
238.6377458395897975
 31
0.0
  0
LINE
  5
10D33
  8
0
 10
3800.4524363583150262
 20
238.9093993828898022
 30
0.0
 11
3780.982743787813888
 21
238.9093993828898022
 31
0.0
  0
LINE
  5
10D34
  8
0
 10
3799.7043658351149134
 20
238.9251474143898122
 30
0.0
 11
3800.4524363583150262
 21
238.9251474143898122
 31
0.0
  0
LINE
  5
10D35
  8
0
 10
3799.7043658351149134
 20
239.1810529261898068
 30
0.0
 11
3780.982743787813888
 21
239.1810529261898068
 31
0.0
  0
LINE
  5
10D36
  8
0
 10
3785.6185705595148647
 20
249.7519190678897871
 30
0.0
 11
3780.982743787813888
 21
249.7519190678897871
 31
0.0
  0
LINE
  5
10D37
  8
0
 10
3780.8055784335151657
 20
249.7519190678897871
 30
0.0
 11
3776.1697516619151429
 21
249.7519190678897871
 31
0.0
  0
LINE
  5
10D38
  8
0
 10
3779.9394367012150724
 20
250.3208167056897935
 30
0.0
 11
3780.8055784335151657
 21
250.3208167056897935
 31
0.0
  0
LINE
  5
10D39
  8
0
 10
3780.5987594816151613
 20
250.3227852096898118
 30
0.0
 11
3780.0674049622148232
 21
250.3227852096898118
 31
0.0
  0
LINE
  5
10D3A
  8
0
 10
3779.9394367012150724
 20
250.3227852096898118
 30
0.0
 11
3780.0674111097150671
 21
250.3227852096898118
 31
0.0
  0
LINE
  5
10D3B
  8
0
 10
3780.5987180778151924
 20
250.3227852096898118
 30
0.0
 11
3780.7465233154148336
 21
250.3227852096898118
 31
0.0
  0
LINE
  5
10D3C
  8
0
 10
3780.0103028430139602
 20
250.3286907214898065
 30
0.0
 11
3779.9394367012150724
 21
250.3286907214898065
 31
0.0
  0
LINE
  5
10D3D
  8
0
 10
3780.0181768587140141
 20
250.3621552883898005
 30
0.0
 11
3780.982743787813888
 21
250.3621552883898005
 31
0.0
  0
LINE
  5
10D3E
  8
0
 10
3780.0181768587140141
 20
251.3070371781898018
 30
0.0
 11
3780.982743787813888
 21
251.3070371781898018
 31
0.0
  0
LINE
  5
10D3F
  8
0
 10
3780.037861898113988
 20
251.3188482017897911
 30
0.0
 11
3780.6284130792150791
 21
251.3188482017897911
 31
0.0
  0
LINE
  5
10D40
  8
0
 10
3780.0103028430139602
 20
251.3247537135898142
 30
0.0
 11
3779.9394367012150724
 21
251.3247537135898142
 31
0.0
  0
LINE
  5
10D41
  8
0
 10
3780.6284130792150791
 20
251.3345962332898011
 30
0.0
 11
3780.037861898113988
 21
251.3345962332898011
 31
0.0
  0
LINE
  5
10D42
  8
0
 10
3779.9394367012150724
 20
251.3444387529897881
 30
0.0
 11
3780.0103028430139602
 21
251.3444387529897881
 31
0.0
  0
LINE
  5
10D43
  8
0
 10
3780.7465233154148336
 20
251.3464072568897905
 30
0.0
 11
3780.5989187369150386
 21
251.3464072568897905
 31
0.0
  0
LINE
  5
10D44
  8
0
 10
3780.5989187369150386
 20
251.3464072568897905
 30
0.0
 11
3780.0674128786149595
 21
251.3464072568897905
 31
0.0
  0
LINE
  5
10D45
  8
0
 10
3779.9394367012150724
 20
251.3464072568897905
 30
0.0
 11
3780.0674128786149595
 21
251.3464072568897905
 31
0.0
  0
LINE
  5
10D46
  8
0
 10
3780.8055784335151657
 20
251.3483757608898088
 30
0.0
 11
3779.9394367012150724
 21
251.3483757608898088
 31
0.0
  0
LINE
  5
10D47
  8
0
 10
3776.1697516619151429
 20
251.9172733985897992
 30
0.0
 11
3780.8055784335151657
 21
251.9172733985897992
 31
0.0
  0
LINE
  5
10D48
  8
0
 10
3780.982743787813888
 20
251.9172733985897992
 30
0.0
 11
3785.6185705595148647
 21
251.9172733985897992
 31
0.0
  0
LINE
  5
10D49
  8
0
 10
3772.2671453626148832
 20
237.8818403277898028
 30
0.0
 11
3772.2671453626148832
 21
316.6023127686897851
 31
0.0
  0
LINE
  5
10D4A
  8
0
 10
3772.2671453626148832
 20
316.6023127686897851
 30
0.0
 11
3772.2671453626148832
 21
316.6810529261898068
 31
0.0
  0
LINE
  5
10D4B
  8
0
 10
3772.2789563863148032
 20
316.6023127686897851
 30
0.0
 11
3772.2789563863148032
 21
316.6613529261898066
 31
0.0
  0
LINE
  5
10D4C
  8
0
 10
3773.841948512314957
 20
316.6613529261898066
 30
0.0
 11
3773.841948512314957
 21
237.8818403277898028
 31
0.0
  0
LINE
  5
10D4D
  8
0
 10
3773.8616335516148865
 20
315.9999505639897848
 30
0.0
 11
3773.8616335516148865
 21
316.6023127686897851
 31
0.0
  0
LINE
  5
10D4E
  8
0
 10
3778.9797437878150959
 20
316.6023127686897851
 30
0.0
 11
3778.9797437878150959
 21
315.9999505639897848
 31
0.0
  0
LINE
  5
10D4F
  8
0
 10
3775.9729012682150824
 20
249.9487694615897908
 30
0.0
 11
3775.9729012682150824
 21
251.7204230048897955
 31
0.0
  0
LINE
  5
10D50
  8
0
 10
3775.9729012682150824
 20
303.7676670993898256
 30
0.0
 11
3775.9729012682150824
 21
305.5393206426898018
 31
0.0
  0
LINE
  5
10D51
  8
0
 10
3779.9394367012150724
 20
305.1672733985898276
 30
0.0
 11
3779.9394367012150724
 21
304.1397143434897998
 31
0.0
  0
LINE
  5
10D52
  8
0
 10
3779.9394367012150724
 20
250.3483757608898088
 30
0.0
 11
3779.9394367012150724
 21
251.3247537135898142
 31
0.0
  0
LINE
  5
10D53
  8
0
 10
3779.9394367012150724
 20
251.3483757608898088
 30
0.0
 11
3779.9394367012150724
 21
250.3208167056897935
 31
0.0
  0
LINE
  5
10D54
  8
0
 10
3779.9394367012150724
 20
304.1672733985898276
 30
0.0
 11
3779.9394367012150724
 21
305.1436513513897921
 31
0.0
  0
LINE
  5
10D55
  8
0
 10
3779.9788067800150202
 20
305.1672733985898276
 30
0.0
 11
3779.9788067800150202
 21
305.1653048946898252
 31
0.0
  0
LINE
  5
10D56
  8
0
 10
3779.9788067800150202
 20
304.1416828474897898
 30
0.0
 11
3779.9788067800150202
 21
304.1397143434897998
 31
0.0
  0
LINE
  5
10D57
  8
0
 10
3779.9788067800150202
 20
251.3483757608898088
 30
0.0
 11
3779.9788067800150202
 21
251.3464072568897905
 31
0.0
  0
LINE
  5
10D58
  8
0
 10
3779.9788067800150202
 20
250.3227852096898118
 30
0.0
 11
3779.9788067800150202
 21
250.3208167056897935
 31
0.0
  0
LINE
  5
10D59
  8
0
 10
3780.0103028430139602
 20
250.3286907214898065
 30
0.0
 11
3780.0103028430139602
 21
251.3444387529897881
 31
0.0
  0
LINE
  5
10D5A
  8
0
 10
3780.0103028430139602
 20
304.1475883592897844
 30
0.0
 11
3780.0103028430139602
 21
305.1633363907898229
 31
0.0
  0
LINE
  5
10D5B
  8
0
 10
3780.0181768587140141
 20
250.3621552883898005
 30
0.0
 11
3780.0181768587140141
 21
251.3070371781898018
 31
0.0
  0
LINE
  5
10D5C
  8
0
 10
3780.0181768587140141
 20
304.1810529261898068
 30
0.0
 11
3780.0181768587140141
 21
305.1259348159898082
 31
0.0
  0
LINE
  5
10D5D
  8
0
 10
3780.037861898113988
 20
305.1534938710897791
 30
0.0
 11
3780.037861898113988
 21
305.1377458395897975
 31
0.0
  0
LINE
  5
10D5E
  8
0
 10
3780.037861898113988
 20
250.3345962332898011
 30
0.0
 11
3780.037861898113988
 21
250.3503442647898112
 31
0.0
  0
LINE
  5
10D5F
  8
0
 10
3780.037861898113988
 20
251.3345962332898011
 30
0.0
 11
3780.037861898113988
 21
251.3188482017897911
 31
0.0
  0
LINE
  5
10D60
  8
0
 10
3780.037861898113988
 20
304.1534938710897791
 30
0.0
 11
3780.037861898113988
 21
304.1692419025898175
 31
0.0
  0
LINE
  5
10D61
  8
0
 10
3780.1876811642141547
 20
250.3208167056897935
 30
0.0
 11
3780.1876811642141547
 21
250.3227852096898118
 31
0.0
  0
LINE
  5
10D62
  8
0
 10
3780.1876811642141547
 20
304.1397143434897998
 30
0.0
 11
3780.1876811642141547
 21
304.1416828474897898
 31
0.0
  0
LINE
  5
10D63
  8
0
 10
3780.1994921878149398
 20
304.1416828474897898
 30
0.0
 11
3780.1994921878149398
 21
304.1397143434897998
 31
0.0
  0
LINE
  5
10D64
  8
0
 10
3780.1994921878149398
 20
250.3227852096898118
 30
0.0
 11
3780.1994921878149398
 21
250.3208167056897935
 31
0.0
  0
LINE
  5
10D65
  8
0
 10
3780.2102044572147861
 20
304.1416828474897898
 30
0.0
 11
3780.2102044572147861
 21
304.1397143434897998
 31
0.0
  0
LINE
  5
10D66
  8
0
 10
3780.2102044572147861
 20
250.3227852096898118
 30
0.0
 11
3780.2102044572147861
 21
250.3208167056897935
 31
0.0
  0
LINE
  5
10D67
  8
0
 10
3780.2362998991138738
 20
251.3464072568897905
 30
0.0
 11
3780.2362998991138738
 21
251.3483757608898088
 31
0.0
  0
LINE
  5
10D68
  8
0
 10
3780.2362998991138738
 20
305.1653048946898252
 30
0.0
 11
3780.2362998991138738
 21
305.1672733985898276
 31
0.0
  0
LINE
  5
10D69
  8
0
 10
3780.2481109227151137
 20
305.1672733985898276
 30
0.0
 11
3780.2481109227151137
 21
305.1653048946898252
 31
0.0
  0
LINE
  5
10D6A
  8
0
 10
3780.2481109227151137
 20
251.3483757608898088
 30
0.0
 11
3780.2481109227151137
 21
251.3464072568897905
 31
0.0
  0
LINE
  5
10D6B
  8
0
 10
3780.2543973312149319
 20
305.1259348159898082
 30
0.0
 11
3780.2543973312149319
 21
304.1810529261898068
 31
0.0
  0
LINE
  5
10D6C
  8
0
 10
3780.2543973312149319
 20
251.3070371781898018
 30
0.0
 11
3780.2543973312149319
 21
250.3621552883898005
 31
0.0
  0
LINE
  5
10D6D
  8
0
 10
3780.2678495991149248
 20
305.1672733985898276
 30
0.0
 11
3780.2678495991149248
 21
305.1653048946898252
 31
0.0
  0
LINE
  5
10D6E
  8
0
 10
3780.2678495991149248
 20
251.3483757608898088
 30
0.0
 11
3780.2678495991149248
 21
251.3464072568897905
 31
0.0
  0
LINE
  5
10D6F
  8
0
 10
3780.3984253782150518
 20
251.3464072568897905
 30
0.0
 11
3780.3984253782150518
 21
251.3483757608898088
 31
0.0
  0
LINE
  5
10D70
  8
0
 10
3780.3984253782150518
 20
305.1653048946898252
 30
0.0
 11
3780.3984253782150518
 21
305.1672733985898276
 31
0.0
  0
LINE
  5
10D71
  8
0
 10
3780.4181640546148628
 20
305.1672733985898276
 30
0.0
 11
3780.4181640546148628
 21
305.1653048946898252
 31
0.0
  0
LINE
  5
10D72
  8
0
 10
3780.4181640546148628
 20
251.3483757608898088
 30
0.0
 11
3780.4181640546148628
 21
251.3464072568897905
 31
0.0
  0
LINE
  5
10D73
  8
0
 10
3780.4299750782151932
 20
305.1672733985898276
 30
0.0
 11
3780.4299750782151932
 21
305.1653048946898252
 31
0.0
  0
LINE
  5
10D74
  8
0
 10
3780.4299750782151932
 20
251.3483757608898088
 30
0.0
 11
3780.4299750782151932
 21
251.3464072568897905
 31
0.0
  0
LINE
  5
10D75
  8
0
 10
3780.4560705201151904
 20
250.3208167056897935
 30
0.0
 11
3780.4560705201151904
 21
250.3227852096898118
 31
0.0
  0
LINE
  5
10D76
  8
0
 10
3780.4560705201151904
 20
304.1397143434897998
 30
0.0
 11
3780.4560705201151904
 21
304.1416828474897898
 31
0.0
  0
LINE
  5
10D77
  8
0
 10
3780.4667827894140828
 20
304.1416828474897898
 30
0.0
 11
3780.4667827894140828
 21
304.1397143434897998
 31
0.0
  0
LINE
  5
10D78
  8
0
 10
3780.4667827894140828
 20
250.3227852096898118
 30
0.0
 11
3780.4667827894140828
 21
250.3208167056897935
 31
0.0
  0
LINE
  5
10D79
  8
0
 10
3780.4785938131149123
 20
304.1416828474897898
 30
0.0
 11
3780.4785938131149123
 21
304.1397143434897998
 31
0.0
  0
LINE
  5
10D7A
  8
0
 10
3780.4785938131149123
 20
250.3227852096898118
 30
0.0
 11
3780.4785938131149123
 21
250.3208167056897935
 31
0.0
  0
LINE
  5
10D7B
  8
0
 10
3780.5457359138149513
 20
238.5117615875898025
 30
0.0
 11
3780.5457359138149513
 21
249.7519190678897871
 31
0.0
  0
LINE
  5
10D7C
  8
0
 10
3780.5457359138149513
 20
251.9172733985897992
 30
0.0
 11
3780.5457359138149513
 21
303.5708167056898219
 31
0.0
  0
LINE
  5
10D7D
  8
0
 10
3780.5457359138149513
 20
305.7361710363898055
 30
0.0
 11
3780.5457359138149513
 21
316.4251474143898122
 31
0.0
  0
LINE
  5
10D7E
  8
0
 10
3780.6284130792150791
 20
305.1534938710897791
 30
0.0
 11
3780.6284130792150791
 21
305.1377458395897975
 31
0.0
  0
LINE
  5
10D7F
  8
0
 10
3780.6284130792150791
 20
250.3345962332898011
 30
0.0
 11
3780.6284130792150791
 21
250.3503442647898112
 31
0.0
  0
LINE
  5
10D80
  8
0
 10
3780.6284130792150791
 20
251.3345962332898011
 30
0.0
 11
3780.6284130792150791
 21
251.3188482017897911
 31
0.0
  0
LINE
  5
10D81
  8
0
 10
3780.6284130792150791
 20
304.1534938710897791
 30
0.0
 11
3780.6284130792150791
 21
304.1692419025898175
 31
0.0
  0
LINE
  5
10D82
  8
0
 10
3780.7071532367149302
 20
238.4842025324898032
 30
0.0
 11
3780.7071532367149302
 21
238.5117615875898025
 31
0.0
  0
LINE
  5
10D83
  8
0
 10
3780.7242674098151838
 20
251.3070371781898018
 30
0.0
 11
3780.7242674098151838
 21
251.3464072568897905
 31
0.0
  0
LINE
  5
10D84
  8
0
 10
3780.7242674098151838
 20
305.1259348159898082
 30
0.0
 11
3780.7242674098151838
 21
305.1653048946898252
 31
0.0
  0
LINE
  5
10D85
  8
0
 10
3780.7465233154148336
 20
305.1672733985898276
 30
0.0
 11
3780.7465233154148336
 21
305.1653048946898252
 31
0.0
  0
LINE
  5
10D86
  8
0
 10
3780.7465233154148336
 20
304.1416828474897898
 30
0.0
 11
3780.7465233154148336
 21
304.1397143434897998
 31
0.0
  0
LINE
  5
10D87
  8
0
 10
3780.7465233154148336
 20
250.3227852096898118
 30
0.0
 11
3780.7465233154148336
 21
250.3621552883898005
 31
0.0
  0
LINE
  5
10D88
  8
0
 10
3780.7465233154148336
 20
251.3070371781898018
 30
0.0
 11
3780.7465233154148336
 21
251.3464072568897905
 31
0.0
  0
LINE
  5
10D89
  8
0
 10
3780.7465233154148336
 20
251.3483757608898088
 30
0.0
 11
3780.7465233154148336
 21
251.3464072568897905
 31
0.0
  0
LINE
  5
10D8A
  8
0
 10
3780.7465233154148336
 20
250.3227852096898118
 30
0.0
 11
3780.7465233154148336
 21
250.3208167056897935
 31
0.0
  0
LINE
  5
10D8B
  8
0
 10
3780.7465233154148336
 20
304.1416828474897898
 30
0.0
 11
3780.7465233154148336
 21
304.1810529261898068
 31
0.0
  0
LINE
  5
10D8C
  8
0
 10
3780.7465233154148336
 20
305.1259348159898082
 30
0.0
 11
3780.7465233154148336
 21
305.1653048946898252
 31
0.0
  0
LINE
  5
10D8D
  8
0
 10
3780.7871216244147945
 20
250.3208167056897935
 30
0.0
 11
3780.7871216030139294
 21
250.3621552883898005
 31
0.0
  0
LINE
  5
10D8E
  8
0
 10
3780.7871211130150186
 20
251.3070371781898018
 30
0.0
 11
3780.7871210916150631
 21
251.3483757608898088
 31
0.0
  0
LINE
  5
10D8F
  8
0
 10
3780.7871218163140838
 20
304.1397143434897998
 30
0.0
 11
3780.7871218163140838
 21
304.1810529261898068
 31
0.0
  0
LINE
  5
10D90
  8
0
 10
3780.7871218151149151
 20
305.1259348159898082
 30
0.0
 11
3780.7871218150148707
 21
305.1672733985898276
 31
0.0
  0
LINE
  5
10D91
  8
0
 10
3780.7898304020150135
 20
316.4251474143898122
 30
0.0
 11
3780.7898304020150135
 21
305.7361710363898055
 31
0.0
  0
LINE
  5
10D92
  8
0
 10
3780.7898304020150135
 20
305.1672733985898276
 30
0.0
 11
3780.7898304020150135
 21
305.1259348159898082
 31
0.0
  0
LINE
  5
10D93
  8
0
 10
3780.7898304020150135
 20
303.5708167056898219
 30
0.0
 11
3780.7898304020150135
 21
251.9172733985897992
 31
0.0
  0
LINE
  5
10D94
  8
0
 10
3780.7898304020150135
 20
251.3483757608898088
 30
0.0
 11
3780.7898304020150135
 21
251.3070371781898018
 31
0.0
  0
LINE
  5
10D95
  8
0
 10
3780.7898304020150135
 20
249.7519190678897871
 30
0.0
 11
3780.7898304020150135
 21
238.5708167056897935
 31
0.0
  0
LINE
  5
10D96
  8
0
 10
3780.7898304020150135
 20
238.5708167056897935
 30
0.0
 11
3780.7898304020150135
 21
238.4763285166897901
 31
0.0
  0
LINE
  5
10D97
  8
0
 10
3780.8055784335151657
 20
249.7519190678897871
 30
0.0
 11
3780.8055784335151657
 21
250.3208167056897935
 31
0.0
  0
LINE
  5
10D98
  8
0
 10
3780.8055784335151657
 20
251.3483757608898088
 30
0.0
 11
3780.8055784335151657
 21
251.9172733985897992
 31
0.0
  0
LINE
  5
10D99
  8
0
 10
3780.8055784335151657
 20
303.5708167056898219
 30
0.0
 11
3780.8055784335151657
 21
304.1397143434897998
 31
0.0
  0
LINE
  5
10D9A
  8
0
 10
3780.8055784335151657
 20
305.1672733985898276
 30
0.0
 11
3780.8055784335151657
 21
305.7361710363898055
 31
0.0
  0
LINE
  5
10D9B
  8
0
 10
3780.9807752839151362
 20
316.4645174930897724
 30
0.0
 11
3780.9807752839151362
 21
305.1259348159898082
 31
0.0
  0
LINE
  5
10D9C
  8
0
 10
3780.982743787813888
 20
250.3621552883898005
 30
0.0
 11
3780.982743787813888
 21
238.5708167056897935
 31
0.0
  0
LINE
  5
10D9D
  8
0
 10
3780.982743787813888
 20
251.3070371781898018
 30
0.0
 11
3780.982743787813888
 21
304.1810529261898068
 31
0.0
  0
LINE
  5
10D9E
  8
0
 10
3781.0811689847150774
 20
238.5708167056897935
 30
0.0
 11
3781.0811689847150774
 21
238.6298718237898129
 31
0.0
  0
LINE
  5
10D9F
  8
0
 10
3797.3028256776151466
 20
272.0353961544897743
 30
0.0
 11
3798.0114272524151602
 21
272.0353961544897743
 31
0.0
  0
LINE
  5
10DA0
  8
0
 10
3785.8154209532149252
 20
305.5393206426898018
 30
0.0
 11
3785.8154209532149252
 21
303.7676670993898256
 31
0.0
  0
LINE
  5
10DA1
  8
0
 10
3785.8154209532149252
 20
251.7204230048897955
 30
0.0
 11
3785.8154209532149252
 21
249.9487694615897908
 31
0.0
  0
LINE
  5
10DA2
  8
0
 10
3798.0114272524151602
 20
283.373978831689783
 30
0.0
 11
3797.3028256776151466
 21
283.373978831689783
 31
0.0
  0
ARC
  5
10DA3
  8
0
 10
3797.3028256776151466
 20
283.3345788316897824
 30
0.0
 40
0.0394
 50
90.0
 51
180.0
  0
LINE
  5
10DA4
  8
0
 10
3797.2634256776150323
 20
272.0747961544897748
 30
0.0
 11
3797.2634256776150323
 21
283.3345788316897824
 31
0.0
  0
ARC
  5
10DA5
  8
0
 10
3797.3028256776151466
 20
272.0747961544897748
 30
0.0
 40
0.0394
 50
180.0
 51
270.0
  0
LINE
  5
10DA6
  8
0
 10
3798.0508272524148197
 20
272.0747961544897748
 30
0.0
 11
3798.0508272524148197
 21
283.3345788316897824
 31
0.0
  0
ARC
  5
10DA7
  8
0
 10
3798.0114272524151602
 20
272.0747961544897748
 30
0.0
 40
0.0394
 50
270.0
 51
0.0
  0
ARC
  5
10DA8
  8
0
 10
3798.0114272524151602
 20
283.3345788316897824
 30
0.0
 40
0.0394
 50
0.0
 51
90.0
  0
LINE
  5
10DA9
  8
0
 10
3799.4484603233149755
 20
238.6377458395897975
 30
0.0
 11
3799.4484603233149755
 21
237.8818403277898028
 31
0.0
  0
LINE
  5
10DAA
  8
0
 10
3799.7043166225148525
 20
239.1810529261898068
 30
0.0
 11
3799.7043166225148525
 21
316.4448324537897861
 31
0.0
  0
LINE
  5
10DAB
  8
0
 10
3799.7043658351149134
 20
238.9251474143898122
 30
0.0
 11
3799.7043658351149134
 21
239.1810529261898068
 31
0.0
  0
LINE
  5
10DAC
  8
0
 10
3800.0193264650151832
 20
316.4645174930897724
 30
0.0
 11
3800.0193264650151832
 21
316.4448324537897861
 31
0.0
  0
LINE
  5
10DAD
  8
0
 10
3800.4524363583150262
 20
238.9093993828898022
 30
0.0
 11
3800.4524363583150262
 21
316.4448324537897861
 31
0.0
  0
LINE
  5
10DAE
  8
0
 10
3800.4756189653148795
 20
238.6377458395897975
 30
0.0
 11
3800.4756189653148795
 21
316.4448324537897861
 31
0.0
  0
LINE
  5
10DAF
  8
0
 10
3800.5508225280150327
 20
316.4802505639897845
 30
0.0
 11
3800.5508225280150327
 21
238.6180608001897951
 31
0.0
  0
LINE
  5
10DB0
  8
0
 10
3800.5508225280150327
 20
238.6180608001897951
 30
0.0
 11
3800.5508225280150327
 21
237.8818403277898028
 31
0.0
  0
LINE
  5
10DB1
  8
0
 10
3800.869783157915208
 20
237.8818403277898028
 30
0.0
 11
3800.869783157915208
 21
316.5432426899898246
 31
0.0
  0
LINE
  5
10DB2
  8
0
 10
3802.4445863075147827
 20
316.5432426899898246
 30
0.0
 11
3802.4445863075147827
 21
237.8818403277898028
 31
0.0
  0
ARC
  5
10DB3
  8
0
 10
3802.4248863075149529
 20
316.5432426899898246
 30
0.0
 40
0.0197
 50
0.0
 51
90.0
  0
LINE
  5
10DB4
  8
0
 10
3785.6185705595148647
 20
303.5708167056898219
 30
0.0
 11
3780.982743787813888
 21
303.5708167056898219
 31
0.0
  0
LINE
  5
10DB5
  8
0
 10
3780.8055784335151657
 20
303.5708167056898219
 30
0.0
 11
3776.1697516619151429
 21
303.5708167056898219
 31
0.0
  0
LINE
  5
10DB6
  8
0
 10
3779.9394367012150724
 20
304.1397143434897998
 30
0.0
 11
3780.8055784335151657
 21
304.1397143434897998
 31
0.0
  0
LINE
  5
10DB7
  8
0
 10
3780.5987594816151613
 20
304.1416828474897898
 30
0.0
 11
3780.0674049622148232
 21
304.1416828474897898
 31
0.0
  0
LINE
  5
10DB8
  8
0
 10
3779.9394367012150724
 20
304.1416828474897898
 30
0.0
 11
3780.0674111097150671
 21
304.1416828474897898
 31
0.0
  0
LINE
  5
10DB9
  8
0
 10
3780.5987180778151924
 20
304.1416828474897898
 30
0.0
 11
3780.7465233154148336
 21
304.1416828474897898
 31
0.0
  0
LINE
  5
10DBA
  8
0
 10
3780.0103028430139602
 20
304.1475883592897844
 30
0.0
 11
3779.9394367012150724
 21
304.1475883592897844
 31
0.0
  0
LINE
  5
10DBB
  8
0
 10
3780.0181768587140141
 20
304.1810529261898068
 30
0.0
 11
3780.982743787813888
 21
304.1810529261898068
 31
0.0
  0
LINE
  5
10DBC
  8
0
 10
3780.0181768587140141
 20
305.1259348159898082
 30
0.0
 11
3780.982743787813888
 21
305.1259348159898082
 31
0.0
  0
LINE
  5
10DBD
  8
0
 10
3780.037861898113988
 20
305.1377458395897975
 30
0.0
 11
3780.6284130792150791
 21
305.1377458395897975
 31
0.0
  0
LINE
  5
10DBE
  8
0
 10
3780.0103028430139602
 20
305.1436513513897921
 30
0.0
 11
3779.9394367012150724
 21
305.1436513513897921
 31
0.0
  0
LINE
  5
10DBF
  8
0
 10
3780.6284130792150791
 20
305.1534938710897791
 30
0.0
 11
3780.037861898113988
 21
305.1534938710897791
 31
0.0
  0
LINE
  5
10DC0
  8
0
 10
3779.9394367012150724
 20
305.1633363907898229
 30
0.0
 11
3780.0103028430139602
 21
305.1633363907898229
 31
0.0
  0
LINE
  5
10DC1
  8
0
 10
3780.7465233154148336
 20
305.1653048946898252
 30
0.0
 11
3780.5989187369150386
 21
305.1653048946898252
 31
0.0
  0
LINE
  5
10DC2
  8
0
 10
3780.5989187369150386
 20
305.1653048946898252
 30
0.0
 11
3780.0674128786149595
 21
305.1653048946898252
 31
0.0
  0
LINE
  5
10DC3
  8
0
 10
3779.9394367012150724
 20
305.1653048946898252
 30
0.0
 11
3780.0674128786149595
 21
305.1653048946898252
 31
0.0
  0
LINE
  5
10DC4
  8
0
 10
3780.8055784335151657
 20
305.1672733985898276
 30
0.0
 11
3779.9394367012150724
 21
305.1672733985898276
 31
0.0
  0
LINE
  5
10DC5
  8
0
 10
3776.1697516619151429
 20
305.7361710363898055
 30
0.0
 11
3780.8055784335151657
 21
305.7361710363898055
 31
0.0
  0
LINE
  5
10DC6
  8
0
 10
3780.982743787813888
 20
305.7361710363898055
 30
0.0
 11
3785.6185705595148647
 21
305.7361710363898055
 31
0.0
  0
LINE
  5
10DC7
  8
0
 10
3778.9010036304139248
 20
315.9212104064898199
 30
0.0
 11
3773.9403737091151925
 21
315.9212104064898199
 31
0.0
  0
LINE
  5
10DC8
  8
0
 10
3780.5457359138149513
 20
316.3857773356897951
 30
0.0
 11
3778.9797437878150959
 21
316.3857773356897951
 31
0.0
  0
LINE
  5
10DC9
  8
0
 10
3773.8616335516148865
 20
316.3857773356897951
 30
0.0
 11
3773.841948512314957
 21
316.3857773356897951
 31
0.0
  0
LINE
  5
10DCA
  8
0
 10
3780.9807752839151362
 20
316.4251474143898122
 30
0.0
 11
3778.9797437878150959
 21
316.4251474143898122
 31
0.0
  0
LINE
  5
10DCB
  8
0
 10
3773.8616335516148865
 20
316.4251474143898122
 30
0.0
 11
3773.841948512314957
 21
316.4251474143898122
 31
0.0
  0
LINE
  5
10DCC
  8
0
 10
3799.7043166225148525
 20
316.4448324537897861
 30
0.0
 11
3800.5508225280150327
 21
316.4448324537897861
 31
0.0
  0
LINE
  5
10DCD
  8
0
 10
3800.0193264650151832
 20
316.4645174930897724
 30
0.0
 11
3780.9807752839151362
 21
316.4645174930897724
 31
0.0
  0
LINE
  5
10DCE
  8
0
 10
3800.5705225280148625
 20
316.4999505639897848
 30
0.0
 11
3800.869783157915208
 21
316.4999505639897848
 31
0.0
  0
ARC
  5
10DCF
  8
0
 10
3800.5705225280148625
 20
316.4802505639897845
 30
0.0
 40
0.0197
 50
90.0
 51
180.0
  0
LINE
  5
10DD0
  8
0
 10
3802.4248863075149529
 20
316.5629426899898249
 30
0.0
 11
3800.8894831579150377
 21
316.5629426899898249
 31
0.0
  0
ARC
  5
10DD1
  8
0
 10
3800.8894831579150377
 20
316.5432426899898246
 30
0.0
 40
0.0197
 50
90.0
 51
180.0
  0
LINE
  5
10DD2
  8
0
 10
3772.2887840232151575
 20
316.6023127686897851
 30
0.0
 11
3773.841948512314957
 21
316.6023127686897851
 31
0.0
  0
LINE
  5
10DD3
  8
0
 10
3773.841948512314957
 20
316.6023127686897851
 30
0.0
 11
3772.2671453626148832
 21
316.6023127686897851
 31
0.0
  0
LINE
  5
10DD4
  8
0
 10
3772.2671453626148832
 20
316.6810529261898068
 30
0.0
 11
3778.9010036304139248
 21
316.6810529261898068
 31
0.0
  0
ARC
  5
10DD5
  8
0
 10
3772.2986563863150877
 20
316.6613529261898066
 30
0.0
 40
0.0197
 50
90.0
 51
180.0
  0
ARC
  5
10DD6
  8
0
 10
3773.8222485123151273
 20
316.6613529261898066
 30
0.0
 40
0.0197
 50
0.0
 51
90.0
  0
ARC
  5
10DD7
  8
0
 10
3776.1697516619151429
 20
251.7204230048897955
 30
0.0
 40
0.1968503937
 50
90.0
 51
180.0
  0
ARC
  5
10DD8
  8
0
 10
3776.1697516619151429
 20
249.9487694615897908
 30
0.0
 40
0.1968503937
 50
180.0
 51
270.0
  0
ARC
  5
10DD9
  8
0
 10
3780.6166020556152034
 20
250.3345962332898011
 30
0.0
 40
0.0118110236
 50
270.0
 51
0.0
  0
ARC
  5
10DDA
  8
0
 10
3780.0496729217147731
 20
250.3345962332898011
 30
0.0
 40
0.0118110236
 50
180.0
 51
270.0
  0
ARC
  5
10DDB
  8
0
 10
3780.6166020556152034
 20
250.3503442647898112
 30
0.0
 40
0.0118110236
 50
0.0
 51
90.0
  0
ARC
  5
10DDC
  8
0
 10
3780.0496729217147731
 20
250.3503442647898112
 30
0.0
 40
0.0118110236
 50
90.0
 51
180.0
  0
ARC
  5
10DDD
  8
0
 10
3780.0496729217147731
 20
251.3345962332898011
 30
0.0
 40
0.0118110236
 50
90.0
 51
180.0
  0
ARC
  5
10DDE
  8
0
 10
3780.6166020556152034
 20
251.3345962332898011
 30
0.0
 40
0.0118110236
 50
0.0
 51
90.0
  0
ARC
  5
10DDF
  8
0
 10
3780.0496729217147731
 20
251.3188482017897911
 30
0.0
 40
0.0118110236
 50
180.0
 51
270.0
  0
ARC
  5
10DE0
  8
0
 10
3780.6166020556152034
 20
251.3188482017897911
 30
0.0
 40
0.0118110236
 50
270.0
 51
0.0
  0
ARC
  5
10DE1
  8
0
 10
3776.1697516619151429
 20
305.5393206426898018
 30
0.0
 40
0.1968503937
 50
90.0
 51
180.0
  0
ARC
  5
10DE2
  8
0
 10
3776.1697516619151429
 20
303.7676670993898256
 30
0.0
 40
0.1968503937
 50
180.0
 51
270.0
  0
ARC
  5
10DE3
  8
0
 10
3773.9403737091151925
 20
315.9999505639897848
 30
0.0
 40
0.0787401575
 50
180.0
 51
270.0
  0
ARC
  5
10DE4
  8
0
 10
3778.9010036304139248
 20
315.9999505639897848
 30
0.0
 40
0.0787401575
 50
270.0
 51
0.0
  0
ARC
  5
10DE5
  8
0
 10
3773.9403737091151925
 20
316.6023127686897851
 30
0.0
 40
0.0787401575
 50
90.0
 51
180.0
  0
ARC
  5
10DE6
  8
0
 10
3778.9010036304139248
 20
316.6023127686897851
 30
0.0
 40
0.0787401575
 50
0.0
 51
90.0
  0
ARC
  5
10DE7
  8
0
 10
3780.6166020556152034
 20
304.1534938710897791
 30
0.0
 40
0.0118110236
 50
270.0
 51
0.0
  0
ARC
  5
10DE8
  8
0
 10
3780.0496729217147731
 20
304.1534938710897791
 30
0.0
 40
0.0118110236
 50
180.0
 51
270.0
  0
ARC
  5
10DE9
  8
0
 10
3780.6166020556152034
 20
304.1692419025898175
 30
0.0
 40
0.0118110236
 50
0.0
 51
90.0
  0
ARC
  5
10DEA
  8
0
 10
3780.0496729217147731
 20
304.1692419025898175
 30
0.0
 40
0.0118110236
 50
90.0
 51
180.0
  0
ARC
  5
10DEB
  8
0
 10
3780.0496729217147731
 20
305.1534938710897791
 30
0.0
 40
0.0118110236
 50
90.0
 51
180.0
  0
ARC
  5
10DEC
  8
0
 10
3780.6166020556152034
 20
305.1534938710897791
 30
0.0
 40
0.0118110236
 50
0.0
 51
90.0
  0
ARC
  5
10DED
  8
0
 10
3780.0496729217147731
 20
305.1377458395897975
 30
0.0
 40
0.0118110236
 50
180.0
 51
270.0
  0
ARC
  5
10DEE
  8
0
 10
3780.6166020556152034
 20
305.1377458395897975
 30
0.0
 40
0.0118110236
 50
270.0
 51
0.0
  0
ARC
  5
10DEF
  8
0
 10
3785.6185705595148647
 20
249.9487694615897908
 30
0.0
 40
0.1968503937
 50
270.0
 51
0.0
  0
ARC
  5
10DF0
  8
0
 10
3785.6185705595148647
 20
251.7204230048897955
 30
0.0
 40
0.1968503937
 50
0.0
 51
90.0
  0
ARC
  5
10DF1
  8
0
 10
3800.5311374886150588
 20
238.6180608001897951
 30
0.0
 40
0.0196850394
 50
0.0
 51
90.0
  0
ARC
  5
10DF2
  8
0
 10
3785.6185705595148647
 20
303.7676670993898256
 30
0.0
 40
0.1968503937
 50
270.0
 51
0.0
  0
ARC
  5
10DF3
  8
0
 10
3785.6185705595148647
 20
305.5393206426898018
 30
0.0
 40
0.1968503937
 50
0.0
 51
90.0
  0
LINE
  5
10DF4
  8
0
 10
3773.8222634729149831
 20
316.6808239598898922
 30
0.0
 11
3773.8221550701150591
 21
316.6810526276897804
 31
0.0
  0
ENDSEC
  0
EOF
