  0
SECTION
  2
HEADER
  9
$ACADVER
  1
AC1009
  9
$INSBASE
 10
4577.3360347771376837
 20
377.799301913203692
 30
0.0
  9
$EXTMIN
 10
4557.6509954231078154
 20
362.8386723960152267
 30
0.0
  9
$EXTMAX
 10
4597.0210741632090503
 20
392.7599322385153187
 30
0.0
  9
$LIMMIN
 10
0.0
 20
0.0
  9
$LIMMAX
 10
11.6929133858000007
 20
8.2677165353999982
  9
$ORTHOMODE
 70
     0
  9
$REGENMODE
 70
     1
  9
$FILLMODE
 70
     1
  9
$QTEXTMODE
 70
     0
  9
$MIRRTEXT
 70
     0
  9
$DRAGMODE
 70
     2
  9
$LTSCALE
 40
0.6431102362
  9
$OSMODE
 70
  4095
  9
$ATTMODE
 70
     1
  9
$TEXTSIZE
 40
0.2
  9
$TRACEWID
 40
0.05
  9
$TEXTSTYLE
  7
STANDARD
  9
$CLAYER
  8
0
  9
$CELTYPE
  6
BYLAYER
  9
$CECOLOR
 62
   256
  9
$DIMSCALE
 40
1.0
  9
$DIMASZ
 40
0.1875
  9
$DIMEXO
 40
0.0625
  9
$DIMDLI
 40
0.4443307087
  9
$DIMRND
 40
0.0
  9
$DIMDLE
 40
0.0
  9
$DIMEXE
 40
0.125
  9
$DIMTP
 40
0.01
  9
$DIMTM
 40
0.01
  9
$DIMTXT
 40
2.0
  9
$DIMCEN
 40
0.1052362205
  9
$DIMTSZ
 40
0.0
  9
$DIMTOL
 70
     1
  9
$DIMLIM
 70
     0
  9
$DIMTIH
 70
     1
  9
$DIMTOH
 70
     1
  9
$DIMSE1
 70
     0
  9
$DIMSE2
 70
     0
  9
$DIMTAD
 70
     0
  9
$DIMZIN
 70
     0
  9
$DIMBLK
  1

  9
$DIMASO
 70
     1
  9
$DIMSHO
 70
     1
  9
$DIMPOST
  1
\X
  9
$DIMAPOST
  1

  9
$DIMALT
 70
     1
  9
$DIMALTD
 70
     2
  9
$DIMALTF
 40
25.3999999999999986
  9
$DIMLFAC
 40
1.0
  9
$DIMTOFL
 70
     0
  9
$DIMTVP
 40
0.0
  9
$DIMTIX
 70
     0
  9
$DIMSOXD
 70
     0
  9
$DIMSAH
 70
     0
  9
$DIMBLK1
  1

  9
$DIMBLK2
  1

  9
$DIMSTYLE
  2
STANDARD
  9
$DIMCLRD
 70
     0
  9
$DIMCLRE
 70
     0
  9
$DIMCLRT
 70
     0
  9
$DIMTFAC
 40
1.0
  9
$DIMGAP
 40
0.09
  9
$LUNITS
 70
     2
  9
$LUPREC
 70
     4
  9
$SKETCHINC
 40
0.1
  9
$FILLETRAD
 40
0.0
  9
$AUNITS
 70
     0
  9
$AUPREC
 70
     0
  9
$MENU
  1
.
  9
$ELEVATION
 40
0.0
  9
$PELEVATION
 40
0.0
  9
$THICKNESS
 40
0.0
  9
$LIMCHECK
 70
     0
  9
$BLIPMODE
 70
     0
  9
$CHAMFERA
 40
0.0
  9
$CHAMFERB
 40
0.0
  9
$SKPOLY
 70
     0
  9
$TDCREATE
 40
2458060.468368056230247
  9
$TDUPDATE
 40
2459872.4785416671074927
  9
$TDINDWG
 40
0.4823681713
  9
$TDUSRTIMER
 40
0.4823681713
  9
$USRTIMER
 70
     1
  9
$ANGBASE
 50
0.0
  9
$ANGDIR
 70
     0
  9
$PDMODE
 70
     0
  9
$PDSIZE
 40
0.3125
  9
$PLINEWID
 40
0.0
  9
$COORDS
 70
     1
  9
$SPLFRAME
 70
     0
  9
$SPLINETYPE
 70
     6
  9
$SPLINESEGS
 70
     8
  9
$ATTDIA
 70
     1
  9
$ATTREQ
 70
     1
  9
$HANDLING
 70
     1
  9
$HANDSEED
  5
1C78A
  9
$SURFTAB1
 70
     6
  9
$SURFTAB2
 70
     6
  9
$SURFTYPE
 70
     6
  9
$SURFU
 70
     6
  9
$SURFV
 70
     6
  9
$UCSNAME
  2

  9
$UCSORG
 10
0.0
 20
0.0
 30
0.0
  9
$UCSXDIR
 10
1.0
 20
0.0
 30
0.0
  9
$UCSYDIR
 10
0.0
 20
1.0
 30
0.0
  9
$PUCSNAME
  2

  9
$PUCSORG
 10
0.0
 20
0.0
 30
0.0
  9
$PUCSXDIR
 10
1.0
 20
0.0
 30
0.0
  9
$PUCSYDIR
 10
0.0
 20
1.0
 30
0.0
  9
$USERI1
 70
     0
  9
$USERI2
 70
     0
  9
$USERI3
 70
     0
  9
$USERI4
 70
     0
  9
$USERI5
 70
     0
  9
$USERR1
 40
0.0
  9
$USERR2
 40
0.0
  9
$USERR3
 40
0.0
  9
$USERR4
 40
0.0
  9
$USERR5
 40
0.0
  9
$WORLDVIEW
 70
     1
  9
$SHADEDGE
 70
     3
  9
$SHADEDIF
 70
    70
  9
$TILEMODE
 70
     1
  9
$MAXACTVP
 70
    64
  9
$PLIMCHECK
 70
     0
  9
$PEXTMIN
 10
1.0000000000000000E+20
 20
1.0000000000000000E+20
 30
1.0000000000000000E+20
  9
$PEXTMAX
 10
-1.0000000000000000E+20
 20
-1.0000000000000000E+20
 30
-1.0000000000000000E+20
  9
$PLIMMIN
 10
0.0
 20
0.0
  9
$PLIMMAX
 10
12.0
 20
9.0
  9
$UNITMODE
 70
     0
  9
$VISRETAIN
 70
     1
  9
$PLINEGEN
 70
     0
  9
$PSLTSCALE
 70
     1
  0
ENDSEC
  0
SECTION
  2
TABLES
  0
TABLE
  2
VPORT
 70
     1
  0
VPORT
  2
*ACTIVE
 70
     0
 10
0.0
 20
0.0
 11
1.0
 21
1.0
 12
666.0738479294494709
 22
245.5252243452727043
 13
0.0
 23
0.0
 14
1.0
 24
1.0
 15
0.0
 25
0.0
 16
0.0
 26
0.0
 36
60.4960186965801583
 17
3911.3653564453120453
 27
132.5796051025390057
 37
0.0
 40
30.7241712833903797
 41
1.5824829931972779
 42
50.0
 43
0.0
 44
0.0
 50
0.0
 51
0.0
 71
     0
 72
   100
 73
     1
 74
     1
 75
     0
 76
     0
 77
     0
 78
     0
  0
ENDTAB
  0
TABLE
  2
LTYPE
 70
     2
  0
LTYPE
  2
CONTINUOUS
 70
     0
  3
Solid line
 72
    65
 73
     0
 40
0.0
  0
LTYPE
  2
PHANTOM2
 70
     0
  3
___ _ _ ___ _ _ ___ _ _ ___ _ _
 72
    65
 73
     6
 40
1.25
 49
0.625
 49
-0.125
 49
0.125
 49
-0.125
 49
0.125
 49
-0.125
  0
ENDTAB
  0
TABLE
  2
LAYER
 70
     2
  0
LAYER
  2
0
 70
     0
 62
   255
  6
CONTINUOUS
  0
LAYER
  2
DEFPOINTS
 70
     0
 62
     7
  6
CONTINUOUS
  0
ENDTAB
  0
TABLE
  2
STYLE
 70
     1
  0
STYLE
  2
STANDARD
 70
     0
 40
0.0
 41
0.8
 50
0.0
 71
     0
 42
0.2
  3
txt
  4

  0
ENDTAB
  0
TABLE
  2
VIEW
 70
     0
  0
ENDTAB
  0
TABLE
  2
UCS
 70
     0
  0
ENDTAB
  0
TABLE
  2
APPID
 70
    10
  0
APPID
  2
ACAD
 70
     0
  0
APPID
  2
ACAD_MLEADERVER
 70
     0
  0
APPID
  2
ACAD_EXEMPT_FROM_CAD_STANDARDS
 70
     0
  0
APPID
  2
ACAD_NAV_VCDISPLAY
 70
     0
  0
APPID
  2
ACAECLAYERSTANDARD
 70
     0
  0
APPID
  2
ACCMTRANSPARENCY
 70
     0
  0
APPID
  2
ACAD_DSTYLE_DIMJAG
 70
     0
  0
APPID
  2
ACAD_DSTYLE_DIMTALN
 70
     0
  0
APPID
  2
ACDBATTR
 70
     0
  0
APPID
  2
ACADANNOTATIVE
 70
     0
  0
ENDTAB
  0
TABLE
  2
DIMSTYLE
 70
     1
  0
DIMSTYLE
  2
STANDARD
 70
     0
  3

  4

  5

  6

  7

 40
1.0
 41
0.1875
 42
0.0625
 43
0.38
 44
0.125
 45
0.0
 46
0.0
 47
0.01
 48
0.01
140
0.15625
141
0.09
142
0.0
143
25.3999999999999986
144
1.0
145
0.0
146
1.0
147
0.09
 71
     1
 72
     0
 73
     1
 74
     1
 75
     0
 76
     0
 77
     0
 78
     4
170
     0
171
     2
172
     0
173
     0
174
     0
175
     0
176
     0
177
     0
178
     0
  0
ENDTAB
  0
ENDSEC
  0
SECTION
  2
BLOCKS
  0
BLOCK
  8
0
  2
$MODEL_SPACE
 70
     0
 10
0.0
 20
0.0
 30
0.0
  3
$MODEL_SPACE
  1

  0
ENDBLK
  5
21
  8
0
  0
BLOCK
 67
     1
  8
0
  2
$PAPER_SPACE
 70
     0
 10
0.0
 20
0.0
 30
0.0
  3
$PAPER_SPACE
  1

  0
ENDBLK
  5
1D
 67
     1
  8
0
  0
ENDSEC
  0
SECTION
  2
ENTITIES
  0
ATTDEF
  5
159BF
  8
0
 10
4577.3323696836296222
 20
377.7934611188853182
 30
0.0
 40
0.001
  1
K-1.1824.015.AS
  3

  2
MODELNUMBER
 70
     0
1001
ACDBATTR
1070
     0
1070
     1
  0
ATTDEF
  5
159C0
  8
0
 10
4577.3322438739733116
 20
377.7917942785060745
 30
0.0
 40
0.001
  1

  3

  2
TRADENAME
 70
     0
1001
ACDBATTR
1070
     0
1070
     1
  0
ATTDEF
  5
159C1
  8
0
 10
4577.3323696836296222
 20
377.7901277855519879
 30
0.0
 40
0.001
  1
SHOWER TRAY
  3

  2
PRODUCT
 70
     0
1001
ACDBATTR
1070
     0
1070
     1
  0
LINE
  5
1C630
  8
0
 10
4557.9657709070270357
 20
392.759932238515205
 30
0.0
 11
4596.7062986468226882
 21
392.759932238515205
 31
0.0
  0
LINE
  5
1C631
  8
0
 10
4557.6509954231087249
 20
363.1534454732534982
 30
0.0
 11
4557.6509954231087249
 21
392.4451567546256001
 31
0.0
  0
LINE
  5
1C632
  8
0
 10
4597.0210741632072313
 20
363.1534455058911135
 30
0.0
 11
4597.0210741632072313
 21
392.4451583205163274
 31
0.0
  0
LINE
  5
1C633
  8
0
 10
4596.7063020281939316
 20
362.8386723960152267
 30
0.0
 11
4557.9657675260814358
 21
362.8386723960152267
 31
0.0
  0
ARC
  5
1C635
  8
0
 10
4557.9658095154682087
 20
392.4451181461558917
 30
0.0
 40
0.3148140947268176
 50
90.0070266889129869
 51
179.9929733058075954
  0
ARC
  5
1C636
  8
0
 10
4596.7062600546651083
 20
392.4451181297724247
 30
0.0
 40
0.3148141111082595
 50
0.007314665788398
 51
89.9929762750114577
  0
ARC
  5
1C637
  8
0
 10
4596.7062617454466817
 20
363.1534848136532219
 30
0.0
 40
0.3148124202151832
 50
270.007331449473611
 51
359.9928459973932036
  0
ARC
  5
1C638
  8
0
 10
4557.9658078249976825
 20
363.1534847977820846
 30
0.0
 40
0.3148124043461933
 50
180.0071570544670863
 51
269.9926656070812783
  0
LINE
  5
1C639
  8
0
 10
4562.8412507132079554
 20
390.0161699292152093
 30
0.0
 11
4568.0033561833088243
 21
390.009589725015303
 31
0.0
  0
LINE
  5
1C63A
  8
0
 10
4568.0033561833088243
 20
390.009589725015303
 30
0.0
 11
4591.7937408277075519
 21
390.0095902654152269
 31
0.0
  0
LINE
  5
1C63B
  8
0
 10
4594.2707285680080531
 20
387.5325968055151975
 30
0.0
 11
4594.2707300620077149
 21
368.0660066814152174
 31
0.0
  0
LINE
  5
1C63C
  8
0
 10
4591.7937407400077063
 20
365.5890133319152255
 30
0.0
 11
4568.0033561402078703
 21
365.5890212832151747
 31
0.0
  0
LINE
  5
1C63D
  8
0
 10
4568.0033561402078703
 20
365.5890212832151747
 30
0.0
 11
4562.8412774901071316
 21
365.582407310215217
 31
0.0
  0
LINE
  5
1C63E
  8
0
 10
4560.3936952454077982
 20
368.0298693700152057
 30
0.0
 11
4560.3936940367084389
 21
387.5687407734151861
 31
0.0
  0
ARC
  5
1C63F
  8
0
 10
4562.7557922004070861
 20
387.6540762149198258
 30
0.0
 40
2.3636391163890371
 50
87.9279918488755214
 51
182.0690228930658066
  0
ARC
  5
1C640
  8
0
 10
4562.7558375829812576
 20
367.944545455132527
 30
0.0
 40
2.363682845350298
 50
177.9312949893107998
 51
272.0715185041157724
  0
ARC
  5
1C641
  8
0
 10
4591.9053866490712608
 20
367.9543569263876179
 30
0.0
 40
2.367977011907469
 50
267.2976039412696991
 51
2.7024892196125512
  0
ARC
  5
1C642
  8
0
 10
4591.9053889343931587
 20
387.6442503739880863
 30
0.0
 40
2.367973416595484
 50
357.297414300793605
 51
92.7024533979742387
  0
CIRCLE
  5
1C643
  8
0
 10
4590.5250111712075523
 20
377.799302317215222
 30
0.0
 40
1.7716535432999969
  0
CIRCLE
  5
1C644
  8
0
 10
4590.5250111712075523
 20
377.799302317215222
 30
0.0
 40
2.234188334800002
  0
ENDSEC
  0
EOF
