  0
SECTION
  2
HEADER
  9
$ACADVER
  1
AC1009
  9
$INSBASE
 10
4044.6640138863172069
 20
62.7573635524348106
 30
0.0
  9
$EXTMIN
 10
4032.9921169987787835
 20
62.7501247455685416
 30
-0.0000000349181948
  9
$EXTMAX
 10
4047.1953980217708704
 20
106.1760685761842069
 30
0.0000000814935746
  9
$LIMMIN
 10
0.0
 20
0.0
  9
$LIMMAX
 10
11.6929133858000007
 20
8.2677165353999982
  9
$ORTHOMODE
 70
     0
  9
$REGENMODE
 70
     1
  9
$FILLMODE
 70
     1
  9
$QTEXTMODE
 70
     0
  9
$MIRRTEXT
 70
     0
  9
$DRAGMODE
 70
     2
  9
$LTSCALE
 40
0.6431102362
  9
$OSMODE
 70
  4095
  9
$ATTMODE
 70
     1
  9
$TEXTSIZE
 40
0.2
  9
$TRACEWID
 40
0.05
  9
$TEXTSTYLE
  7
STANDARD
  9
$CLAYER
  8
0
  9
$CELTYPE
  6
BYLAYER
  9
$CECOLOR
 62
   256
  9
$DIMSCALE
 40
1.0
  9
$DIMASZ
 40
0.1875
  9
$DIMEXO
 40
0.0625
  9
$DIMDLI
 40
0.4443307087
  9
$DIMRND
 40
0.0
  9
$DIMDLE
 40
0.0
  9
$DIMEXE
 40
0.125
  9
$DIMTP
 40
0.01
  9
$DIMTM
 40
0.01
  9
$DIMTXT
 40
2.0
  9
$DIMCEN
 40
0.1052362205
  9
$DIMTSZ
 40
0.0
  9
$DIMTOL
 70
     1
  9
$DIMLIM
 70
     0
  9
$DIMTIH
 70
     1
  9
$DIMTOH
 70
     1
  9
$DIMSE1
 70
     0
  9
$DIMSE2
 70
     0
  9
$DIMTAD
 70
     0
  9
$DIMZIN
 70
     0
  9
$DIMBLK
  1

  9
$DIMASO
 70
     1
  9
$DIMSHO
 70
     1
  9
$DIMPOST
  1
\X
  9
$DIMAPOST
  1

  9
$DIMALT
 70
     1
  9
$DIMALTD
 70
     2
  9
$DIMALTF
 40
25.3999999999999986
  9
$DIMLFAC
 40
1.0
  9
$DIMTOFL
 70
     0
  9
$DIMTVP
 40
0.0
  9
$DIMTIX
 70
     0
  9
$DIMSOXD
 70
     0
  9
$DIMSAH
 70
     0
  9
$DIMBLK1
  1

  9
$DIMBLK2
  1

  9
$DIMSTYLE
  2
STANDARD
  9
$DIMCLRD
 70
     0
  9
$DIMCLRE
 70
     0
  9
$DIMCLRT
 70
     0
  9
$DIMTFAC
 40
1.0
  9
$DIMGAP
 40
0.09
  9
$LUNITS
 70
     2
  9
$LUPREC
 70
     4
  9
$SKETCHINC
 40
0.1
  9
$FILLETRAD
 40
0.0
  9
$AUNITS
 70
     0
  9
$AUPREC
 70
     0
  9
$MENU
  1
.
  9
$ELEVATION
 40
0.0
  9
$PELEVATION
 40
0.0
  9
$THICKNESS
 40
0.0
  9
$LIMCHECK
 70
     0
  9
$BLIPMODE
 70
     0
  9
$CHAMFERA
 40
0.0
  9
$CHAMFERB
 40
0.0
  9
$SKPOLY
 70
     0
  9
$TDCREATE
 40
2458060.468368056230247
  9
$TDUPDATE
 40
2460253.6354745370335877
  9
$TDINDWG
 40
0.4358056713
  9
$TDUSRTIMER
 40
0.4358056713
  9
$USRTIMER
 70
     1
  9
$ANGBASE
 50
0.0
  9
$ANGDIR
 70
     0
  9
$PDMODE
 70
     0
  9
$PDSIZE
 40
0.3125
  9
$PLINEWID
 40
0.0
  9
$COORDS
 70
     1
  9
$SPLFRAME
 70
     0
  9
$SPLINETYPE
 70
     6
  9
$SPLINESEGS
 70
     8
  9
$ATTDIA
 70
     1
  9
$ATTREQ
 70
     1
  9
$HANDLING
 70
     1
  9
$HANDSEED
  5
8031
  9
$SURFTAB1
 70
     6
  9
$SURFTAB2
 70
     6
  9
$SURFTYPE
 70
     6
  9
$SURFU
 70
     6
  9
$SURFV
 70
     6
  9
$UCSNAME
  2

  9
$UCSORG
 10
0.0
 20
0.0
 30
0.0
  9
$UCSXDIR
 10
1.0
 20
0.0
 30
0.0
  9
$UCSYDIR
 10
0.0
 20
1.0
 30
0.0
  9
$PUCSNAME
  2

  9
$PUCSORG
 10
0.0
 20
0.0
 30
0.0
  9
$PUCSXDIR
 10
1.0
 20
0.0
 30
0.0
  9
$PUCSYDIR
 10
0.0
 20
1.0
 30
0.0
  9
$USERI1
 70
     0
  9
$USERI2
 70
     0
  9
$USERI3
 70
     0
  9
$USERI4
 70
     0
  9
$USERI5
 70
     0
  9
$USERR1
 40
0.0
  9
$USERR2
 40
0.0
  9
$USERR3
 40
0.0
  9
$USERR4
 40
0.0
  9
$USERR5
 40
0.0
  9
$WORLDVIEW
 70
     1
  9
$SHADEDGE
 70
     3
  9
$SHADEDIF
 70
    70
  9
$TILEMODE
 70
     1
  9
$MAXACTVP
 70
    64
  9
$PLIMCHECK
 70
     0
  9
$PEXTMIN
 10
1.0000000000000000E+20
 20
1.0000000000000000E+20
 30
1.0000000000000000E+20
  9
$PEXTMAX
 10
-1.0000000000000000E+20
 20
-1.0000000000000000E+20
 30
-1.0000000000000000E+20
  9
$PLIMMIN
 10
0.0
 20
0.0
  9
$PLIMMAX
 10
12.0
 20
9.0
  9
$UNITMODE
 70
     0
  9
$VISRETAIN
 70
     1
  9
$PLINEGEN
 70
     0
  9
$PSLTSCALE
 70
     1
  0
ENDSEC
  0
SECTION
  2
TABLES
  0
TABLE
  2
VPORT
 70
     1
  0
VPORT
  2
*ACTIVE
 70
     0
 10
0.0
 20
0.0
 11
1.0
 21
1.0
 12
247.7358473540253101
 22
-35.7175597722291016
 13
0.0
 23
0.0
 14
1.0
 24
1.0
 15
0.0
 25
0.0
 16
0.0
 26
0.0
 36
5.1040778033513332
 17
3792.35791015625
 27
120.1806564331053977
 37
0.0
 40
43.7683297215272233
 41
2.498684210526315
 42
50.0
 43
0.0
 44
0.0
 50
0.0
 51
0.0
 71
     0
 72
   100
 73
     1
 74
     1
 75
     0
 76
     0
 77
     0
 78
     0
  0
ENDTAB
  0
TABLE
  2
LTYPE
 70
     2
  0
LTYPE
  2
CONTINUOUS
 70
     0
  3
Solid line
 72
    65
 73
     0
 40
0.0
  0
LTYPE
  2
PHANTOM2
 70
     0
  3
___ _ _ ___ _ _ ___ _ _ ___ _ _
 72
    65
 73
     6
 40
1.25
 49
0.625
 49
-0.125
 49
0.125
 49
-0.125
 49
0.125
 49
-0.125
  0
ENDTAB
  0
TABLE
  2
LAYER
 70
     2
  0
LAYER
  2
0
 70
     0
 62
   255
  6
CONTINUOUS
  0
LAYER
  2
DEFPOINTS
 70
     0
 62
     7
  6
CONTINUOUS
  0
ENDTAB
  0
TABLE
  2
STYLE
 70
     1
  0
STYLE
  2
STANDARD
 70
     0
 40
0.0
 41
0.8
 50
0.0
 71
     0
 42
0.2
  3
txt
  4

  0
ENDTAB
  0
TABLE
  2
VIEW
 70
     0
  0
ENDTAB
  0
TABLE
  2
UCS
 70
     0
  0
ENDTAB
  0
TABLE
  2
APPID
 70
     9
  0
APPID
  2
ACAD
 70
     0
  0
APPID
  2
ACAD_MLEADERVER
 70
     0
  0
APPID
  2
ACAD_EXEMPT_FROM_CAD_STANDARDS
 70
     0
  0
APPID
  2
ACAD_NAV_VCDISPLAY
 70
     0
  0
APPID
  2
ACAECLAYERSTANDARD
 70
     0
  0
APPID
  2
ACCMTRANSPARENCY
 70
     0
  0
APPID
  2
ACAD_DSTYLE_DIMJAG
 70
     0
  0
APPID
  2
ACAD_DSTYLE_DIMTALN
 70
     0
  0
APPID
  2
ACDBATTR
 70
     0
  0
ENDTAB
  0
TABLE
  2
DIMSTYLE
 70
     1
  0
DIMSTYLE
  2
STANDARD
 70
     0
  3

  4

  5

  6

  7

 40
1.0
 41
0.1875
 42
0.0625
 43
0.38
 44
0.125
 45
0.0
 46
0.0
 47
0.01
 48
0.01
140
0.15625
141
0.09
142
0.0
143
25.3999999999999986
144
1.0
145
0.0
146
1.0
147
0.09
 71
     1
 72
     0
 73
     1
 74
     1
 75
     0
 76
     0
 77
     0
 78
     4
170
     0
171
     2
172
     0
173
     0
174
     0
175
     0
176
     0
177
     0
178
     0
  0
ENDTAB
  0
ENDSEC
  0
SECTION
  2
BLOCKS
  0
BLOCK
  8
0
  2
$MODEL_SPACE
 70
     0
 10
0.0
 20
0.0
 30
0.0
  3
$MODEL_SPACE
  1

  0
ENDBLK
  5
21
  8
0
  0
BLOCK
 67
     1
  8
0
  2
$PAPER_SPACE
 70
     0
 10
0.0
 20
0.0
 30
0.0
  3
$PAPER_SPACE
  1

  0
ENDBLK
  5
1D
 67
     1
  8
0
  0
BLOCK
  8
0
  2
_FILLED
 70
     0
 10
0.0
 20
0.0
 30
0.0
  3
_FILLED
  1

  0
SOLID
  5
69B4
  8
0
  6
BYBLOCK
 62
     0
 10
0.0
 20
0.0
 30
0.0
 11
-1.0
 21
0.1666666667
 31
0.0
 12
-1.0
 22
-0.1666666667
 32
0.0
 13
-1.0
 23
-0.1666666667
 33
0.0
  0
ENDBLK
  5
69B5
  8
0
  6
BYBLOCK
 62
     0
  0
BLOCK
  8
0
  2
A$CDFAF6206
 70
     0
 10
0.0
 20
0.0
 30
0.0
  3
A$CDFAF6206
  1

  0
LINE
  5
6A0E
  8
0
 10
7.4646650085734834
 20
10.9287685970688493
 30
0.0
 11
7.4646650085734896
 21
10.8905784766688498
 31
0.0
  0
ARC
  5
6A0F
  8
0
 10
7.7269027075262349
 20
10.8926811525838598
 30
0.0
 40
0.2622461286616791
 50
180.4593995232625048
 51
217.0214027758331099
  0
LINE
  5
6A10
  8
0
 10
9.767814609867095
 20
10.9287685970688493
 30
0.0
 11
9.767814609867095
 21
10.8905433757650094
 31
0.0
  0
ARC
  5
6A11
  8
0
 10
9.5068669568548287
 20
10.8922438613003703
 30
0.0
 40
0.2609531936261092
 50
322.8847083717149076
 51
359.6266329125650145
  0
LINE
  5
6A12
  8
0
 10
7.517522606271406
 20
10.7347792678688396
 30
0.0
 11
9.7149570120691777
 21
10.7347792678688396
 31
0.0
  0
LINE
  5
6A13
  8
0
 10
7.4646650085734834
 20
10.9287685970688493
 30
0.0
 11
9.7678146123202936
 21
10.9287685970688493
 31
0.0
  0
ARC
  5
6A14
  8
0
 10
4.0826771419203629
 20
8.527951346868889
 30
0.0
 40
4.0826771653999172
 50
13.3117747050523896
 51
32.7200330051415591
  0
ARC
  5
6A15
  8
0
 10
4.0826771460567306
 20
8.5279513475907933
 30
0.0
 40
4.0826771612084691
 50
359.6656501984817851
 51
13.3117747085593798
  0
ARC
  5
6A16
  8
0
 10
13.1498041284835097
 20
8.5279508235212234
 30
0.0
 40
4.0826788382043553
 50
147.2799733478981068
 51
166.6882233021349862
  0
ARC
  5
6A17
  8
0
 10
13.1498064934207992
 20
8.5279506557033251
 30
0.0
 40
4.0826811782395342
 50
166.688228652086309
 51
180.3343397625230011
  0
LINE
  5
6A18
  8
0
 10
8.1652847935202928
 20
8.504127000268852
 30
0.0
 11
9.0671948248202892
 21
8.5041270002687881
 31
0.0
  0
LINE
  5
6A19
  8
0
 10
8.1652847935202786
 20
8.5041270002667204
 30
0.0
 11
8.1652847935202928
 21
8.3607006934688481
 31
0.0
  0
ARC
  5
6A1A
  8
0
 10
5.6196779630382627
 20
8.3631022096452732
 30
0.0
 40
2.545607963272567
 50
342.0511668832173768
 51
359.945947387132378
  0
LINE
  5
6A1B
  8
0
 10
9.0671948248202892
 20
8.5041270002687881
 30
0.0
 11
9.0671948248202892
 21
8.2885990108688503
 31
0.0
  0
ARC
  5
6A1C
  8
0
 10
9.4521885297801163
 20
7.9614488056228501
 30
0.0
 40
0.5052201595850959
 50
139.6436242991769916
 51
174.6757930071850069
  0
ARC
  5
6A1D
  8
0
 10
9.9238413395551746
 20
8.1492417579399508
 30
0.0
 40
0.9848265662939324
 50
188.2263441834095943
 51
209.5593615864376034
  0
ARC
  5
6A1E
  8
0
 10
8.0788764238271256
 20
7.5665710856463297
 30
0.0
 40
0.0393715937169877
 50
162.1669117288323037
 51
227.2023190037006088
  0
ARC
  5
6A1F
  8
0
 10
8.7223682141740682
 20
8.2079667397440517
 30
0.0
 40
0.947895137885075
 50
225.0018610752970858
 51
261.4598823366255829
  0
ARC
  5
6A20
  8
0
 10
8.6645157662702701
 20
8.1695128573935332
 30
0.0
 40
0.9027466462812931
 50
264.7303071214498118
 51
281.8608311947915013
  0
ARC
  5
6A21
  8
0
 10
8.6645157662698935
 20
8.1695128573999671
 30
0.0
 40
0.9027466462876658
 50
299.1741886792128753
 51
299.1743179154552195
  0
ARC
  5
6A22
  8
0
 10
9.0843330931590316
 20
7.4150554710086141
 30
0.0
 40
0.0393703053609601
 50
251.9700352025496954
 51
252.4698971938937859
  0
ARC
  5
6A23
  8
0
 10
9.0843330931590316
 20
7.4150554710086141
 30
0.0
 40
0.0393703053609601
 50
297.2453716727138726
 51
6.8376113572703074
  0
LINE
  5
6A24
  8
0
 10
9.0671948248202892
 20
7.663402160468852
 30
0.0
 11
9.1234233799329516
 21
7.419742732911689
 31
0.0
  0
ARC
  5
6A25
  8
0
 10
8.8843741880892395
 20
9.8961379890094676
 30
0.0
 40
2.5255097382132701
 50
263.792800240752797
 51
274.9514951129821156
  0
ARC
  5
6A26
  8
0
 10
8.8258167405968848
 20
9.2763025889666508
 30
0.0
 40
1.9029970832759311
 50
246.0108363320686067
 51
263.5276935074397215
  0
ARC
  5
6A27
  8
0
 10
8.607491361665744
 20
8.3225444804829642
 30
0.0
 40
1.064510137163637
 50
283.1717405874071005
 51
297.7022170607311864
  0
LINE
  5
6A28
  8
0
 10
9.0671948248202892
 20
8.2885990108688503
 30
0.0
 11
26.2014378595979593
 21
8.2885990108689942
 31
0.0
  0
LINE
  5
6A29
  8
0
 10
26.2014378595979913
 20
7.6634021604689053
 30
0.0
 11
9.0671948248202892
 21
7.6634021604688618
 31
0.0
  0
LINE
  5
6A2A
  8
0
 10
27.8039676758446994
 20
10.9287685970690802
 30
0.0
 11
27.8039676758446888
 21
10.8905784766690807
 31
0.0
  0
ARC
  5
6A2B
  8
0
 10
27.5417299768919399
 20
10.8926811525840801
 30
0.0
 40
0.2622461286616791
 50
322.9785972241680838
 51
359.5406004767386889
  0
LINE
  5
6A2C
  8
0
 10
25.5008180745510913
 20
10.9287685970690305
 30
0.0
 11
25.5008180745510913
 21
10.8905433757651799
 31
0.0
  0
ARC
  5
6A2D
  8
0
 10
25.7617657275633505
 20
10.8922438613005497
 30
0.0
 40
0.2609531936261092
 50
180.3733670874362929
 51
217.1152916282862861
  0
LINE
  5
6A2E
  8
0
 10
27.7511100781467803
 20
10.7347792678690706
 30
0.0
 11
25.5536756723490015
 21
10.7347792678690208
 31
0.0
  0
LINE
  5
6A2F
  8
0
 10
27.8039676758446888
 20
10.9287685970686006
 30
0.0
 11
25.5008180745510806
 21
10.9287685970686006
 31
0.0
  0
ARC
  5
6A30
  8
0
 10
31.1859555424978616
 20
8.5279513468691981
 30
0.0
 40
4.0826771653999172
 50
147.2799669948597057
 51
166.6882252949490066
  0
ARC
  5
6A31
  8
0
 10
31.185955538361501
 20
8.5279513475911024
 30
0.0
 40
4.0826771612084691
 50
166.6882252914419098
 51
180.3343498015194086
  0
ARC
  5
6A32
  8
0
 10
22.1188285559344706
 20
8.5279508235212251
 30
0.0
 40
4.0826788382046102
 50
13.3117766978667795
 51
32.7200266521023977
  0
ARC
  5
6A33
  8
0
 10
22.1188261909974315
 20
8.5279506557034264
 30
0.0
 40
4.0826811782395342
 50
359.665660237478221
 51
13.31177134791497
  0
LINE
  5
6A34
  8
0
 10
27.1033478908979397
 20
8.5041270002690652
 30
0.0
 11
26.2014378595979416
 21
8.5041270002689835
 31
0.0
  0
LINE
  5
6A35
  8
0
 10
27.1033478908979504
 20
8.5041270002669354
 30
0.0
 11
27.1033478908979397
 21
8.3607006934690649
 31
0.0
  0
ARC
  5
6A36
  8
0
 10
29.6489547213799689
 20
8.3631022096455467
 30
0.0
 40
2.545607963272567
 50
180.0540526128687873
 51
197.9488331167837032
  0
LINE
  5
6A37
  8
0
 10
26.2014378595979416
 20
8.5041270002689835
 30
0.0
 11
26.2014378595979487
 21
8.2885990108690457
 31
0.0
  0
ARC
  5
6A38
  8
0
 10
25.8164441546381305
 20
7.9614488056230366
 30
0.0
 40
0.5052201595850959
 50
5.324206992816312
 51
40.3563757008241879
  0
ARC
  5
6A39
  8
0
 10
25.3447913448601803
 20
8.149241757940846
 30
0.0
 40
0.9848265662968968
 50
330.4406384136033807
 51
351.7736558165743759
  0
ARC
  5
6A3A
  8
0
 10
27.1897562605911212
 20
7.5665710856465473
 30
0.0
 40
0.0393715937169877
 50
312.7976809963004143
 51
17.8330882711689185
  0
ARC
  5
6A3B
  8
0
 10
26.5462644702441715
 20
8.2079667397442542
 30
0.0
 40
0.947895137885075
 50
278.5401176633754972
 51
314.9981389247041079
  0
ARC
  5
6A3C
  8
0
 10
26.6041169181479695
 20
8.1695128573937392
 30
0.0
 40
0.9027466462812931
 50
258.139168805210204
 51
275.2696928785518935
  0
ARC
  5
6A3D
  8
0
 10
26.6041169181483497
 20
8.1695128574001732
 30
0.0
 40
0.9027466462876658
 50
240.8256820845460027
 51
240.8258113207880058
  0
ARC
  5
6A3E
  8
0
 10
26.1842995912592293
 20
7.4150554710088086
 30
0.0
 40
0.0393703053609601
 50
287.5301028061073794
 51
288.0299647974517825
  0
ARC
  5
6A3F
  8
0
 10
26.1842995912592293
 20
7.4150554710088086
 30
0.0
 40
0.0393703053609601
 50
173.1623886427310026
 51
242.7546283272870085
  0
LINE
  5
6A40
  8
0
 10
26.2014378595981192
 20
7.6634021604690448
 30
0.0
 11
26.1452093044853093
 21
7.4197427329118826
 31
0.0
  0
ARC
  5
6A41
  8
0
 10
26.384258496328961
 20
9.8961379890096666
 30
0.0
 40
2.5255097382132701
 50
265.0485048870193054
 51
276.2071997592482262
  0
ARC
  5
6A42
  8
0
 10
26.4428159438213299
 20
9.2763025889668516
 30
0.0
 40
1.9029970832759311
 50
276.4723064925619838
 51
293.9891636679327007
  0
ARC
  5
6A43
  8
0
 10
26.6611413227524885
 20
8.3225444804831703
 30
0.0
 40
1.064510137163637
 50
242.2977829392704052
 51
256.8282594125943774
  0
LINE
  5
6A44
  8
0
 62
     4
 10
17.9031473532159602
 20
10.9287685970686006
 30
0.0
 11
24.6329820359843588
 21
20.0952817181593808
 31
0.0
  0
LINE
  5
6A45
  8
0
 62
     4
 10
17.9031473532159602
 20
-0.0000000300842942
 30
0.0
 11
22.3963351323106608
 21
4.993614497796286
 31
0.0
  0
ENDBLK
  5
6A49
  8
0
  0
ENDSEC
  0
SECTION
  2
ENTITIES
  0
ATTDEF
  5
3930
  8
DEFPOINTS
 10
4044.6540001397511332
 20
62.7545677487959566
 30
0.0
 40
0.001
  1
P80273-00
  3

  2
MODELNUMBER
 70
     0
1001
ACDBATTR
1070
     0
1070
     1
  0
ATTDEF
  5
3931
  8
DEFPOINTS
 10
4044.6540001397511332
 20
62.7529010821292914
 30
0.0
 40
0.001
  1
VIR STIL
  3

  2
TRADENAME
 70
     0
1001
ACDBATTR
1070
     0
1070
     1
  0
ATTDEF
  5
3932
  8
DEFPOINTS
 10
4044.6540001397511332
 20
62.7512344154626334
 30
0.0
 40
0.001
  1
BATH FAUCET
  3

  2
PRODUCT
 70
     0
1001
ACDBATTR
1070
     0
1070
     1
  0
LINE
  5
7D7C
  8
0
 10
4042.3118091618671315
 20
62.7573635524348106
 30
0.0
 11
4047.0162186107659181
 21
62.7573635524348106
 31
0.0
  0
LINE
  5
7D7D
  8
0
 10
4042.3218091618659855
 20
63.3823635524348106
 30
0.0
 11
4047.0062186107670641
 21
63.3823635524348106
 31
0.0
  0
LINE
  5
7D7E
  8
0
 10
4042.5843318963670754
 20
63.5163635524348109
 30
0.0
 11
4046.7436958762668837
 21
63.5163635524348109
 31
0.0
  0
LINE
  5
7D7F
  8
0
 10
4042.7295138863660213
 20
63.6503635524348113
 30
0.0
 11
4046.5985138862661188
 21
63.6503635524348113
 31
0.0
  0
LINE
  5
7D80
  8
0
 10
4042.3018091618660037
 20
63.3623635524348217
 30
0.0
 11
4042.3018091618660037
 21
62.7673635524348086
 31
0.0
  0
ARC
  5
7D81
  8
0
 10
4042.3218091618659855
 20
63.3623635524348217
 30
0.0
 40
0.02
 50
90.0
 51
180.0
  0
LINE
  5
7D82
  8
0
 10
4042.5643318963661841
 20
63.4963635524348078
 30
0.0
 11
4042.5643318963661841
 21
63.4023635524347995
 31
0.0
  0
ARC
  5
7D83
  8
0
 10
4042.5843318963670754
 20
63.4963635524348078
 30
0.0
 40
0.02
 50
90.0
 51
180.0
  0
LINE
  5
7D84
  8
0
 10
4042.7095138863660395
 20
63.630363552434801
 30
0.0
 11
4042.7095138863660395
 21
63.5363635524347998
 31
0.0
  0
ARC
  5
7D85
  8
0
 10
4042.7295138863660213
 20
63.630363552434801
 30
0.0
 40
0.02
 50
90.0000000000260485
 51
179.9999999999795932
  0
ARC
  5
7D86
  8
0
 10
4042.6895138863660577
 20
63.5363635524347998
 30
0.0
 40
0.02
 50
270.0
 51
0.0000000000048853
  0
ARC
  5
7D87
  8
0
 10
4042.5443318963662023
 20
63.4023635524348066
 30
0.0
 40
0.02
 50
270.0
 51
359.999999999989825
  0
ARC
  5
7D88
  8
0
 10
4042.3118091618671315
 20
62.7673635524348015
 30
0.0
 40
0.01
 50
179.9999999999593001
 51
270.0000000000259774
  0
LINE
  5
7D89
  8
0
 10
4043.8965138863668471
 20
98.0095993418348144
 30
0.0
 11
4044.1417731560659377
 21
98.0095993418348144
 31
0.0
  0
ARC
  5
7D8A
  8
0
 10
4043.8965138863668471
 20
97.9895993418348041
 30
0.0
 40
0.02
 50
90.0
 51
179.9999999999693898
  0
LINE
  5
7D8B
  8
0
 10
4044.1517731560661559
 20
95.8724654317348097
 30
0.0
 11
4045.1762546165659842
 21
95.8724654317348097
 31
0.0
  0
LINE
  5
7D8C
  8
0
 10
4044.1417731560659377
 20
95.8824654317348148
 30
0.0
 11
4044.1417731560659377
 21
98.2424654317348143
 31
0.0
  0
ARC
  5
7D8D
  8
0
 10
4044.1517731560661559
 20
95.8824654317348148
 30
0.0
 40
0.01
 50
179.9999999999593001
 51
270.0000000000521254
  0
LINE
  5
7D8E
  8
0
 10
4045.1762546165659842
 20
98.2524654317348052
 30
0.0
 11
4044.1517731560661559
 21
98.2524654317348052
 31
0.0
  0
LINE
  5
7D8F
  8
0
 10
4044.2217838863662109
 20
98.3724654317348097
 30
0.0
 11
4045.1062438862668387
 21
98.3724654317348097
 31
0.0
  0
LINE
  5
7D90
  8
0
 10
4044.1937838863659636
 20
98.2624654317348245
 30
0.0
 11
4044.1937838863659636
 21
98.3444654317348181
 31
0.0
  0
ARC
  5
7D91
  8
0
 10
4044.1837838863662
 20
98.2624654317347961
 30
0.0
 40
0.01
 50
269.9999999999478746
 51
0.0000000000407111
  0
ARC
  5
7D92
  8
0
 10
4044.2217838863662109
 20
98.3444654317348181
 30
0.0
 40
0.028
 50
90.0
 51
180.0000000000142109
  0
ARC
  5
7D93
  8
0
 10
4044.1517731560661559
 20
98.2424654317348143
 30
0.0
 40
0.01
 50
90.0
 51
180.0
  0
LINE
  5
7D94
  8
0
 10
4044.190388324036121
 20
95.8524654317348137
 30
0.0
 11
4044.190388324036121
 21
94.8409693687348181
 31
0.0
  0
ARC
  5
7D95
  8
0
 10
4044.2103883240361029
 20
95.8524654317348137
 30
0.0
 40
0.02
 50
90.0
 51
179.9999999999897966
  0
ARC
  5
7D96
  8
0
 10
4044.6640138863172069
 20
94.8409693687348181
 30
0.0
 40
0.4736255622800272
 50
180.0
 51
0.0
  0
LINE
  5
7D97
  8
0
 10
4044.0015138863659558
 20
98.0095993418348144
 30
0.0
 11
4044.0015138863659558
 21
100.0895993418347985
 31
0.0
  0
LINE
  5
7D98
  8
0
 10
4047.0262186107661364
 20
63.3623635524348217
 30
0.0
 11
4047.0262186107661364
 21
62.7673635524348086
 31
0.0
  0
ARC
  5
7D99
  8
0
 10
4047.0062186107670641
 20
63.3623635524348217
 30
0.0
 40
0.02
 50
0.0
 51
90.0
  0
LINE
  5
7D9A
  8
0
 10
4046.7636958762668655
 20
63.4963635524348078
 30
0.0
 11
4046.7636958762668655
 21
63.4023635524347995
 31
0.0
  0
ARC
  5
7D9B
  8
0
 10
4046.7436958762668837
 20
63.4963635524348078
 30
0.0
 40
0.02
 50
0.0
 51
90.0
  0
LINE
  5
7D9C
  8
0
 10
4046.6185138862661006
 20
63.630363552434801
 30
0.0
 11
4046.6185138862661006
 21
63.5363635524347998
 31
0.0
  0
ARC
  5
7D9D
  8
0
 10
4046.5985138862661188
 20
63.630363552434801
 30
0.0
 40
0.02
 50
0.0000000000203555
 51
89.9999999999739515
  0
ARC
  5
7D9E
  8
0
 10
4046.6385138862669919
 20
63.5363635524347998
 30
0.0
 40
0.02
 50
179.9999999999947136
 51
270.0
  0
ARC
  5
7D9F
  8
0
 10
4046.7836958762668473
 20
63.4023635524348066
 30
0.0
 40
0.02
 50
180.0000000000100897
 51
270.0
  0
ARC
  5
7DA0
  8
0
 10
4047.0162186107659181
 20
62.7673635524348015
 30
0.0
 40
0.01
 50
269.9999999999739089
 51
0.0000000000407111
  0
LINE
  5
7DA1
  8
0
 10
4045.4515138862661843
 20
63.6503635524348113
 30
0.0
 11
4045.4515138862661843
 21
94.3939845926875449
 31
0.0
  0
LINE
  5
7DA2
  8
0
 10
4045.4515138862661843
 20
95.287954144782077
 30
0.0
 11
4045.4515138862661843
 21
97.9895993418348041
 31
0.0
  0
LINE
  5
7DA3
  8
0
 10
4045.4315138862662025
 20
98.0095993418348144
 30
0.0
 11
4045.1862546165662025
 21
98.0095993418348144
 31
0.0
  0
ARC
  5
7DA4
  8
0
 10
4045.4315138862662025
 20
97.9895993418348041
 30
0.0
 40
0.02
 50
0.0000000000305333
 51
90.0
  0
LINE
  5
7DA5
  8
0
 10
4045.1862546165662025
 20
95.8824654317348148
 30
0.0
 11
4045.1862546165662025
 21
98.2424654317348143
 31
0.0
  0
ARC
  5
7DA6
  8
0
 10
4045.1762546165659842
 20
95.8824654317348148
 30
0.0
 40
0.01
 50
269.9999999999478746
 51
0.0000000000407111
  0
LINE
  5
7DA7
  8
0
 10
4045.1342438862661766
 20
98.2624654317348245
 30
0.0
 11
4045.1342438862661766
 21
98.3444654317348181
 31
0.0
  0
ARC
  5
7DA8
  8
0
 10
4045.1442438862659401
 20
98.2624654317347961
 30
0.0
 40
0.01
 50
179.9999999999593001
 51
270.0000000000521254
  0
ARC
  5
7DA9
  8
0
 10
4045.1062438862668387
 20
98.3444654317348181
 30
0.0
 40
0.028
 50
359.9999999999852776
 51
90.0
  0
ARC
  5
7DAA
  8
0
 10
4045.1762546165659842
 20
98.2424654317348143
 30
0.0
 40
0.01
 50
0.0
 51
90.0
  0
LINE
  5
7DAB
  8
0
 10
4045.1376394485960191
 20
95.8524654317348137
 30
0.0
 11
4045.1376394485960191
 21
94.8409693687348181
 31
0.0
  0
ARC
  5
7DAC
  8
0
 10
4045.1176394485960373
 20
95.8524654317348137
 30
0.0
 40
0.02
 50
0.0000000000101778
 51
90.0
  0
LINE
  5
7DAD
  8
0
 10
4045.3265138862670938
 20
98.0095993418348144
 30
0.0
 11
4045.3265138862670938
 21
100.0895993418347985
 31
0.0
  0
LINE
  5
7DAE
  8
0
 10
4033.1675138864161454
 20
99.2395993418348041
 30
0.0
 11
4034.4925138863159191
 21
99.2395993418348041
 31
0.0
  0
LINE
  5
7DAF
  8
0
 10
4033.1855138864161745
 20
99.1865993418348069
 30
0.0
 11
4034.47451388631589
 21
99.1865993418348069
 31
0.0
  0
LINE
  5
7DB0
  8
0
 10
4033.1855138864161745
 20
98.3065993418343282
 30
0.0
 11
4034.47451388631589
 21
98.3065993418352946
 31
0.0
  0
LINE
  5
7DB1
  8
0
 10
4033.2378638863660854
 20
98.2115993418348268
 30
0.0
 11
4034.4221638863659791
 21
98.2115993418348268
 31
0.0
  0
LINE
  5
7DB2
  8
0
 10
4033.1675138864161454
 20
98.3245993418343147
 30
0.0
 11
4033.1675138864161454
 21
99.1685993418348062
 31
0.0
  0
LINE
  5
7DB3
  8
0
 10
4033.1675138864161454
 20
99.2395993418348041
 30
0.0
 11
4033.1675138864161454
 21
100.0895993418347985
 31
0.0
  0
LINE
  5
7DB4
  8
0
 10
4034.4925138863159191
 20
98.3245993418343147
 30
0.0
 11
4034.4925138863159191
 21
99.1685993418348062
 31
0.0
  0
LINE
  5
7DB5
  8
0
 10
4034.4925138863159191
 20
99.2395993418348041
 30
0.0
 11
4034.4925138863159191
 21
100.0895993418347985
 31
0.0
  0
ARC
  5
7DB6
  8
0
 10
4033.1855138864161745
 20
98.3245993418343147
 30
0.0
 40
0.018
 50
180.0
 51
270.0000000000521254
  0
LINE
  5
7DB7
  8
0
 10
4033.2178638863661035
 20
99.2195993418348081
 30
0.0
 11
4033.2178638863661035
 21
99.2045993418348075
 31
0.0
  0
LINE
  5
7DB8
  8
0
 10
4033.2178638863661035
 20
98.2885993418343418
 30
0.0
 11
4033.2178638863661035
 21
98.2315993418348086
 31
0.0
  0
ARC
  5
7DB9
  8
0
 10
4033.1998638863660744
 20
98.2885993418343418
 30
0.0
 40
0.018
 50
359.9999999999885745
 51
90.0000000000521254
  0
ARC
  5
7DBA
  8
0
 10
4033.2378638863660854
 20
98.2315993418348228
 30
0.0
 40
0.02
 50
180.0000000000202931
 51
269.9999999999739089
  0
ARC
  5
7DBB
  8
0
 10
4033.1855138864161745
 20
99.1685993418348062
 30
0.0
 40
0.018
 50
90.0
 51
180.0000000000113971
  0
ARC
  5
7DBC
  8
0
 10
4033.1998638863660744
 20
99.2045993418348075
 30
0.0
 40
0.018
 50
270.0
 51
0.0000000000223911
  0
ARC
  5
7DBD
  8
0
 10
4033.2378638863660854
 20
99.2195993418347939
 30
0.0
 40
0.02
 50
90.0
 51
179.9999999999693898
  0
LINE
  5
7DBE
  8
0
 10
4034.4925138863159191
 20
98.3245993418343147
 30
0.0
 11
4034.4925138863159191
 21
99.1685993418348062
 31
0.0
  0
LINE
  5
7DBF
  8
0
 10
4034.4925138863159191
 20
99.2395993418348041
 30
0.0
 11
4034.4925138863159191
 21
100.0895993418347985
 31
0.0
  0
ARC
  5
7DC0
  8
0
 10
4034.47451388631589
 20
98.3245993418343147
 30
0.0
 40
0.018
 50
269.9999999999478746
 51
0.0
  0
LINE
  5
7DC1
  8
0
 10
4034.4421638863668704
 20
99.2195993418348081
 30
0.0
 11
4034.4421638863668704
 21
99.2045993418348075
 31
0.0
  0
LINE
  5
7DC2
  8
0
 10
4034.4421638863668704
 20
98.2885993418343418
 30
0.0
 11
4034.4421638863668704
 21
98.2315993418348086
 31
0.0
  0
ARC
  5
7DC3
  8
0
 10
4034.46016388636599
 20
98.2885993418343418
 30
0.0
 40
0.018
 50
89.9999999999478888
 51
180.0000000000109992
  0
ARC
  5
7DC4
  8
0
 10
4034.4221638863659791
 20
98.2315993418348228
 30
0.0
 40
0.02
 50
270.0000000000259774
 51
359.9999999999797069
  0
ARC
  5
7DC5
  8
0
 10
4034.47451388631589
 20
99.1685993418348062
 30
0.0
 40
0.018
 50
359.9999999999885745
 51
90.0
  0
ARC
  5
7DC6
  8
0
 10
4034.46016388636599
 20
99.2045993418348075
 30
0.0
 40
0.018
 50
179.9999999999772058
 51
270.0
  0
ARC
  5
7DC7
  8
0
 10
4034.4221638863659791
 20
99.2195993418347939
 30
0.0
 40
0.02
 50
0.0000000000305333
 51
90.0
  0
ARC
  5
7DC8
  8
0
 10
4039.2470138863409375
 20
100.0895993418347985
 30
0.0
 40
4.7545000000250068
 50
0.0
 51
180.0
  0
ARC
  5
7DC9
  8
0
 10
4039.2470138863409375
 20
100.0895993418347985
 30
0.0
 40
6.0794999999249866
 50
0.0
 51
180.0
  0
ARC
  5
7DCA
  8
0
 10
4044.6640138863667744
 20
94.8409693687348181
 30
0.0
 40
0.6373552593000014
 50
137.9970846558736923
 51
42.0029153575609229
  0
ARC
  5
7DCB
  8
0
 10
4044.6640138863172069
 20
94.8409693687348181
 30
0.0
 40
0.6883205316499926
 50
133.4790006842779917
 51
46.5209993157211485
  0
ARC
  5
7DCC
  8
0
 10
4044.6640138863172069
 20
94.8409693687348181
 30
0.0
 40
0.6940861462499904
 50
133.0293476514746942
 51
46.9706523485252987
  0
ARC
  5
7DCD
  8
0
 10
4044.6640138863172069
 20
94.8409693687348181
 30
0.0
 40
0.7137711855499909
 50
131.5714701311511021
 51
48.4285298688488623
  0
ARC
  5
7DCE
  8
0
 10
4044.6640138863667744
 20
94.8409693687348181
 30
0.0
 40
0.7875000000000015
 50
126.9723314082680048
 51
53.0276686008345308
  0
ARC
  5
7DCF
  8
0
 10
4044.6640138863172069
 20
94.8409693687348181
 30
0.0
 40
0.8252103402499918
 50
125.0258014387088963
 51
54.9741985612910611
  0
ARC
  5
7DD0
  8
0
 10
4044.6640138863667744
 20
94.8409693687348181
 30
0.0
 40
0.9055118110000002
 50
121.5368852762372001
 51
58.4631147311680834
  0
LINE
  5
7DD1
  8
0
 10
4043.8765138863668653
 20
63.6503635524348113
 30
0.0
 11
4043.8765138863668653
 21
94.3939845928637453
 31
0.0
  0
LINE
  5
7DD2
  8
0
 10
4043.8765138863668653
 20
95.2879541446058766
 30
0.0
 11
4043.8765138863668653
 21
97.9895993418348041
 31
0.0
  0
LINE
  5
7DD3
  8
0
 10
4044.4740138863658103
 20
93.949246128256604
 30
0.0
 11
4044.4740138863658103
 21
93.9556154057005557
 31
0.0
  0
ARC
  5
7DD4
  8
0
 10
4044.6637754829871483
 20
94.5043246109384256
 30
0.0
 40
0.5968671008156712
 50
252.3806136407885106
 51
270.0228853374071036
  0
ARC
  5
7DD5
  8
0
 10
4044.4890138863670472
 20
93.9492461282567604
 30
0.0
 40
0.015000000000601
 50
180.0000000005088907
 51
246.8149408074598057
  0
LINE
  5
7DD6
  8
0
 10
4044.8540138862667845
 20
93.949246128256604
 30
0.0
 11
4044.8540138862667845
 21
93.9556154056790689
 31
0.0
  0
ARC
  5
7DD7
  8
0
 10
4044.6642522896468108
 20
94.5043246109306807
 30
0.0
 40
0.5968671008079353
 50
269.9771146625407141
 51
287.6193863594010054
  0
ARC
  5
7DD8
  8
0
 10
4044.8390138862660024
 20
93.9492461282565614
 30
0.0
 40
0.015000000000009
 50
293.1850591908120123
 51
0.0000000002100693
  0
LINE
  5
7DD9
  8
0
 10
4044.4831083531162221
 20
93.935457557734793
 30
0.0
 11
4044.844919419515918
 21
93.935457557734793
 31
0.0
  0
LINE
  5
7DDB
  8
0
 10
4033.177634393966855
 20
98.3245993418343147
 30
0.0
 11
4033.177634393966855
 21
99.1685993418348062
 31
0.0
  0
ARC
  5
7DDC
  8
0
 10
4033.1956343939659746
 20
98.3245993418343147
 30
0.0
 40
0.018
 50
180.0
 51
270.0000000000521254
  0
ARC
  5
7DDD
  8
0
 10
4033.1956343939659746
 20
99.1685993418348062
 30
0.0
 40
0.018
 50
90.0
 51
180.0000000000113971
  0
LINE
  5
7DDE
  8
0
 10
4033.2013595133657873
 20
98.3245993418343147
 30
0.0
 11
4033.2013595133657873
 21
99.1685993418348062
 31
0.0
  0
ARC
  5
7DDF
  8
0
 10
4033.2193595133658164
 20
98.3245993418343147
 30
0.0
 40
0.018
 50
180.0
 51
270.0000000000521254
  0
ARC
  5
7DE0
  8
0
 10
4033.2193595133658164
 20
99.1685993418348062
 30
0.0
 40
0.018
 50
90.0
 51
180.0000000000113971
  0
LINE
  5
7DE1
  8
0
 10
4033.2394221181671128
 20
98.3245993418343147
 30
0.0
 11
4033.2394221181671128
 21
99.1685993418348062
 31
0.0
  0
ARC
  5
7DE2
  8
0
 10
4033.2574221181657776
 20
98.3245993418343147
 30
0.0
 40
0.018
 50
180.0
 51
270.0000000000521254
  0
ARC
  5
7DE3
  8
0
 10
4033.2574221181657776
 20
99.1685993418348062
 30
0.0
 40
0.018
 50
90.0
 51
180.0000000000113971
  0
LINE
  5
7DE4
  8
0
 10
4033.2899569392661761
 20
98.3245993418343147
 30
0.0
 11
4033.2899569392661761
 21
99.1685993418348062
 31
0.0
  0
ARC
  5
7DE5
  8
0
 10
4033.3079569392671146
 20
98.3245993418343147
 30
0.0
 40
0.018
 50
180.0
 51
270.0000000000521254
  0
ARC
  5
7DE6
  8
0
 10
4033.3079569392671146
 20
99.1685993418348062
 30
0.0
 40
0.018
 50
90.0
 51
180.0000000000113971
  0
LINE
  5
7DE7
  8
0
 10
4033.3570392796668784
 20
98.3245993418343147
 30
0.0
 11
4033.3570392796668784
 21
99.1685993418348062
 31
0.0
  0
ARC
  5
7DE8
  8
0
 10
4033.3750392796669075
 20
98.3245993418343147
 30
0.0
 40
0.018
 50
180.0
 51
270.0000000000521254
  0
ARC
  5
7DE9
  8
0
 10
4033.3750392796669075
 20
99.1685993418348062
 30
0.0
 40
0.018
 50
90.0
 51
180.0000000000113971
  0
LINE
  5
7DEA
  8
0
 10
4033.4314624110661498
 20
98.3245993418343147
 30
0.0
 11
4033.4314624110661498
 21
99.1685993418348062
 31
0.0
  0
ARC
  5
7DEB
  8
0
 10
4033.4494624110661789
 20
98.3245993418343147
 30
0.0
 40
0.018
 50
180.0
 51
270.0000000000521254
  0
ARC
  5
7DEC
  8
0
 10
4033.4494624110661789
 20
99.1685993418348062
 30
0.0
 40
0.018
 50
90.0
 51
180.0000000000113971
  0
LINE
  5
7DED
  8
0
 10
4033.5147885238661729
 20
98.3245993418343147
 30
0.0
 11
4033.5147885238661729
 21
99.1685993418348062
 31
0.0
  0
ARC
  5
7DEE
  8
0
 10
4033.532788523866202
 20
98.3245993418343147
 30
0.0
 40
0.018
 50
180.0
 51
270.0000000000521254
  0
ARC
  5
7DEF
  8
0
 10
4033.532788523866202
 20
99.1685993418348062
 30
0.0
 40
0.018
 50
90.0
 51
180.0000000000113971
  0
LINE
  5
7DF0
  8
0
 10
4033.5939261843668646
 20
98.3245993418343147
 30
0.0
 11
4033.5939261843668646
 21
99.1685993418348062
 31
0.0
  0
ARC
  5
7DF1
  8
0
 10
4033.6119261843659842
 20
98.3245993418343147
 30
0.0
 40
0.018
 50
180.0
 51
270.0000000000521254
  0
ARC
  5
7DF2
  8
0
 10
4033.6119261843659842
 20
99.1685993418348062
 30
0.0
 40
0.018
 50
90.0
 51
180.0000000000113971
  0
LINE
  5
7DF3
  8
0
 10
4033.6868690982660155
 20
98.3245993418343147
 30
0.0
 11
4033.6868690982660155
 21
99.1685993418348062
 31
0.0
  0
ARC
  5
7DF4
  8
0
 10
4033.7048690982660446
 20
98.3245993418343147
 30
0.0
 40
0.018
 50
180.0
 51
270.0000000000521254
  0
ARC
  5
7DF5
  8
0
 10
4033.7048690982660446
 20
99.1685993418348062
 30
0.0
 40
0.018
 50
90.0
 51
180.0000000000113971
  0
LINE
  5
7DF6
  8
0
 10
4033.7826298783661514
 20
98.3245993418343147
 30
0.0
 11
4033.7826298783661514
 21
99.1685993418348062
 31
0.0
  0
ARC
  5
7DF7
  8
0
 10
4033.8006298783661805
 20
98.3245993418343147
 30
0.0
 40
0.018
 50
180.0
 51
270.0000000000521254
  0
ARC
  5
7DF8
  8
0
 10
4033.8006298783661805
 20
99.1685993418348062
 30
0.0
 40
0.018
 50
90.0
 51
180.0000000000113971
  0
LINE
  5
7DF9
  8
0
 10
4033.878519171966218
 20
98.3245993418343147
 30
0.0
 11
4033.878519171966218
 21
99.1685993418348062
 31
0.0
  0
ARC
  5
7DFA
  8
0
 10
4033.8965191719671566
 20
98.3245993418343147
 30
0.0
 40
0.018
 50
180.0
 51
270.0000000000521254
  0
ARC
  5
7DFB
  8
0
 10
4033.8965191719671566
 20
99.1685993418348062
 30
0.0
 40
0.018
 50
90.0
 51
180.0000000000113971
  0
LINE
  5
7DFC
  8
0
 10
4033.971534880065974
 20
98.3245993418343147
 30
0.0
 11
4033.971534880065974
 21
99.1685993418348062
 31
0.0
  0
ARC
  5
7DFD
  8
0
 10
4033.9895348800660031
 20
98.3245993418343147
 30
0.0
 40
0.018
 50
180.0
 51
270.0000000000521254
  0
ARC
  5
7DFE
  8
0
 10
4033.9895348800660031
 20
99.1685993418348062
 30
0.0
 40
0.018
 50
90.0
 51
180.0000000000113971
  0
LINE
  5
7DFF
  8
0
 10
4034.0613892430660599
 20
98.3245993418343147
 30
0.0
 11
4034.0613892430660599
 21
99.1685993418348062
 31
0.0
  0
ARC
  5
7E00
  8
0
 10
4034.0793892430669985
 20
98.3245993418343147
 30
0.0
 40
0.018
 50
180.0
 51
270.0000000000521254
  0
ARC
  5
7E01
  8
0
 10
4034.0793892430669985
 20
99.1685993418348062
 30
0.0
 40
0.018
 50
90.0
 51
180.0000000000113971
  0
LINE
  5
7E02
  8
0
 10
4034.1460750628662026
 20
98.3245993418343147
 30
0.0
 11
4034.1460750628662026
 21
99.1685993418348062
 31
0.0
  0
ARC
  5
7E03
  8
0
 10
4034.1640750628671412
 20
98.3245993418343147
 30
0.0
 40
0.018
 50
180.0
 51
270.0000000000521254
  0
ARC
  5
7E04
  8
0
 10
4034.1640750628671412
 20
99.1685993418348062
 30
0.0
 40
0.018
 50
90.0
 51
180.0000000000113971
  0
LINE
  5
7E05
  8
0
 10
4034.2237005982669871
 20
98.3245993418343147
 30
0.0
 11
4034.2237005982669871
 21
99.1685993418348062
 31
0.0
  0
ARC
  5
7E06
  8
0
 10
4034.2417005982670162
 20
98.3245993418343147
 30
0.0
 40
0.018
 50
180.0
 51
270.0000000000521254
  0
ARC
  5
7E07
  8
0
 10
4034.2417005982670162
 20
99.1685993418348062
 30
0.0
 40
0.018
 50
90.0
 51
180.0000000000113971
  0
LINE
  5
7E08
  8
0
 10
4034.2925318230668381
 20
98.3245993418343147
 30
0.0
 11
4034.2925318230668381
 21
99.1685993418348062
 31
0.0
  0
ARC
  5
7E09
  8
0
 10
4034.3105318230659577
 20
98.3245993418343147
 30
0.0
 40
0.018
 50
180.0
 51
270.0000000000521254
  0
ARC
  5
7E0A
  8
0
 10
4034.3105318230659577
 20
99.1685993418348062
 30
0.0
 40
0.018
 50
90.0
 51
180.0000000000113971
  0
LINE
  5
7E0B
  8
0
 10
4034.3510311614668353
 20
98.3245993418343147
 30
0.0
 11
4034.3510311614668353
 21
99.1685993418348062
 31
0.0
  0
ARC
  5
7E0C
  8
0
 10
4034.3690311614668644
 20
98.3245993418343147
 30
0.0
 40
0.018
 50
180.0
 51
270.0000000000521254
  0
ARC
  5
7E0D
  8
0
 10
4034.3690311614668644
 20
99.1685993418348062
 30
0.0
 40
0.018
 50
90.0
 51
180.0000000000113971
  0
LINE
  5
7E0E
  8
0
 10
4034.4111827926481055
 20
98.3245993807357763
 30
0.0
 11
4034.4111827926481055
 21
99.168599380736282
 31
0.0
  0
ARC
  5
7E0F
  8
0
 10
4034.4291827926481346
 20
98.3245993807357763
 30
0.0
 40
0.018
 50
180.0
 51
270.0000000000521254
  0
ARC
  5
7E10
  8
0
 10
4034.4291827926481346
 20
99.168599380736282
 30
0.0
 40
0.018
 50
90.0
 51
180.0000000000113971
  0
LINE
  5
7E11
  8
0
 10
4034.4715708722660565
 20
98.3245993418343147
 30
0.0
 11
4034.4715708722660565
 21
99.1685993418348062
 31
0.0
  0
LINE
  5
7E12
  8
0
 10
4034.4715708722660565
 20
98.3245993418343147
 30
0.0
 11
4034.4715708722660565
 21
99.1685993418348062
 31
0.0
  0
ARC
  5
7E13
  8
0
 10
4034.4535708722660274
 20
98.3245993418343147
 30
0.0
 40
0.018
 50
269.9999999999478746
 51
0.0
  0
ARC
  5
7E14
  8
0
 10
4034.4535708722660274
 20
99.1685993418348062
 30
0.0
 40
0.018
 50
359.9999999999885745
 51
90.0
  0
LINE
  5
7E15
  8
0
 10
4034.4462565059839108
 20
98.3245993402832852
 30
0.0
 11
4034.4462565059839108
 21
99.1685993402837767
 31
0.0
  0
LINE
  5
7E16
  8
0
 10
4034.4462565059839108
 20
98.3245993402832852
 30
0.0
 11
4034.4462565059839108
 21
99.1685993402837767
 31
0.0
  0
ARC
  5
7E17
  8
0
 10
4034.4282565059838817
 20
98.3245993402832852
 30
0.0
 40
0.018
 50
269.9999999999478746
 51
0.0
  0
ARC
  5
7E18
  8
0
 10
4034.4282565059838817
 20
99.1685993402837767
 30
0.0
 40
0.018
 50
359.9999999999885745
 51
90.0
  0
LINE
  5
7E19
  8
0
 10
4034.3875276589660643
 20
98.3245993418343147
 30
0.0
 11
4034.3875276589660643
 21
99.1685993418348062
 31
0.0
  0
LINE
  5
7E1A
  8
0
 10
4034.3875276589660643
 20
98.3245993418343147
 30
0.0
 11
4034.3875276589660643
 21
99.1685993418348062
 31
0.0
  0
ARC
  5
7E1B
  8
0
 10
4034.3695276589660352
 20
98.3245993418343147
 30
0.0
 40
0.018
 50
269.9999999999478746
 51
0.0
  0
ARC
  5
7E1C
  8
0
 10
4034.3695276589660352
 20
99.1685993418348062
 30
0.0
 40
0.018
 50
359.9999999999885745
 51
90.0
  0
LINE
  5
7E1D
  8
0
 10
4034.3363331098657909
 20
98.3245993418343147
 30
0.0
 11
4034.3363331098657909
 21
99.1685993418348062
 31
0.0
  0
LINE
  5
7E1E
  8
0
 10
4034.3363331098657909
 20
98.3245993418343147
 30
0.0
 11
4034.3363331098657909
 21
99.1685993418348062
 31
0.0
  0
ARC
  5
7E1F
  8
0
 10
4034.3183331098662165
 20
98.3245993418343147
 30
0.0
 40
0.018
 50
269.9999999999478746
 51
0.0
  0
ARC
  5
7E20
  8
0
 10
4034.3183331098662165
 20
99.1685993418348062
 30
0.0
 40
0.018
 50
359.9999999999885745
 51
90.0
  0
LINE
  5
7E21
  8
0
 10
4034.2669988439670306
 20
98.3245993418343147
 30
0.0
 11
4034.2669988439670306
 21
99.1685993418348062
 31
0.0
  0
LINE
  5
7E22
  8
0
 10
4034.2669988439670306
 20
98.3245993418343147
 30
0.0
 11
4034.2669988439670306
 21
99.1685993418348062
 31
0.0
  0
ARC
  5
7E23
  8
0
 10
4034.248998843966092
 20
98.3245993418343147
 30
0.0
 40
0.018
 50
269.9999999999478746
 51
0.0
  0
ARC
  5
7E24
  8
0
 10
4034.248998843966092
 20
99.1685993418348062
 30
0.0
 40
0.018
 50
359.9999999999885745
 51
90.0
  0
LINE
  5
7E25
  8
0
 10
4034.187903056165851
 20
98.3245993418343147
 30
0.0
 11
4034.187903056165851
 21
99.1685993418348062
 31
0.0
  0
LINE
  5
7E26
  8
0
 10
4034.187903056165851
 20
98.3245993418343147
 30
0.0
 11
4034.187903056165851
 21
99.1685993418348062
 31
0.0
  0
ARC
  5
7E27
  8
0
 10
4034.1699030561671862
 20
98.3245993418343147
 30
0.0
 40
0.018
 50
269.9999999999478746
 51
0.0
  0
ARC
  5
7E28
  8
0
 10
4034.1699030561671862
 20
99.1685993418348062
 30
0.0
 40
0.018
 50
359.9999999999885745
 51
90.0
  0
LINE
  5
7E29
  8
0
 10
4034.1008126156662001
 20
98.3245993418343147
 30
0.0
 11
4034.1008126156662001
 21
99.1685993418348062
 31
0.0
  0
LINE
  5
7E2A
  8
0
 10
4034.1008126156662001
 20
98.3245993418343147
 30
0.0
 11
4034.1008126156662001
 21
99.1685993418348062
 31
0.0
  0
ARC
  5
7E2B
  8
0
 10
4034.082812615666171
 20
98.3245993418343147
 30
0.0
 40
0.018
 50
269.9999999999478746
 51
0.0
  0
ARC
  5
7E2C
  8
0
 10
4034.082812615666171
 20
99.1685993418348062
 30
0.0
 40
0.018
 50
359.9999999999885745
 51
90.0
  0
LINE
  5
7E2D
  8
0
 10
4034.0201141546658619
 20
98.3245993418343147
 30
0.0
 11
4034.0201141546658619
 21
99.1685993418348062
 31
0.0
  0
LINE
  5
7E2E
  8
0
 10
4034.0201141546658619
 20
98.3245993418343147
 30
0.0
 11
4034.0201141546658619
 21
99.1685993418348062
 31
0.0
  0
ARC
  5
7E2F
  8
0
 10
4034.002114154667197
 20
98.3245993418343147
 30
0.0
 40
0.018
 50
269.9999999999478746
 51
0.0
  0
ARC
  5
7E30
  8
0
 10
4034.002114154667197
 20
99.1685993418348062
 30
0.0
 40
0.018
 50
359.9999999999885745
 51
90.0
  0
LINE
  5
7E31
  8
0
 10
4033.9254977227501513
 20
98.3245990218344446
 30
0.0
 11
4033.9254977227501513
 21
99.168599021834936
 31
0.0
  0
LINE
  5
7E32
  8
0
 10
4033.9254977227501513
 20
98.3245990218344446
 30
0.0
 11
4033.9254977227501513
 21
99.168599021834936
 31
0.0
  0
ARC
  5
7E33
  8
0
 10
4033.9074977227510317
 20
98.3245990218344446
 30
0.0
 40
0.018
 50
269.9999999999478746
 51
0.0
  0
ARC
  5
7E34
  8
0
 10
4033.9074977227510317
 20
99.168599021834936
 30
0.0
 40
0.018
 50
359.9999999999885745
 51
90.0
  0
LINE
  5
7E35
  8
0
 10
4033.8291281276660811
 20
98.3245993418343147
 30
0.0
 11
4033.8291281276660811
 21
99.1685993418348062
 31
0.0
  0
LINE
  5
7E36
  8
0
 10
4033.8291281276660811
 20
98.3245993418343147
 30
0.0
 11
4033.8291281276660811
 21
99.1685993418348062
 31
0.0
  0
ARC
  5
7E37
  8
0
 10
4033.811128127666052
 20
98.3245993418343147
 30
0.0
 40
0.018
 50
269.9999999999478746
 51
0.0
  0
ARC
  5
7E38
  8
0
 10
4033.811128127666052
 20
99.1685993418348062
 30
0.0
 40
0.018
 50
359.9999999999885745
 51
90.0
  0
LINE
  5
7E39
  8
0
 10
4033.7347343253659346
 20
98.3245993418343147
 30
0.0
 11
4033.7347343253659346
 21
99.1685993418348062
 31
0.0
  0
LINE
  5
7E3A
  8
0
 10
4033.7347343253659346
 20
98.3245993418343147
 30
0.0
 11
4033.7347343253659346
 21
99.1685993418348062
 31
0.0
  0
ARC
  5
7E3B
  8
0
 10
4033.7167343253659055
 20
98.3245993418343147
 30
0.0
 40
0.018
 50
269.9999999999478746
 51
0.0
  0
ARC
  5
7E3C
  8
0
 10
4033.7167343253659055
 20
99.1685993418348062
 30
0.0
 40
0.018
 50
359.9999999999885745
 51
90.0
  0
LINE
  5
7E3D
  8
0
 10
4033.6430429018660107
 20
98.3245993418343147
 30
0.0
 11
4033.6430429018660107
 21
99.1685993418348062
 31
0.0
  0
LINE
  5
7E3E
  8
0
 10
4033.6430429018660107
 20
98.3245993418343147
 30
0.0
 11
4033.6430429018660107
 21
99.1685993418348062
 31
0.0
  0
ARC
  5
7E3F
  8
0
 10
4033.6250429018659815
 20
98.3245993418343147
 30
0.0
 40
0.018
 50
269.9999999999478746
 51
0.0
  0
ARC
  5
7E40
  8
0
 10
4033.6250429018659815
 20
99.1685993418348062
 30
0.0
 40
0.018
 50
359.9999999999885745
 51
90.0
  0
LINE
  5
7E41
  8
0
 10
4033.5555281012661908
 20
98.3245993418343147
 30
0.0
 11
4033.5555281012661908
 21
99.1685993418348062
 31
0.0
  0
LINE
  5
7E42
  8
0
 10
4033.5555281012661908
 20
98.3245993418343147
 30
0.0
 11
4033.5555281012661908
 21
99.1685993418348062
 31
0.0
  0
ARC
  5
7E43
  8
0
 10
4033.5375281012661617
 20
98.3245993418343147
 30
0.0
 40
0.018
 50
269.9999999999478746
 51
0.0
  0
ARC
  5
7E44
  8
0
 10
4033.5375281012661617
 20
99.1685993418348062
 30
0.0
 40
0.018
 50
359.9999999999885745
 51
90.0
  0
LINE
  5
7E45
  8
0
 10
4033.4741448594668327
 20
98.3245993418343147
 30
0.0
 11
4033.4741448594668327
 21
99.1685993418348062
 31
0.0
  0
LINE
  5
7E46
  8
0
 10
4033.4741448594668327
 20
98.3245993418343147
 30
0.0
 11
4033.4741448594668327
 21
99.1685993418348062
 31
0.0
  0
ARC
  5
7E47
  8
0
 10
4033.4561448594658941
 20
98.3245993418343147
 30
0.0
 40
0.018
 50
269.9999999999478746
 51
0.0
  0
ARC
  5
7E48
  8
0
 10
4033.4561448594658941
 20
99.1685993418348062
 30
0.0
 40
0.018
 50
359.9999999999885745
 51
90.0
  0
LINE
  5
7E49
  8
0
 10
4033.4007111437667845
 20
98.3245993418343147
 30
0.0
 11
4033.4007111437667845
 21
99.1685993418348062
 31
0.0
  0
LINE
  5
7E4A
  8
0
 10
4033.4007111437667845
 20
98.3245993418343147
 30
0.0
 11
4033.4007111437667845
 21
99.1685993418348062
 31
0.0
  0
ARC
  5
7E4B
  8
0
 10
4033.3827111437672102
 20
98.3245993418343147
 30
0.0
 40
0.018
 50
269.9999999999478746
 51
0.0
  0
ARC
  5
7E4C
  8
0
 10
4033.3827111437672102
 20
99.1685993418348062
 30
0.0
 40
0.018
 50
359.9999999999885745
 51
90.0
  0
LINE
  5
7E4D
  8
0
 10
4033.3368673418672188
 20
98.3245993418343147
 30
0.0
 11
4033.3368673418672188
 21
99.1685993418348062
 31
0.0
  0
LINE
  5
7E4E
  8
0
 10
4033.3368673418672188
 20
98.3245993418343147
 30
0.0
 11
4033.3368673418672188
 21
99.1685993418348062
 31
0.0
  0
ARC
  5
7E4F
  8
0
 10
4033.3188673418671897
 20
98.3245993418343147
 30
0.0
 40
0.018
 50
269.9999999999478746
 51
0.0
  0
ARC
  5
7E50
  8
0
 10
4033.3188673418671897
 20
99.1685993418348062
 30
0.0
 40
0.018
 50
359.9999999999885745
 51
90.0
  0
LINE
  5
7E51
  8
0
 10
4033.2840396187671104
 20
98.3245993418343147
 30
0.0
 11
4033.2840396187671104
 21
99.1685993418348062
 31
0.0
  0
LINE
  5
7E52
  8
0
 10
4033.2840396187671104
 20
98.3245993418343147
 30
0.0
 11
4033.2840396187671104
 21
99.1685993418348062
 31
0.0
  0
ARC
  5
7E53
  8
0
 10
4033.2660396187670813
 20
98.3245993418343147
 30
0.0
 40
0.018
 50
269.9999999999478746
 51
0.0
  0
ARC
  5
7E54
  8
0
 10
4033.2660396187670813
 20
99.1685993418348062
 30
0.0
 40
0.018
 50
359.9999999999885745
 51
90.0
  0
LINE
  5
7E55
  8
0
 10
4044.1692785855711918
 20
95.8824654367661537
 30
0.0
 11
4044.1692785855711918
 21
98.2424654367661532
 31
0.0
  0
ARC
  5
7E56
  8
0
 10
4044.1792785855718648
 20
95.8824654367661537
 30
0.0
 40
0.01
 50
179.9999999999593001
 51
270.0000000000521254
  0
ARC
  5
7E57
  8
0
 10
4044.1792785855718648
 20
98.2424654367661532
 30
0.0
 40
0.01
 50
90.0
 51
180.0
  0
LINE
  5
7E58
  8
0
 10
4044.213057877565916
 20
95.8824654317348148
 30
0.0
 11
4044.213057877565916
 21
98.2424654317348001
 31
0.0
  0
ARC
  5
7E59
  8
0
 10
4044.2230578775661343
 20
95.8824654317348148
 30
0.0
 40
0.01
 50
179.9999999999593001
 51
270.0000000000521254
  0
ARC
  5
7E5A
  8
0
 10
4044.2230578775661343
 20
98.2424654317348001
 30
0.0
 40
0.01
 50
90.0
 51
180.0
  0
LINE
  5
7E5B
  8
0
 10
4044.2782847409671376
 20
95.8824654317348148
 30
0.0
 11
4044.2782847409671376
 21
98.2424654317348143
 31
0.0
  0
ARC
  5
7E5C
  8
0
 10
4044.2882847409659917
 20
95.8824654317348148
 30
0.0
 40
0.01
 50
179.9999999999593001
 51
270.0000000000521254
  0
ARC
  5
7E5D
  8
0
 10
4044.2882847409659917
 20
98.2424654317348143
 30
0.0
 40
0.01
 50
90.0
 51
180.0
  0
LINE
  5
7E5E
  8
0
 10
4044.3504549261660941
 20
95.8824654317348148
 30
0.0
 11
4044.3504549261660941
 21
98.2424654317348143
 31
0.0
  0
ARC
  5
7E5F
  8
0
 10
4044.3604549261672219
 20
95.8824654317348148
 30
0.0
 40
0.01
 50
179.9999999999593001
 51
270.0000000000521254
  0
ARC
  5
7E60
  8
0
 10
4044.3604549261672219
 20
98.2424654317348143
 30
0.0
 40
0.01
 50
90.0
 51
180.0
  0
LINE
  5
7E61
  8
0
 10
4044.4290903905671257
 20
95.8824654317348148
 30
0.0
 11
4044.4290903905671257
 21
98.2424654317348143
 31
0.0
  0
ARC
  5
7E62
  8
0
 10
4044.4390903905659798
 20
95.8824654317348148
 30
0.0
 40
0.01
 50
179.9999999999593001
 51
270.0000000000521254
  0
ARC
  5
7E63
  8
0
 10
4044.4390903905659798
 20
98.2424654317348143
 30
0.0
 40
0.01
 50
90.0
 51
180.0
  0
LINE
  5
7E64
  8
0
 10
4044.5360816539641746
 20
95.8824654352224854
 30
0.0
 11
4044.5360816539641746
 21
98.2424654352224849
 31
0.0
  0
ARC
  5
7E65
  8
0
 10
4044.5460816539639382
 20
95.8824654352224854
 30
0.0
 40
0.01
 50
179.9999999999593001
 51
270.0000000000521254
  0
ARC
  5
7E66
  8
0
 10
4044.5460816539639382
 20
98.2424654352224849
 30
0.0
 40
0.01
 50
90.0
 51
180.0
  0
LINE
  5
7E67
  8
0
 10
4044.6377562911698078
 20
95.8824654410665858
 30
0.0
 11
4044.6377562911698078
 21
98.2424654410665994
 31
0.0
  0
ARC
  5
7E68
  8
0
 10
4044.6477562911700261
 20
95.8824654410665858
 30
0.0
 40
0.01
 50
179.9999999999593001
 51
270.0000000000521254
  0
ARC
  5
7E69
  8
0
 10
4044.6477562911700261
 20
98.2424654410665994
 30
0.0
 40
0.01
 50
90.0
 51
180.0
  0
LINE
  5
7E6A
  8
0
 10
4044.7381712159672134
 20
95.8824654317348148
 30
0.0
 11
4044.7381712159672134
 21
98.2424654317348143
 31
0.0
  0
ARC
  5
7E6B
  8
0
 10
4044.7481712159660674
 20
95.8824654317348148
 30
0.0
 40
0.01
 50
179.9999999999593001
 51
270.0000000000521254
  0
ARC
  5
7E6C
  8
0
 10
4044.7481712159660674
 20
98.2424654317348143
 30
0.0
 40
0.01
 50
90.0
 51
180.0
  0
LINE
  5
7E6D
  8
0
 10
4044.8337063993672018
 20
95.8824654317348148
 30
0.0
 11
4044.8337063993672018
 21
98.2424654317348143
 31
0.0
  0
ARC
  5
7E6E
  8
0
 10
4044.8437063993660558
 20
95.8824654317348148
 30
0.0
 40
0.01
 50
179.9999999999593001
 51
270.0000000000521254
  0
ARC
  5
7E6F
  8
0
 10
4044.8437063993660558
 20
98.2424654317348143
 30
0.0
 40
0.01
 50
90.0
 51
180.0
  0
LINE
  5
7E70
  8
0
 10
4044.9222943513659629
 20
95.8824654317348148
 30
0.0
 11
4044.9222943513659629
 21
98.2424654317348143
 31
0.0
  0
ARC
  5
7E71
  8
0
 10
4044.9322943513661812
 20
95.8824654317348148
 30
0.0
 40
0.01
 50
179.9999999999593001
 51
270.0000000000521254
  0
ARC
  5
7E72
  8
0
 10
4044.9322943513661812
 20
98.2424654317348143
 30
0.0
 40
0.01
 50
90.0
 51
180.0
  0
LINE
  5
7E73
  8
0
 10
4045.0003082707671638
 20
95.8824654317348148
 30
0.0
 11
4045.0003082707671638
 21
98.2424654317348143
 31
0.0
  0
ARC
  5
7E74
  8
0
 10
4045.0103082707660178
 20
95.8824654317348148
 30
0.0
 40
0.01
 50
179.9999999999593001
 51
270.0000000000521254
  0
ARC
  5
7E75
  8
0
 10
4045.0103082707660178
 20
98.2424654317348143
 30
0.0
 40
0.01
 50
90.0
 51
180.0
  0
LINE
  5
7E76
  8
0
 10
4045.078323758640181
 20
95.8824653388774379
 30
0.0
 11
4045.078323758640181
 21
98.2424653388774516
 31
0.0
  0
ARC
  5
7E77
  8
0
 10
4045.0883237586399446
 20
95.8824653388774379
 30
0.0
 40
0.01
 50
179.9999999999593001
 51
270.0000000000521254
  0
ARC
  5
7E78
  8
0
 10
4045.0883237586399446
 20
98.2424653388774516
 30
0.0
 40
0.01
 50
90.0
 51
180.0
  0
LINE
  5
7E79
  8
0
 10
4045.1280352314711308
 20
95.8824653207172446
 30
0.0
 11
4045.1280352314711308
 21
98.242465320717244
 31
0.0
  0
ARC
  5
7E7A
  8
0
 10
4045.1380352314708944
 20
95.8824653207172446
 30
0.0
 40
0.01
 50
179.9999999999593001
 51
270.0000000000521254
  0
ARC
  5
7E7B
  8
0
 10
4045.1380352314708944
 20
98.242465320717244
 30
0.0
 40
0.01
 50
90.0
 51
180.0
  0
LINE
  5
7E7C
  8
0
 10
4045.1785239390669631
 20
95.8824654317348148
 30
0.0
 11
4045.1785239390669631
 21
98.2424654317348143
 31
0.0
  0
ARC
  5
7E7D
  8
0
 10
4045.1685239390671995
 20
95.8824654317348148
 30
0.0
 40
0.01
 50
269.9999999999478746
 51
0.0000000000407111
  0
ARC
  5
7E7E
  8
0
 10
4045.1685239390671995
 20
98.2424654317348143
 30
0.0
 40
0.01
 50
0.0
 51
90.0
  0
LINE
  5
7E7F
  8
0
 10
4045.1587496178308356
 20
95.8824654350745362
 30
0.0
 11
4045.1587496178308356
 21
98.2424654350745357
 31
0.0
  0
ARC
  5
7E80
  8
0
 10
4045.1487496178310721
 20
95.8824654350745362
 30
0.0
 40
0.01
 50
269.9999999999478746
 51
0.0000000000407111
  0
ARC
  5
7E81
  8
0
 10
4045.1487496178310721
 20
98.2424654350745357
 30
0.0
 40
0.01
 50
0.0
 51
90.0
  0
LINE
  5
7E82
  8
0
 10
4045.1127169087671973
 20
95.8824654317348148
 30
0.0
 11
4045.1127169087671973
 21
98.2424654317348143
 31
0.0
  0
ARC
  5
7E83
  8
0
 10
4045.1027169087660695
 20
95.8824654317348148
 30
0.0
 40
0.01
 50
269.9999999999478746
 51
0.0000000000407111
  0
ARC
  5
7E84
  8
0
 10
4045.1027169087660695
 20
98.2424654317348143
 30
0.0
 40
0.01
 50
0.0
 51
90.0
  0
LINE
  5
7E85
  8
0
 10
4045.0497430315667771
 20
95.8824654317348148
 30
0.0
 11
4045.0497430315667771
 21
98.2424654317348143
 31
0.0
  0
ARC
  5
7E86
  8
0
 10
4045.039743031566104
 20
95.8824654317348148
 30
0.0
 40
0.01
 50
269.9999999999478746
 51
0.0000000000407111
  0
ARC
  5
7E87
  8
0
 10
4045.039743031566104
 20
98.2424654317348143
 30
0.0
 40
0.01
 50
0.0
 51
90.0
  0
LINE
  5
7E88
  8
0
 10
4044.9709773579670582
 20
95.8824654317348148
 30
0.0
 11
4044.9709773579670582
 21
98.2424654317348143
 31
0.0
  0
ARC
  5
7E89
  8
0
 10
4044.9609773579659304
 20
95.8824654317348148
 30
0.0
 40
0.01
 50
269.9999999999478746
 51
0.0000000000407111
  0
ARC
  5
7E8A
  8
0
 10
4044.9609773579659304
 20
98.2424654317348143
 30
0.0
 40
0.01
 50
0.0
 51
90.0
  0
LINE
  5
7E8B
  8
0
 10
4044.8796445636671706
 20
95.8824654317348148
 30
0.0
 11
4044.8796445636671706
 21
98.2424654317348143
 31
0.0
  0
ARC
  5
7E8C
  8
0
 10
4044.8696445636660428
 20
95.8824654317348148
 30
0.0
 40
0.01
 50
269.9999999999478746
 51
0.0000000000407111
  0
ARC
  5
7E8D
  8
0
 10
4044.8696445636660428
 20
98.2424654317348143
 30
0.0
 40
0.01
 50
0.0
 51
90.0
  0
LINE
  5
7E8E
  8
0
 10
4044.7919461389210483
 20
95.8824654282639131
 30
0.0
 11
4044.7919461389210483
 21
98.2424654282638983
 31
0.0
  0
ARC
  5
7E8F
  8
0
 10
4044.78194613892083
 20
95.8824654282639131
 30
0.0
 40
0.01
 50
269.9999999999478746
 51
0.0000000000407111
  0
ARC
  5
7E90
  8
0
 10
4044.78194613892083
 20
98.2424654282638983
 30
0.0
 40
0.01
 50
0.0
 51
90.0
  0
LINE
  5
7E91
  8
0
 10
4044.6902715248638742
 20
95.8824654224030439
 30
0.0
 11
4044.6902715248638742
 21
98.2424654224030149
 31
0.0
  0
ARC
  5
7E92
  8
0
 10
4044.6802715248650202
 20
95.8824654224030439
 30
0.0
 40
0.01
 50
269.9999999999478746
 51
0.0000000000407111
  0
ARC
  5
7E93
  8
0
 10
4044.6802715248650202
 20
98.2424654224030149
 30
0.0
 40
0.01
 50
0.0
 51
90.0
  0
LINE
  5
7E94
  8
0
 10
4044.5898565565530589
 20
95.8824654314300062
 30
0.0
 11
4044.5898565565530589
 21
98.2424654314300057
 31
0.0
  0
ARC
  5
7E95
  8
0
 10
4044.5798565565528406
 20
95.8824654314300062
 30
0.0
 40
0.01
 50
269.9999999999478746
 51
0.0000000000407111
  0
ARC
  5
7E96
  8
0
 10
4044.5798565565528406
 20
98.2424654314300057
 30
0.0
 40
0.01
 50
0.0
 51
90.0
  0
LINE
  5
7E97
  8
0
 10
4044.4943213731280593
 20
95.8824654307033768
 30
0.0
 11
4044.4943213731280593
 21
98.2424654307033904
 31
0.0
  0
ARC
  5
7E98
  8
0
 10
4044.4843213731278411
 20
95.8824654307033768
 30
0.0
 40
0.01
 50
269.9999999999478746
 51
0.0000000000407111
  0
ARC
  5
7E99
  8
0
 10
4044.4843213731278411
 20
98.2424654307033904
 30
0.0
 40
0.01
 50
0.0
 51
90.0
  0
LINE
  5
7E9A
  8
0
 10
4044.39728324207681
 20
95.8824653593899541
 30
0.0
 11
4044.39728324207681
 21
98.2424653593899535
 31
0.0
  0
ARC
  5
7E9B
  8
0
 10
4044.3872832420770465
 20
95.8824653593899541
 30
0.0
 40
0.01
 50
269.9999999999478746
 51
0.0000000000407111
  0
ARC
  5
7E9C
  8
0
 10
4044.3872832420770465
 20
98.2424653593899535
 30
0.0
 40
0.01
 50
0.0
 51
90.0
  0
LINE
  5
7E9D
  8
0
 10
4044.3277195016830774
 20
95.8824654289558964
 30
0.0
 11
4044.3277195016830774
 21
98.2424654289559243
 31
0.0
  0
ARC
  5
7E9E
  8
0
 10
4044.3177195016819496
 20
95.8824654289558964
 30
0.0
 40
0.01
 50
269.9999999999478746
 51
0.0000000000407111
  0
ARC
  5
7E9F
  8
0
 10
4044.3177195016819496
 20
98.2424654289559243
 30
0.0
 40
0.01
 50
0.0
 51
90.0
  0
LINE
  5
7EA0
  8
0
 10
4044.2634735138640281
 20
95.8824654281191471
 30
0.0
 11
4044.2634735138640281
 21
98.2424654281191465
 31
0.0
  0
ARC
  5
7EA1
  8
0
 10
4044.2534735138638098
 20
95.8824654281191471
 30
0.0
 40
0.01
 50
269.9999999999478746
 51
0.0000000000407111
  0
ARC
  5
7EA2
  8
0
 10
4044.2534735138638098
 20
98.2424654281191465
 30
0.0
 40
0.01
 50
0.0
 51
90.0
  0
LINE
  5
7EA3
  8
0
 10
4044.1999929360458736
 20
95.8824652644313744
 30
0.0
 11
4044.1999929360458736
 21
98.2424652644314023
 31
0.0
  0
ARC
  5
7EA4
  8
0
 10
4044.1899929360461101
 20
95.8824652644313744
 30
0.0
 40
0.01
 50
269.9999999999478746
 51
0.0000000000407111
  0
ARC
  5
7EA5
  8
0
 10
4044.1899929360461101
 20
98.2424652644314023
 30
0.0
 40
0.01
 50
0.0
 51
90.0
  0
ENDSEC
  0
EOF
