  0
SECTION
  2
HEADER
  9
$ACADVER
  1
AC1009
  9
$INSBASE
 10
3997.3507210585257781
 20
59.8865494544339967
 30
0.0
  9
$EXTMIN
 10
3993.2546360793357962
 20
59.8769421412694101
 30
-0.0015258207003583
  9
$EXTMAX
 10
4003.0273491574412219
 20
103.3014378977627956
 30
0.0000000349246037
  9
$LIMMIN
 10
0.0
 20
0.0
  9
$LIMMAX
 10
11.6929133858000007
 20
8.2677165353999982
  9
$ORTHOMODE
 70
     0
  9
$REGENMODE
 70
     1
  9
$FILLMODE
 70
     1
  9
$QTEXTMODE
 70
     0
  9
$MIRRTEXT
 70
     0
  9
$DRAGMODE
 70
     2
  9
$LTSCALE
 40
0.6431102362
  9
$OSMODE
 70
  4095
  9
$ATTMODE
 70
     1
  9
$TEXTSIZE
 40
0.2
  9
$TRACEWID
 40
0.05
  9
$TEXTSTYLE
  7
STANDARD
  9
$CLAYER
  8
0
  9
$CELTYPE
  6
BYLAYER
  9
$CECOLOR
 62
   256
  9
$DIMSCALE
 40
1.0
  9
$DIMASZ
 40
0.1875
  9
$DIMEXO
 40
0.0625
  9
$DIMDLI
 40
0.4443307087
  9
$DIMRND
 40
0.0
  9
$DIMDLE
 40
0.0
  9
$DIMEXE
 40
0.125
  9
$DIMTP
 40
0.01
  9
$DIMTM
 40
0.01
  9
$DIMTXT
 40
2.0
  9
$DIMCEN
 40
0.1052362205
  9
$DIMTSZ
 40
0.0
  9
$DIMTOL
 70
     1
  9
$DIMLIM
 70
     0
  9
$DIMTIH
 70
     1
  9
$DIMTOH
 70
     1
  9
$DIMSE1
 70
     0
  9
$DIMSE2
 70
     0
  9
$DIMTAD
 70
     0
  9
$DIMZIN
 70
     0
  9
$DIMBLK
  1

  9
$DIMASO
 70
     1
  9
$DIMSHO
 70
     1
  9
$DIMPOST
  1
\X
  9
$DIMAPOST
  1

  9
$DIMALT
 70
     1
  9
$DIMALTD
 70
     2
  9
$DIMALTF
 40
25.3999999999999986
  9
$DIMLFAC
 40
1.0
  9
$DIMTOFL
 70
     0
  9
$DIMTVP
 40
0.0
  9
$DIMTIX
 70
     0
  9
$DIMSOXD
 70
     0
  9
$DIMSAH
 70
     0
  9
$DIMBLK1
  1

  9
$DIMBLK2
  1

  9
$DIMSTYLE
  2
STANDARD
  9
$DIMCLRD
 70
     0
  9
$DIMCLRE
 70
     0
  9
$DIMCLRT
 70
     0
  9
$DIMTFAC
 40
1.0
  9
$DIMGAP
 40
0.09
  9
$LUNITS
 70
     2
  9
$LUPREC
 70
     4
  9
$SKETCHINC
 40
0.1
  9
$FILLETRAD
 40
0.0
  9
$AUNITS
 70
     0
  9
$AUPREC
 70
     0
  9
$MENU
  1
.
  9
$ELEVATION
 40
0.0
  9
$PELEVATION
 40
0.0
  9
$THICKNESS
 40
0.0
  9
$LIMCHECK
 70
     0
  9
$BLIPMODE
 70
     0
  9
$CHAMFERA
 40
0.0
  9
$CHAMFERB
 40
0.0
  9
$SKPOLY
 70
     0
  9
$TDCREATE
 40
2458060.468368056230247
  9
$TDUPDATE
 40
2460253.6353703709319234
  9
$TDINDWG
 40
0.4387686343
  9
$TDUSRTIMER
 40
0.4387686343
  9
$USRTIMER
 70
     1
  9
$ANGBASE
 50
0.0
  9
$ANGDIR
 70
     0
  9
$PDMODE
 70
     0
  9
$PDSIZE
 40
0.3125
  9
$PLINEWID
 40
0.0
  9
$COORDS
 70
     1
  9
$SPLFRAME
 70
     0
  9
$SPLINETYPE
 70
     6
  9
$SPLINESEGS
 70
     8
  9
$ATTDIA
 70
     1
  9
$ATTREQ
 70
     1
  9
$HANDLING
 70
     1
  9
$HANDSEED
  5
7D95
  9
$SURFTAB1
 70
     6
  9
$SURFTAB2
 70
     6
  9
$SURFTYPE
 70
     6
  9
$SURFU
 70
     6
  9
$SURFV
 70
     6
  9
$UCSNAME
  2

  9
$UCSORG
 10
0.0
 20
0.0
 30
0.0
  9
$UCSXDIR
 10
1.0
 20
0.0
 30
0.0
  9
$UCSYDIR
 10
0.0
 20
1.0
 30
0.0
  9
$PUCSNAME
  2

  9
$PUCSORG
 10
0.0
 20
0.0
 30
0.0
  9
$PUCSXDIR
 10
1.0
 20
0.0
 30
0.0
  9
$PUCSYDIR
 10
0.0
 20
1.0
 30
0.0
  9
$USERI1
 70
     0
  9
$USERI2
 70
     0
  9
$USERI3
 70
     0
  9
$USERI4
 70
     0
  9
$USERI5
 70
     0
  9
$USERR1
 40
0.0
  9
$USERR2
 40
0.0
  9
$USERR3
 40
0.0
  9
$USERR4
 40
0.0
  9
$USERR5
 40
0.0
  9
$WORLDVIEW
 70
     1
  9
$SHADEDGE
 70
     3
  9
$SHADEDIF
 70
    70
  9
$TILEMODE
 70
     1
  9
$MAXACTVP
 70
    64
  9
$PLIMCHECK
 70
     0
  9
$PEXTMIN
 10
1.0000000000000000E+20
 20
1.0000000000000000E+20
 30
1.0000000000000000E+20
  9
$PEXTMAX
 10
-1.0000000000000000E+20
 20
-1.0000000000000000E+20
 30
-1.0000000000000000E+20
  9
$PLIMMIN
 10
0.0
 20
0.0
  9
$PLIMMAX
 10
12.0
 20
9.0
  9
$UNITMODE
 70
     0
  9
$VISRETAIN
 70
     1
  9
$PLINEGEN
 70
     0
  9
$PSLTSCALE
 70
     1
  0
ENDSEC
  0
SECTION
  2
TABLES
  0
TABLE
  2
VPORT
 70
     1
  0
VPORT
  2
*ACTIVE
 70
     0
 10
0.0
 20
0.0
 11
1.0
 21
1.0
 12
205.783082462138708
 22
-38.5914664135893588
 13
0.0
 23
0.0
 14
1.0
 24
1.0
 15
0.0
 25
0.0
 16
0.0
 26
0.0
 36
5.1040778033513332
 17
3792.35791015625
 27
120.1806564331053977
 37
0.0
 40
43.7668702302633932
 41
2.498684210526315
 42
50.0
 43
0.0
 44
0.0
 50
0.0
 51
0.0
 71
     0
 72
   100
 73
     1
 74
     1
 75
     0
 76
     0
 77
     0
 78
     0
  0
ENDTAB
  0
TABLE
  2
LTYPE
 70
     2
  0
LTYPE
  2
CONTINUOUS
 70
     0
  3
Solid line
 72
    65
 73
     0
 40
0.0
  0
LTYPE
  2
PHANTOM2
 70
     0
  3
___ _ _ ___ _ _ ___ _ _ ___ _ _
 72
    65
 73
     6
 40
1.25
 49
0.625
 49
-0.125
 49
0.125
 49
-0.125
 49
0.125
 49
-0.125
  0
ENDTAB
  0
TABLE
  2
LAYER
 70
     2
  0
LAYER
  2
0
 70
     0
 62
   255
  6
CONTINUOUS
  0
LAYER
  2
DEFPOINTS
 70
     0
 62
     7
  6
CONTINUOUS
  0
ENDTAB
  0
TABLE
  2
STYLE
 70
     1
  0
STYLE
  2
STANDARD
 70
     0
 40
0.0
 41
0.8
 50
0.0
 71
     0
 42
0.2
  3
txt
  4

  0
ENDTAB
  0
TABLE
  2
VIEW
 70
     0
  0
ENDTAB
  0
TABLE
  2
UCS
 70
     0
  0
ENDTAB
  0
TABLE
  2
APPID
 70
     9
  0
APPID
  2
ACAD
 70
     0
  0
APPID
  2
ACAD_MLEADERVER
 70
     0
  0
APPID
  2
ACAD_EXEMPT_FROM_CAD_STANDARDS
 70
     0
  0
APPID
  2
ACAD_NAV_VCDISPLAY
 70
     0
  0
APPID
  2
ACAECLAYERSTANDARD
 70
     0
  0
APPID
  2
ACCMTRANSPARENCY
 70
     0
  0
APPID
  2
ACAD_DSTYLE_DIMJAG
 70
     0
  0
APPID
  2
ACAD_DSTYLE_DIMTALN
 70
     0
  0
APPID
  2
ACDBATTR
 70
     0
  0
ENDTAB
  0
TABLE
  2
DIMSTYLE
 70
     1
  0
DIMSTYLE
  2
STANDARD
 70
     0
  3

  4

  5

  6

  7

 40
1.0
 41
0.1875
 42
0.0625
 43
0.38
 44
0.125
 45
0.0
 46
0.0
 47
0.01
 48
0.01
140
0.15625
141
0.09
142
0.0
143
25.3999999999999986
144
1.0
145
0.0
146
1.0
147
0.09
 71
     1
 72
     0
 73
     1
 74
     1
 75
     0
 76
     0
 77
     0
 78
     4
170
     0
171
     2
172
     0
173
     0
174
     0
175
     0
176
     0
177
     0
178
     0
  0
ENDTAB
  0
ENDSEC
  0
SECTION
  2
BLOCKS
  0
BLOCK
  8
0
  2
$MODEL_SPACE
 70
     0
 10
0.0
 20
0.0
 30
0.0
  3
$MODEL_SPACE
  1

  0
ENDBLK
  5
21
  8
0
  0
BLOCK
 67
     1
  8
0
  2
$PAPER_SPACE
 70
     0
 10
0.0
 20
0.0
 30
0.0
  3
$PAPER_SPACE
  1

  0
ENDBLK
  5
1D
 67
     1
  8
0
  0
BLOCK
  8
0
  2
_FILLED
 70
     0
 10
0.0
 20
0.0
 30
0.0
  3
_FILLED
  1

  0
SOLID
  5
69B4
  8
0
  6
BYBLOCK
 62
     0
 10
0.0
 20
0.0
 30
0.0
 11
-1.0
 21
0.1666666667
 31
0.0
 12
-1.0
 22
-0.1666666667
 32
0.0
 13
-1.0
 23
-0.1666666667
 33
0.0
  0
ENDBLK
  5
69B5
  8
0
  6
BYBLOCK
 62
     0
  0
BLOCK
  8
0
  2
A$CDFAF6206
 70
     0
 10
0.0
 20
0.0
 30
0.0
  3
A$CDFAF6206
  1

  0
LINE
  5
6A0E
  8
0
 10
7.4646650085734834
 20
10.9287685970688493
 30
0.0
 11
7.4646650085734896
 21
10.8905784766688498
 31
0.0
  0
ARC
  5
6A0F
  8
0
 10
7.7269027075262349
 20
10.8926811525838598
 30
0.0
 40
0.2622461286616791
 50
180.4593995232625048
 51
217.0214027758331099
  0
LINE
  5
6A10
  8
0
 10
9.767814609867095
 20
10.9287685970688493
 30
0.0
 11
9.767814609867095
 21
10.8905433757650094
 31
0.0
  0
ARC
  5
6A11
  8
0
 10
9.5068669568548287
 20
10.8922438613003703
 30
0.0
 40
0.2609531936261092
 50
322.8847083717149076
 51
359.6266329125650145
  0
LINE
  5
6A12
  8
0
 10
7.517522606271406
 20
10.7347792678688396
 30
0.0
 11
9.7149570120691777
 21
10.7347792678688396
 31
0.0
  0
LINE
  5
6A13
  8
0
 10
7.4646650085734834
 20
10.9287685970688493
 30
0.0
 11
9.7678146123202936
 21
10.9287685970688493
 31
0.0
  0
ARC
  5
6A14
  8
0
 10
4.0826771419203629
 20
8.527951346868889
 30
0.0
 40
4.0826771653999172
 50
13.3117747050523896
 51
32.7200330051415591
  0
ARC
  5
6A15
  8
0
 10
4.0826771460567306
 20
8.5279513475907933
 30
0.0
 40
4.0826771612084691
 50
359.6656501984817851
 51
13.3117747085593798
  0
ARC
  5
6A16
  8
0
 10
13.1498041284835097
 20
8.5279508235212234
 30
0.0
 40
4.0826788382043553
 50
147.2799733478981068
 51
166.6882233021349862
  0
ARC
  5
6A17
  8
0
 10
13.1498064934207992
 20
8.5279506557033251
 30
0.0
 40
4.0826811782395342
 50
166.688228652086309
 51
180.3343397625230011
  0
LINE
  5
6A18
  8
0
 10
8.1652847935202928
 20
8.504127000268852
 30
0.0
 11
9.0671948248202892
 21
8.5041270002687881
 31
0.0
  0
LINE
  5
6A19
  8
0
 10
8.1652847935202786
 20
8.5041270002667204
 30
0.0
 11
8.1652847935202928
 21
8.3607006934688481
 31
0.0
  0
ARC
  5
6A1A
  8
0
 10
5.6196779630382627
 20
8.3631022096452732
 30
0.0
 40
2.545607963272567
 50
342.0511668832173768
 51
359.945947387132378
  0
LINE
  5
6A1B
  8
0
 10
9.0671948248202892
 20
8.5041270002687881
 30
0.0
 11
9.0671948248202892
 21
8.2885990108688503
 31
0.0
  0
ARC
  5
6A1C
  8
0
 10
9.4521885297801163
 20
7.9614488056228501
 30
0.0
 40
0.5052201595850959
 50
139.6436242991769916
 51
174.6757930071850069
  0
ARC
  5
6A1D
  8
0
 10
9.9238413395551746
 20
8.1492417579399508
 30
0.0
 40
0.9848265662939324
 50
188.2263441834095943
 51
209.5593615864376034
  0
ARC
  5
6A1E
  8
0
 10
8.0788764238271256
 20
7.5665710856463297
 30
0.0
 40
0.0393715937169877
 50
162.1669117288323037
 51
227.2023190037006088
  0
ARC
  5
6A1F
  8
0
 10
8.7223682141740682
 20
8.2079667397440517
 30
0.0
 40
0.947895137885075
 50
225.0018610752970858
 51
261.4598823366255829
  0
ARC
  5
6A20
  8
0
 10
8.6645157662702701
 20
8.1695128573935332
 30
0.0
 40
0.9027466462812931
 50
264.7303071214498118
 51
281.8608311947915013
  0
ARC
  5
6A21
  8
0
 10
8.6645157662698935
 20
8.1695128573999671
 30
0.0
 40
0.9027466462876658
 50
299.1741886792128753
 51
299.1743179154552195
  0
ARC
  5
6A22
  8
0
 10
9.0843330931590316
 20
7.4150554710086141
 30
0.0
 40
0.0393703053609601
 50
251.9700352025496954
 51
252.4698971938937859
  0
ARC
  5
6A23
  8
0
 10
9.0843330931590316
 20
7.4150554710086141
 30
0.0
 40
0.0393703053609601
 50
297.2453716727138726
 51
6.8376113572703074
  0
LINE
  5
6A24
  8
0
 10
9.0671948248202892
 20
7.663402160468852
 30
0.0
 11
9.1234233799329516
 21
7.419742732911689
 31
0.0
  0
ARC
  5
6A25
  8
0
 10
8.8843741880892395
 20
9.8961379890094676
 30
0.0
 40
2.5255097382132701
 50
263.792800240752797
 51
274.9514951129821156
  0
ARC
  5
6A26
  8
0
 10
8.8258167405968848
 20
9.2763025889666508
 30
0.0
 40
1.9029970832759311
 50
246.0108363320686067
 51
263.5276935074397215
  0
ARC
  5
6A27
  8
0
 10
8.607491361665744
 20
8.3225444804829642
 30
0.0
 40
1.064510137163637
 50
283.1717405874071005
 51
297.7022170607311864
  0
LINE
  5
6A28
  8
0
 10
9.0671948248202892
 20
8.2885990108688503
 30
0.0
 11
26.2014378595979593
 21
8.2885990108689942
 31
0.0
  0
LINE
  5
6A29
  8
0
 10
26.2014378595979913
 20
7.6634021604689053
 30
0.0
 11
9.0671948248202892
 21
7.6634021604688618
 31
0.0
  0
LINE
  5
6A2A
  8
0
 10
27.8039676758446994
 20
10.9287685970690802
 30
0.0
 11
27.8039676758446888
 21
10.8905784766690807
 31
0.0
  0
ARC
  5
6A2B
  8
0
 10
27.5417299768919399
 20
10.8926811525840801
 30
0.0
 40
0.2622461286616791
 50
322.9785972241680838
 51
359.5406004767386889
  0
LINE
  5
6A2C
  8
0
 10
25.5008180745510913
 20
10.9287685970690305
 30
0.0
 11
25.5008180745510913
 21
10.8905433757651799
 31
0.0
  0
ARC
  5
6A2D
  8
0
 10
25.7617657275633505
 20
10.8922438613005497
 30
0.0
 40
0.2609531936261092
 50
180.3733670874362929
 51
217.1152916282862861
  0
LINE
  5
6A2E
  8
0
 10
27.7511100781467803
 20
10.7347792678690706
 30
0.0
 11
25.5536756723490015
 21
10.7347792678690208
 31
0.0
  0
LINE
  5
6A2F
  8
0
 10
27.8039676758446888
 20
10.9287685970686006
 30
0.0
 11
25.5008180745510806
 21
10.9287685970686006
 31
0.0
  0
ARC
  5
6A30
  8
0
 10
31.1859555424978616
 20
8.5279513468691981
 30
0.0
 40
4.0826771653999172
 50
147.2799669948597057
 51
166.6882252949490066
  0
ARC
  5
6A31
  8
0
 10
31.185955538361501
 20
8.5279513475911024
 30
0.0
 40
4.0826771612084691
 50
166.6882252914419098
 51
180.3343498015194086
  0
ARC
  5
6A32
  8
0
 10
22.1188285559344706
 20
8.5279508235212251
 30
0.0
 40
4.0826788382046102
 50
13.3117766978667795
 51
32.7200266521023977
  0
ARC
  5
6A33
  8
0
 10
22.1188261909974315
 20
8.5279506557034264
 30
0.0
 40
4.0826811782395342
 50
359.665660237478221
 51
13.31177134791497
  0
LINE
  5
6A34
  8
0
 10
27.1033478908979397
 20
8.5041270002690652
 30
0.0
 11
26.2014378595979416
 21
8.5041270002689835
 31
0.0
  0
LINE
  5
6A35
  8
0
 10
27.1033478908979504
 20
8.5041270002669354
 30
0.0
 11
27.1033478908979397
 21
8.3607006934690649
 31
0.0
  0
ARC
  5
6A36
  8
0
 10
29.6489547213799689
 20
8.3631022096455467
 30
0.0
 40
2.545607963272567
 50
180.0540526128687873
 51
197.9488331167837032
  0
LINE
  5
6A37
  8
0
 10
26.2014378595979416
 20
8.5041270002689835
 30
0.0
 11
26.2014378595979487
 21
8.2885990108690457
 31
0.0
  0
ARC
  5
6A38
  8
0
 10
25.8164441546381305
 20
7.9614488056230366
 30
0.0
 40
0.5052201595850959
 50
5.324206992816312
 51
40.3563757008241879
  0
ARC
  5
6A39
  8
0
 10
25.3447913448601803
 20
8.149241757940846
 30
0.0
 40
0.9848265662968968
 50
330.4406384136033807
 51
351.7736558165743759
  0
ARC
  5
6A3A
  8
0
 10
27.1897562605911212
 20
7.5665710856465473
 30
0.0
 40
0.0393715937169877
 50
312.7976809963004143
 51
17.8330882711689185
  0
ARC
  5
6A3B
  8
0
 10
26.5462644702441715
 20
8.2079667397442542
 30
0.0
 40
0.947895137885075
 50
278.5401176633754972
 51
314.9981389247041079
  0
ARC
  5
6A3C
  8
0
 10
26.6041169181479695
 20
8.1695128573937392
 30
0.0
 40
0.9027466462812931
 50
258.139168805210204
 51
275.2696928785518935
  0
ARC
  5
6A3D
  8
0
 10
26.6041169181483497
 20
8.1695128574001732
 30
0.0
 40
0.9027466462876658
 50
240.8256820845460027
 51
240.8258113207880058
  0
ARC
  5
6A3E
  8
0
 10
26.1842995912592293
 20
7.4150554710088086
 30
0.0
 40
0.0393703053609601
 50
287.5301028061073794
 51
288.0299647974517825
  0
ARC
  5
6A3F
  8
0
 10
26.1842995912592293
 20
7.4150554710088086
 30
0.0
 40
0.0393703053609601
 50
173.1623886427310026
 51
242.7546283272870085
  0
LINE
  5
6A40
  8
0
 10
26.2014378595981192
 20
7.6634021604690448
 30
0.0
 11
26.1452093044853093
 21
7.4197427329118826
 31
0.0
  0
ARC
  5
6A41
  8
0
 10
26.384258496328961
 20
9.8961379890096666
 30
0.0
 40
2.5255097382132701
 50
265.0485048870193054
 51
276.2071997592482262
  0
ARC
  5
6A42
  8
0
 10
26.4428159438213299
 20
9.2763025889668516
 30
0.0
 40
1.9029970832759311
 50
276.4723064925619838
 51
293.9891636679327007
  0
ARC
  5
6A43
  8
0
 10
26.6611413227524885
 20
8.3225444804831703
 30
0.0
 40
1.064510137163637
 50
242.2977829392704052
 51
256.8282594125943774
  0
LINE
  5
6A44
  8
0
 62
     4
 10
17.9031473532159602
 20
10.9287685970686006
 30
0.0
 11
24.6329820359843588
 21
20.0952817181593808
 31
0.0
  0
LINE
  5
6A45
  8
0
 62
     4
 10
17.9031473532159602
 20
-0.0000000300842942
 30
0.0
 11
22.3963351323106608
 21
4.993614497796286
 31
0.0
  0
ENDBLK
  5
6A49
  8
0
  0
ENDSEC
  0
SECTION
  2
ENTITIES
  0
ATTDEF
  5
3930
  8
DEFPOINTS
 10
3997.3427782401649893
 20
59.8837536507951498
 30
0.0
 40
0.001
  1
P80273-00
  3

  2
MODELNUMBER
 70
     0
1001
ACDBATTR
1070
     0
1070
     1
  0
ATTDEF
  5
3931
  8
DEFPOINTS
 10
3997.3427782401649893
 20
59.8820869841284775
 30
0.0
 40
0.001
  1
VIR STIL
  3

  2
TRADENAME
 70
     0
1001
ACDBATTR
1070
     0
1070
     1
  0
ATTDEF
  5
3932
  8
DEFPOINTS
 10
3997.3427782401649893
 20
59.8804203174618195
 30
0.0
 40
0.001
  1
BATH FAUCET
  3

  2
PRODUCT
 70
     0
1001
ACDBATTR
1070
     0
1070
     1
  0
LINE
  5
7A64
  8
0
 10
3999.7029257829258313
 20
59.8865494544339967
 30
0.0
 11
3994.9985163341261796
 21
59.8865494544339967
 31
0.0
  0
ARC
  5
7A65
  8
0
 10
3994.9985163341261796
 20
59.8965494544340018
 30
0.0
 40
0.01
 50
180.0
 51
270.0
  0
LINE
  5
7A66
  8
0
 10
3999.6929257829260678
 20
60.5115494544339967
 30
0.0
 11
3995.0085163341259431
 21
60.5115494544339967
 31
0.0
  0
LINE
  5
7A67
  8
0
 10
3999.4304030485268413
 20
60.6455494544340112
 30
0.0
 11
3995.2710390685260791
 21
60.6455494544340112
 31
0.0
  0
LINE
  5
7A68
  8
0
 10
3999.2852210585260764
 20
60.7795494544339974
 30
0.0
 11
3995.416221058526844
 21
60.7795494544339974
 31
0.0
  0
LINE
  5
7A69
  8
0
 10
3998.11822105852616
 20
95.1387852438339934
 30
0.0
 11
3996.5832210585258508
 21
95.1387852438339934
 31
0.0
  0
LINE
  5
7A6A
  8
0
 10
4002.8951808657261608
 20
93.0016513337340029
 30
0.0
 11
4001.8707167176257826
 21
93.0016513337340029
 31
0.0
  0
LINE
  5
7A6B
  8
0
 10
3998.0132210585261419
 20
96.3687852438339974
 30
0.0
 11
3996.688221058525869
 21
96.3687852438339974
 31
0.0
  0
LINE
  5
7A6C
  8
0
 10
3997.9952210585261128
 20
96.3157852438340001
 30
0.0
 11
3996.7062210585258981
 21
96.3157852438340001
 31
0.0
  0
LINE
  5
7A6D
  8
0
 10
3997.9952210585261128
 20
95.4357852438239718
 30
0.0
 11
3996.7062210585258981
 21
95.4357852438230339
 31
0.0
  0
ARC
  5
7A6E
  8
0
 10
3996.7205710585258203
 20
95.4177852438230332
 30
0.0
 40
0.018
 50
0.0
 51
90.0000000000521254
  0
LINE
  5
7A6F
  8
0
 10
3997.9428710585261797
 20
95.3407852438340058
 30
0.0
 11
3996.7585710585258312
 21
95.3407852438340058
 31
0.0
  0
LINE
  5
7A70
  8
0
 10
3996.3662210585262073
 20
91.0646434597340004
 30
0.0
 11
3995.7066449129879402
 21
91.0646434597340004
 31
0.0
  0
LINE
  5
7A71
  8
0
 10
3994.6640885426650129
 20
91.0646434597340146
 30
0.0
 11
3994.3140306309428524
 21
91.0646434597340004
 31
0.0
  0
LINE
  5
7A72
  8
0
 10
3995.3962210585268622
 20
60.7595494544339871
 30
0.0
 11
3995.3962210585268622
 21
60.6655494544340002
 31
0.0
  0
LINE
  5
7A73
  8
0
 10
3995.2510390685260973
 20
60.6255494544340081
 30
0.0
 11
3995.2510390685260973
 21
60.5315494544339998
 31
0.0
  0
LINE
  5
7A74
  8
0
 10
3994.9885163341268708
 20
59.8965494544340018
 30
0.0
 11
3994.9885163341268708
 21
60.4915494544340078
 31
0.0
  0
ARC
  5
7A75
  8
0
 10
3995.0085163341259431
 20
60.4915494544340007
 30
0.0
 40
0.02
 50
90.0
 51
179.9999999999897966
  0
ARC
  5
7A76
  8
0
 10
3995.2710390685260791
 20
60.6255494544340081
 30
0.0
 40
0.02
 50
90.0
 51
180.0000000000048885
  0
ARC
  5
7A77
  8
0
 10
3995.416221058526844
 20
60.7595494544340013
 30
0.0
 40
0.02
 50
90.0
 51
179.9999999999947136
  0
ARC
  5
7A78
  8
0
 10
3995.3762210585268804
 20
60.6655494544340002
 30
0.0
 40
0.02
 50
270.0
 51
0.0000000000048853
  0
ARC
  5
7A79
  8
0
 10
3995.2310390685261154
 20
60.5315494544340069
 30
0.0
 40
0.02
 50
270.0
 51
359.999999999989825
  0
LINE
  5
7A7A
  8
0
 10
3996.563221058525869
 20
60.7795494544339974
 30
0.0
 11
3996.563221058525869
 21
90.8676434597339693
 31
0.0
  0
LINE
  5
7A7B
  8
0
 10
3996.563221058525869
 20
93.0726670817340107
 30
0.0
 11
3996.563221058525869
 21
95.1187852438339974
 31
0.0
  0
ARC
  5
7A7C
  8
0
 10
3996.3662210585262073
 20
90.8676434597340119
 30
0.0
 40
0.197
 50
359.9999999999992042
 51
90.0
  0
ARC
  5
7A7D
  8
0
 10
3996.5832210585258508
 20
95.1187852438339974
 30
0.0
 40
0.02
 50
90.0
 51
180.0
  0
LINE
  5
7A7E
  8
0
 10
4001.5641451790279461
 20
92.6642414169839839
 30
0.0
 11
4001.4986846979259099
 21
92.6642414169839839
 31
0.0
  0
LINE
  5
7A7F
  8
0
 10
3996.3662210585262073
 20
92.8756670817339938
 30
0.0
 11
3994.3140306309428524
 21
92.8756670817339938
 31
0.0
  0
ARC
  5
7A80
  8
0
 10
3996.3662210585262073
 20
93.0726670817340107
 30
0.0
 40
0.197
 50
270.0
 51
0.0
  0
ARC
  5
7A81
  8
0
 10
3993.9741338994458602
 20
90.0906251844837698
 30
0.0
 40
1.0830036150964819
 50
102.4361525240257009
 51
107.7366427121198029
  0
ARC
  5
7A82
  8
0
 10
3993.9041703141087964
 20
90.4078831863293715
 30
0.0
 40
0.7581228015534678
 50
92.333090849960783
 51
102.4361525240257009
  0
ARC
  5
7A83
  8
0
 10
3993.9049718222190677
 20
90.3882107217639543
 30
0.0
 40
0.7778115871261975
 50
79.9247503898761664
 51
92.333090849960783
  0
ARC
  5
7A84
  8
0
 10
3993.8818499216667988
 20
90.2580795440838699
 30
0.0
 40
0.9099809696983951
 50
69.2921121568553815
 51
79.9247503898761664
  0
ARC
  5
7A85
  8
0
 10
3993.7579760242679185
 20
89.9036008442342336
 30
0.0
 40
1.285395872994495
 50
64.788159714042834
 51
69.7144088661765977
  0
ARC
  5
7A86
  8
0
 10
3994.3140306309428524
 20
91.0846434597339965
 30
0.0
 40
0.02
 50
244.7881597140672909
 51
270.0000000000259774
  0
LINE
  5
7A87
  8
0
 10
3993.6381123853598183
 20
91.1211995592840083
 30
0.0
 11
3993.4137131845259319
 21
91.1211995592840083
 31
0.0
  0
ARC
  5
7A88
  8
0
 10
3993.6381123853598183
 20
91.141199559284189
 30
0.0
 40
0.02
 50
270.0000000000259774
 51
287.7366427119837908
  0
LINE
  5
7A89
  8
0
 10
3993.4137131845259319
 20
92.8191109821839859
 30
0.0
 11
3993.4137131845259319
 21
91.1211995592840083
 31
0.0
  0
ARC
  5
7A8A
  8
0
 10
3993.9741338994458602
 20
93.8496853569842244
 30
0.0
 40
1.0830036150964819
 50
252.2633572878802113
 51
257.5638474759742849
  0
ARC
  5
7A8B
  8
0
 10
3993.9041703141087964
 20
93.5324273551386369
 30
0.0
 40
0.7581228015534678
 50
257.5638474759742849
 51
267.6669091500392028
  0
ARC
  5
7A8C
  8
0
 10
3993.9049718222190677
 20
93.5520998197040683
 30
0.0
 40
0.7778115871261975
 50
267.6669091500392028
 51
280.0752496101238194
  0
ARC
  5
7A8D
  8
0
 10
3993.8818499216667988
 20
93.6822309973841243
 30
0.0
 40
0.9099809696983951
 50
280.0752496101238194
 51
290.7078878431445901
  0
ARC
  5
7A8E
  8
0
 10
3993.7579760242679185
 20
94.0367096972337748
 30
0.0
 40
1.285395872994495
 50
290.2855911338234023
 51
295.2118402859571802
  0
ARC
  5
7A8F
  8
0
 10
3994.3140306309428524
 20
92.855667081734012
 30
0.0
 40
0.02
 50
89.9999999999739515
 51
115.2118402859324959
  0
LINE
  5
7A90
  8
0
 10
3993.6381123853598183
 20
92.8191109821839859
 30
0.0
 11
3993.4137131845259319
 21
92.8191109821839859
 31
0.0
  0
ARC
  5
7A91
  8
0
 10
3993.6381123853598183
 20
92.7991109821838336
 30
0.0
 40
0.02
 50
72.2633572880162944
 51
89.9999999999739515
  0
LINE
  5
7A92
  8
0
 10
3998.3352210585271678
 20
91.0646434597340004
 30
0.0
 11
4000.5010675152261683
 21
91.0646434597340004
 31
0.0
  0
LINE
  5
7A93
  8
0
 10
3998.1382210585261419
 20
60.7795494544339974
 30
0.0
 11
3998.1382210585261419
 21
90.8676434597339693
 31
0.0
  0
LINE
  5
7A94
  8
0
 10
3998.1382210585261419
 20
93.0726670817340107
 30
0.0
 11
3998.1382210585261419
 21
95.1187852438339974
 31
0.0
  0
ARC
  5
7A95
  8
0
 10
3998.3352210585271678
 20
90.8676434597340119
 30
0.0
 40
0.197
 50
90.0
 51
180.0000000000003979
  0
LINE
  5
7A96
  8
0
 10
3998.3352210585271678
 20
92.8756670817339938
 30
0.0
 11
4000.5010675152261683
 21
92.8756670817339938
 31
0.0
  0
LINE
  5
7A97
  8
0
 10
4000.5325637471260052
 20
92.8756670817339938
 30
0.0
 11
4001.3917166732849182
 21
92.8756670817339938
 31
0.0
  0
ARC
  5
7A98
  8
0
 10
3998.3352210585271678
 20
93.0726670817340107
 30
0.0
 40
0.197
 50
180.0
 51
270.0
  0
ARC
  5
7A99
  8
0
 10
3999.7029257829258313
 20
59.8965494544340018
 30
0.0
 40
0.01
 50
270.0
 51
0.0
  0
LINE
  5
7A9A
  8
0
 10
3999.3052210585269677
 20
60.7595494544339871
 30
0.0
 11
3999.3052210585269677
 21
60.6655494544340002
 31
0.0
  0
LINE
  5
7A9B
  8
0
 10
3999.4504030485268231
 20
60.6255494544340081
 30
0.0
 11
3999.4504030485268231
 21
60.5315494544339998
 31
0.0
  0
LINE
  5
7A9C
  8
0
 10
3999.7129257829260496
 20
59.8965494544340018
 30
0.0
 11
3999.7129257829260496
 21
60.4915494544340078
 31
0.0
  0
ARC
  5
7A9D
  8
0
 10
3999.6929257829260678
 20
60.4915494544340007
 30
0.0
 40
0.02
 50
0.0000000000101778
 51
90.0
  0
ARC
  5
7A9E
  8
0
 10
3999.4304030485268413
 20
60.6255494544340081
 30
0.0
 40
0.02
 50
359.9999999999947136
 51
90.0
  0
ARC
  5
7A9F
  8
0
 10
3999.2852210585260764
 20
60.7595494544340013
 30
0.0
 40
0.02
 50
0.0000000000048853
 51
90.0
  0
ARC
  5
7AA0
  8
0
 10
3999.3252210585269495
 20
60.6655494544340002
 30
0.0
 40
0.02
 50
179.9999999999947136
 51
270.0
  0
ARC
  5
7AA1
  8
0
 10
3999.4704030485258954
 20
60.5315494544340069
 30
0.0
 40
0.02
 50
180.0000000000100897
 51
270.0
  0
LINE
  5
7AA2
  8
0
 10
4000.5010675152261683
 20
92.8756670817339938
 30
0.0
 11
4000.5010675152261683
 21
91.0646434597340004
 31
0.0
  0
LINE
  5
7AA3
  8
0
 10
4000.5325637471260052
 20
92.8756670817339938
 30
0.0
 11
4000.5325637471260052
 21
91.0646434597340146
 31
0.0
  0
LINE
  5
7AA4
  8
0
 10
4001.4065154747518136
 20
92.8691205376159132
 30
0.0
 11
4001.4735649098688555
 21
92.7953656109839926
 31
0.0
  0
LINE
  5
7AA5
  8
0
 10
4001.478684697925928
 20
92.7820022546493277
 30
0.0
 11
4001.4787257570460497
 21
91.1583545053141933
 31
0.0
  0
ARC
  5
7AA6
  8
0
 10
4001.4587257570528891
 20
91.1583539995503145
 30
0.0
 40
0.02
 50
317.8979278024850146
 51
0.0014489068148936
  0
LINE
  5
7AA7
  8
0
 10
4000.5010675152261683
 20
92.8658250449339988
 30
0.0
 11
4000.5325637471260052
 21
92.8658250449339988
 31
0.0
  0
ARC
  5
7AA8
  8
0
 10
4001.3917166732849182
 20
92.855667081734012
 30
0.0
 40
0.02
 50
42.2736890137915893
 51
90.0
  0
ARC
  5
7AA9
  8
0
 10
4001.4586846979259462
 20
92.7820022546493277
 30
0.0
 40
0.0199999999999907
 50
359.9999999999694751
 51
41.9258130339523305
  0
ARC
  5
7AAA
  8
0
 10
4001.4986846979259099
 20
92.6842414169839799
 30
0.0
 40
0.0199999999999966
 50
180.902333240274487
 51
270.0
  0
LINE
  5
7AAB
  8
0
 10
4001.6349259518260624
 20
92.5934606441865355
 30
0.0
 11
4001.6349259518260624
 21
91.3468504951577245
 31
0.0
  0
LINE
  5
7AAC
  8
0
 10
4001.578194459162205
 20
92.6584758023840038
 30
0.0
 11
4001.62915973936515
 21
92.6075105300340056
 31
0.0
  0
ARC
  5
7AAD
  8
0
 10
4001.5641451790279461
 20
92.6442414169840447
 30
0.0
 40
0.0199999999999579
 50
45.3749725817993195
 51
90.0000000000260485
  0
ARC
  5
7AAE
  8
0
 10
4001.6149259518260806
 20
92.5934606441865355
 30
0.0
 40
0.0200000000000102
 50
0.0000000000203555
 51
44.6274655671755269
  0
LINE
  5
7AAF
  8
0
 10
4001.5641451790279461
 20
91.2760691244840103
 30
0.0
 11
4001.4986846979259099
 21
91.2760691244840103
 31
0.0
  0
LINE
  5
7AB0
  8
0
 10
4000.5325637471260052
 20
91.0646434597340146
 30
0.0
 11
4000.8869302944558513
 21
91.0646434597340146
 31
0.0
  0
LINE
  5
7AB1
  8
0
 10
4001.2968552181810082
 20
91.0646434597340146
 30
0.0
 11
4001.3917166732849182
 21
91.0646434597340146
 31
0.0
  0
LINE
  5
7AB2
  8
0
 10
4001.4065154747518136
 20
91.0711900038520952
 30
0.0
 11
4001.4735647889201573
 21
91.1449449304840016
 31
0.0
  0
LINE
  5
7AB3
  8
0
 10
4000.5010675152261683
 20
91.0744854965340096
 30
0.0
 11
4000.5325637471260052
 21
91.0744854965340096
 31
0.0
  0
ARC
  5
7AB4
  8
0
 10
4001.3917166732849182
 20
91.0846434597339965
 30
0.0
 40
0.02
 50
270.0
 51
317.7263109862083752
  0
ARC
  5
7AB5
  8
0
 10
4001.4986846979259099
 20
91.2560691244840143
 30
0.0
 40
0.0199999999999966
 50
90.0
 51
179.097666759725513
  0
LINE
  5
7AB6
  8
0
 10
4001.578194459162205
 20
91.2818347390840188
 30
0.0
 11
4001.6291591491881263
 21
91.3328000114340171
 31
0.0
  0
ARC
  5
7AB7
  8
0
 10
4001.5641451790279461
 20
91.2960691244839779
 30
0.0
 40
0.0199999999999579
 50
269.9999999999739089
 51
314.6250274182007161
  0
ARC
  5
7AB8
  8
0
 10
4001.6149259518260806
 20
91.3468504951577245
 30
0.0
 40
0.0200000000000056
 50
315.3701277300876882
 51
0.0000000000154702
  0
ARC
  5
7AB9
  8
0
 10
4001.0992720490958163
 20
90.1332093929176352
 30
0.0
 40
0.9553315872458604
 50
96.8891986414533761
 51
102.8424085618428023
  0
ARC
  5
7ABA
  8
0
 10
4001.0931342438179854
 20
90.1840097786431443
 30
0.0
 40
0.9041617539112818
 50
91.0680006042311732
 51
96.8891986414533761
  0
ARC
  5
7ABB
  8
0
 10
4001.0924835279920444
 20
90.2189151449487952
 30
0.0
 40
0.8692503227172295
 50
84.8062095282122641
 51
91.0680006042311732
  0
ARC
  5
7ABC
  8
0
 10
4001.0848735785398276
 20
90.1351953545636491
 30
0.0
 40
0.9533152656649445
 50
77.152163460233524
 51
84.8062095282122641
  0
ARC
  5
7ABD
  8
0
 10
4000.9168944555271992
 20
91.0784320299901253
 30
0.0
 40
0.0149999996869174
 50
220.5415715388348019
 51
252.593734946990196
  0
ARC
  5
7ABE
  8
0
 10
4001.0918944557261057
 20
91.6366438013355236
 30
0.0
 40
0.6000003259587903
 50
252.593734946990196
 51
287.4062650544549911
  0
ARC
  5
7ABF
  8
0
 10
4001.2668944559518422
 20
91.0784320299523955
 30
0.0
 40
0.0149999996427895
 50
287.4062650544549911
 51
319.4615271795441913
  0
LINE
  5
7AC0
  8
0
 10
4000.9124072786307806
 20
91.0641189159295266
 30
0.0
 11
4001.2713816328209759
 21
91.0641189159295266
 31
0.0
  0
LINE
  5
7AC1
  8
0
 10
4001.8607167176260191
 20
95.3716513337340075
 30
0.0
 11
4001.8607167176260191
 21
93.0116513337339939
 31
0.0
  0
LINE
  5
7AC2
  8
0
 10
4001.9407274479258376
 20
95.5016513337340029
 30
0.0
 11
4002.8251701354261058
 21
95.5016513337340029
 31
0.0
  0
LINE
  5
7AC3
  8
0
 10
4001.8707167176257826
 20
95.3816513337339984
 30
0.0
 11
4002.8951808657261608
 21
95.3816513337339984
 31
0.0
  0
ARC
  5
7AC4
  8
0
 10
4002.8951808657261608
 20
95.3716513337340075
 30
0.0
 40
0.01
 50
0.0
 51
90.0
  0
ARC
  5
7AC5
  8
0
 10
4001.8707167176257826
 20
95.3716513337340075
 30
0.0
 40
0.01
 50
90.0000000000260485
 51
180.0
  0
LINE
  5
7AC6
  8
0
 10
4001.912727447926045
 20
95.4736513337340256
 30
0.0
 11
4001.912727447926045
 21
95.3916513337339893
 31
0.0
  0
ARC
  5
7AC7
  8
0
 10
4001.9407274479258376
 20
95.4736513337340256
 30
0.0
 40
0.028
 50
90.0
 51
179.9999999999926104
  0
ARC
  5
7AC8
  8
0
 10
4001.9027274479258267
 20
95.3916513337339893
 30
0.0
 40
0.01
 50
270.0
 51
0.0
  0
ARC
  5
7AC9
  8
0
 10
4001.8707167176257826
 20
93.0116513337339939
 30
0.0
 40
0.01
 50
179.9999999999795932
 51
270.0
  0
LINE
  5
7ACA
  8
0
 10
4002.9051808657259244
 20
95.3716513337340075
 30
0.0
 11
4002.9051808657259244
 21
93.0116513337339939
 31
0.0
  0
ARC
  5
7ACB
  8
0
 10
4002.8951808657261608
 20
93.0116513337339939
 30
0.0
 40
0.01
 50
270.0
 51
0.0000000000203555
  0
LINE
  5
7ACC
  8
0
 10
4002.8531701354258985
 20
95.4736513337340256
 30
0.0
 11
4002.8531701354258985
 21
95.3916513337339893
 31
0.0
  0
ARC
  5
7ACD
  8
0
 10
4002.8251701354261058
 20
95.4736513337340256
 30
0.0
 40
0.028
 50
0.000000000007328
 51
90.0
  0
ARC
  5
7ACE
  8
0
 10
4002.8631701354261168
 20
95.3916513337339893
 30
0.0
 40
0.01
 50
180.0
 51
270.0
  0
LINE
  5
7ACF
  8
0
 10
4001.3917166732849182
 20
92.8756670817339938
 30
0.0
 11
4001.3917166732849182
 21
91.0646434597340146
 31
0.0
  0
LINE
  5
7AD0
  8
0
 10
4001.4065154747518136
 20
92.8691205376159132
 30
0.0
 11
4001.4065154747518136
 21
91.0711900038520952
 31
0.0
  0
LINE
  5
7AD1
  8
0
 10
4001.5641451790279461
 20
91.2760691244840103
 30
0.0
 11
4001.5641451790279461
 21
92.6642414169839839
 31
0.0
  0
LINE
  5
7AD2
  8
0
 10
4001.5781944591631145
 20
91.2818347390846867
 30
0.0
 11
4001.5781944591631145
 21
92.6584758023833217
 31
0.0
  0
LINE
  5
7AD3
  8
0
 10
4002.7094401354261208
 20
91.496529708453977
 30
0.0
 11
4001.6349259518260624
 21
91.496529708453977
 31
0.0
  0
LINE
  5
7AD4
  8
0
 10
4001.7624574479259536
 20
92.4437808330140456
 30
0.0
 11
4001.6349259518260624
 21
92.4437808330140456
 31
0.0
  0
LINE
  5
7AD5
  8
0
 10
4001.9094574479258881
 20
92.5907808330140369
 30
0.0
 11
4001.9094574479258881
 21
92.9816513337340069
 31
0.0
  0
ARC
  5
7AD6
  8
0
 10
4001.7624574479259536
 20
92.5907808330140369
 30
0.0
 40
0.147
 50
270.0
 51
359.9999999999972147
  0
LINE
  5
7AD7
  8
0
 10
4002.8564401354269648
 20
91.6435297084539684
 30
0.0
 11
4002.8564401354269648
 21
92.9816513337340069
 31
0.0
  0
ARC
  5
7AD8
  8
0
 10
4002.7094401354261208
 20
91.6435297084539684
 30
0.0
 40
0.147
 50
270.0
 51
0.0
  0
ARC
  5
7AD9
  8
0
 10
4001.9294574479258699
 20
92.9816513337340069
 30
0.0
 40
0.02
 50
90.0
 51
180.0
  0
ARC
  5
7ADA
  8
0
 10
4002.836440135426983
 20
92.9816513337340069
 30
0.0
 40
0.02
 50
0.0
 51
90.0
  0
LINE
  5
7ADB
  8
0
 10
3996.688221058525869
 20
102.6357852437590026
 30
0.0
 11
3996.688221058525869
 21
95.1387852438339934
 31
0.0
  0
ARC
  5
7ADC
  8
0
 10
3996.7062210585258981
 20
96.2977852438339994
 30
0.0
 40
0.018
 50
90.0
 51
179.9999999999886029
  0
LINE
  5
7ADD
  8
0
 10
3996.7385710585258494
 20
95.3607852438340018
 30
0.0
 11
3996.7385710585258494
 21
95.4177852438230332
 31
0.0
  0
LINE
  5
7ADE
  8
0
 10
3996.7385710585258494
 20
96.333785243834015
 30
0.0
 11
3996.7385710585258494
 21
96.3487852438339871
 31
0.0
  0
ARC
  5
7ADF
  8
0
 10
3996.7205710585258203
 20
96.333785243834015
 30
0.0
 40
0.018
 50
270.0
 51
0.0
  0
ARC
  5
7AE0
  8
0
 10
3996.7585710585258312
 20
96.3487852438339871
 30
0.0
 40
0.02
 50
90.0
 51
179.9999999999795932
  0
ARC
  5
7AE1
  8
0
 10
3996.7062210585258981
 20
95.4537852438230345
 30
0.0
 40
0.018
 50
180.0000000000113971
 51
270.0000000000259774
  0
ARC
  5
7AE2
  8
0
 10
3996.7585710585258312
 20
95.360785243834016
 30
0.0
 40
0.02
 50
180.0000000000202931
 51
270.0
  0
ARC
  5
7AE3
  8
0
 10
3997.3507210585257781
 20
102.6357852437590026
 30
0.0
 40
0.6624999999999944
 50
0.0
 51
180.0
  0
LINE
  5
7AE4
  8
0
 10
3998.0132210585261419
 20
102.6357852437590026
 30
0.0
 11
3998.0132210585261419
 21
95.1387852438339934
 31
0.0
  0
ARC
  5
7AE5
  8
0
 10
3997.9808710585261906
 20
95.4177852438230332
 30
0.0
 40
0.018
 50
89.9999999999478888
 51
180.0
  0
ARC
  5
7AE6
  8
0
 10
3998.11822105852616
 20
95.1187852438339974
 30
0.0
 40
0.02
 50
0.0
 51
89.9999999999739515
  0
ARC
  5
7AE7
  8
0
 10
3997.9952210585261128
 20
96.2977852438339994
 30
0.0
 40
0.018
 50
0.0000000000113991
 51
90.0
  0
LINE
  5
7AE8
  8
0
 10
3997.9628710585261615
 20
95.3607852438340018
 30
0.0
 11
3997.9628710585261615
 21
95.4177852438230332
 31
0.0
  0
LINE
  5
7AE9
  8
0
 10
3997.9628710585261615
 20
96.333785243834015
 30
0.0
 11
3997.9628710585261615
 21
96.3487852438339871
 31
0.0
  0
ARC
  5
7AEA
  8
0
 10
3997.9808710585261906
 20
96.333785243834015
 30
0.0
 40
0.018
 50
180.0
 51
270.0
  0
ARC
  5
7AEB
  8
0
 10
3997.9428710585261797
 20
96.3487852438339871
 30
0.0
 40
0.02
 50
0.0000000000203555
 51
90.0
  0
ARC
  5
7AEC
  8
0
 10
3997.9952210585261128
 20
95.4537852438230345
 30
0.0
 40
0.018
 50
269.9999999999478746
 51
359.9999999999885745
  0
ARC
  5
7AED
  8
0
 10
3997.9428710585261797
 20
95.360785243834016
 30
0.0
 40
0.02
 50
270.0
 51
359.9999999999797069
  0
ARC
  5
7AEE
  8
0
 10
3999.9854483147942119
 20
97.7127167911483241
 30
0.0
 40
6.0411800026030651
 50
233.1950503881884913
 51
238.5039417785646947
  0
ARC
  5
7AEF
  8
0
 10
3997.7550700763658824
 20
94.0764047761151971
 30
0.0
 40
1.775346197226394
 50
238.5696411302471063
 51
247.1309298638302892
  0
ARC
  5
7AF0
  8
0
 10
3997.3837024304211809
 20
93.2103990330999892
 30
0.0
 40
0.8331081785779435
 50
247.5176832491893038
 51
267.7311621603091112
  0
ARC
  5
7AF1
  8
0
 10
3994.7159938022591632
 20
97.7127167911483241
 30
0.0
 40
6.0411800026030651
 50
301.4960582214350779
 51
306.8049496118114234
  0
ARC
  5
7AF2
  8
0
 10
3996.946372040687038
 20
94.0764047761151971
 30
0.0
 40
1.775346197226394
 50
292.8690701361697961
 51
301.4303588697529221
  0
ARC
  5
7AF3
  8
0
 10
3997.31773968663083
 20
93.2103990330999892
 30
0.0
 40
0.8331081785779435
 50
272.2688378396907751
 51
292.4823167508105826
  0
ARC
  5
7AF4
  8
0
 10
3999.9854483147942119
 20
86.2275937503196559
 30
0.0
 40
6.0411800026030651
 50
121.4960582214353053
 51
126.804949611811395
  0
ARC
  5
7AF5
  8
0
 10
3997.7550700763658824
 20
89.8639057653527971
 30
0.0
 40
1.775346197226394
 50
112.8690701361696966
 51
121.4303588697528937
  0
ARC
  5
7AF6
  8
0
 10
3997.3837024304211809
 20
90.7299115083679908
 30
0.0
 40
0.8331081785779435
 50
92.2688378396908746
 51
112.4823167508106962
  0
ARC
  5
7AF7
  8
0
 10
3994.7159938022591632
 20
86.2275937503196559
 30
0.0
 40
6.0411800026030651
 50
53.1950503881885481
 51
58.5039417785646734
  0
ARC
  5
7AF8
  8
0
 10
3996.946372040687038
 20
89.8639057653527971
 30
0.0
 40
1.775346197226394
 50
58.5696411302470565
 51
67.1309298638302749
  0
ARC
  5
7AF9
  8
0
 10
3997.31773968663083
 20
90.7299115083679908
 30
0.0
 40
0.8331081785779435
 50
67.5176832491893038
 51
87.7311621603091254
  0
ARC
  5
7AFA
  8
0
 10
3995.3502354790812205
 20
89.9194744196952769
 30
0.0
 40
1.334994287859268
 50
106.4887334505200016
 51
120.9286292869015966
  0
ARC
  5
7AFB
  8
0
 10
3995.2129002077981568
 20
90.2651266165169659
 30
0.0
 40
0.9651618206207656
 50
91.6347168040581863
 51
104.4947674424316943
  0
LINE
  5
7AFC
  8
0
 10
3994.7011147013267873
 20
90.978250241833976
 30
0.0
 11
3995.6696187543270753
 21
90.978250241833976
 31
0.0
  0
LINE
  5
7AFD
  8
0
 10
3994.6814297199262001
 20
90.9224734875340062
 30
0.0
 11
3995.6893037357258436
 21
90.9224734875340062
 31
0.0
  0
LINE
  5
7AFE
  8
0
 10
3994.5889399561269784
 20
90.2649931725340053
 30
0.0
 11
3995.7817934995259748
 21
90.2649931725340053
 31
0.0
  0
LINE
  5
7AFF
  8
0
 10
3994.5495399561268641
 20
90.4735357900126758
 30
0.0
 11
3994.5495399561268641
 21
90.3043931725340059
 31
0.0
  0
LINE
  5
7B00
  8
0
 10
3994.6814297199262001
 20
91.0748568694229164
 30
0.0
 11
3994.6814297199262001
 21
90.9979352208339947
 31
0.0
  0
LINE
  5
7B01
  8
0
 10
3994.6814297199262001
 20
90.9224734875340062
 30
0.0
 11
3994.6814297199262001
 21
90.5799739846149237
 31
0.0
  0
LINE
  5
7B02
  8
0
 10
3994.6814297199262001
 20
90.9979352208339947
 30
0.0
 11
3994.7011147013267873
 21
90.978250241833976
 31
0.0
  0
LINE
  5
7B03
  8
0
 10
3994.6814297199262001
 20
90.9979352208339947
 30
0.0
 11
3995.6893037357258436
 21
90.9979352208339947
 31
0.0
  0
LINE
  5
7B04
  8
0
 10
3994.7463903498269246
 20
90.978250241833976
 30
0.0
 11
3994.7463903498269246
 21
90.9224734875340062
 31
0.0
  0
LINE
  5
7B05
  8
0
 10
3994.656789219699931
 20
90.5434429407420254
 30
0.0
 11
3994.5741804563531332
 21
90.5100668338855456
 31
0.0
  0
ARC
  5
7B06
  8
0
 10
3994.6420297199269953
 20
90.5799739846149521
 30
0.0
 40
0.0394
 50
291.9999999884863087
 51
359.9999999999923261
  0
ARC
  5
7B07
  8
0
 10
3994.5889399561269784
 20
90.4735357900126473
 30
0.0
 40
0.0394
 50
111.999999988487005
 51
179.9999999999947136
  0
ARC
  5
7B08
  8
0
 10
3994.5889399561269784
 20
90.3043931725340059
 30
0.0
 40
0.0394
 50
180.0000000000023874
 51
270.0
  0
LINE
  5
7B09
  8
0
 10
3994.7203667278267858
 20
88.8899931725340053
 30
0.0
 11
3995.6503667278261673
 21
88.8899931725340053
 31
0.0
  0
LINE
  5
7B0A
  8
0
 10
3994.6903667278270404
 20
90.2649931725340053
 30
0.0
 11
3994.6903667278270404
 21
88.9199931725339781
 31
0.0
  0
ARC
  5
7B0B
  8
0
 10
3994.7203667278267858
 20
88.9199931725339781
 30
0.0
 40
0.03
 50
180.0
 51
270.0
  0
ARC
  5
7B0C
  8
0
 10
3995.0204979765721873
 20
89.9194744196952769
 30
0.0
 40
1.334994287859268
 50
59.071370713098581
 51
73.5112665494800126
  0
ARC
  5
7B0D
  8
0
 10
3995.1578332478547964
 20
90.2651266165169659
 30
0.0
 40
0.9651618206207656
 50
75.5052325575683341
 51
88.3652831959418563
  0
LINE
  5
7B0E
  8
0
 10
3995.821193499526089
 20
90.4735357900126758
 30
0.0
 11
3995.821193499526089
 21
90.3043931725340059
 31
0.0
  0
LINE
  5
7B0F
  8
0
 10
3995.6893037357258436
 20
91.0748568694229164
 30
0.0
 11
3995.6893037357258436
 21
90.9979352208339947
 31
0.0
  0
LINE
  5
7B10
  8
0
 10
3995.6893037357258436
 20
90.9224734875340062
 30
0.0
 11
3995.6893037357258436
 21
90.5799739846149237
 31
0.0
  0
LINE
  5
7B11
  8
0
 10
3995.6893037357258436
 20
90.9979352208339947
 30
0.0
 11
3995.6696187543270753
 21
90.978250241833976
 31
0.0
  0
LINE
  5
7B12
  8
0
 10
3995.624343105826938
 20
90.978250241833976
 30
0.0
 11
3995.624343105826938
 21
90.9224734875340062
 31
0.0
  0
LINE
  5
7B13
  8
0
 10
3995.7139442359539316
 20
90.5434429407420254
 30
0.0
 11
3995.7965529992998199
 21
90.5100668338855456
 31
0.0
  0
ARC
  5
7B14
  8
0
 10
3995.7287037357268673
 20
90.5799739846149521
 30
0.0
 40
0.0394
 50
180.0000000000077023
 51
248.000000011513805
  0
ARC
  5
7B15
  8
0
 10
3995.7817934995259748
 20
90.4735357900126473
 30
0.0
 40
0.0394
 50
0.0000000000048853
 51
68.0000000115130092
  0
ARC
  5
7B16
  8
0
 10
3995.7817934995259748
 20
90.3043931725340059
 30
0.0
 40
0.0394
 50
270.0
 51
359.9999999999972147
  0
LINE
  5
7B17
  8
0
 10
3995.6803667278268222
 20
90.2649931725340053
 30
0.0
 11
3995.6803667278268222
 21
88.9199931725339781
 31
0.0
  0
ARC
  5
7B18
  8
0
 10
3995.6503667278261673
 20
88.9199931725339781
 30
0.0
 40
0.03
 50
270.0
 51
0.0
  0
LINE
  5
7B19
  8
0
 10
3994.656789219699931
 20
90.5434429407420254
 30
0.0
 11
3995.7139442359539316
 21
90.5434429407420254
 31
0.0
  0
LINE
  5
7B1A
  8
0
 10
3994.5741804563531332
 20
90.5100668338855456
 30
0.0
 11
3995.7965529992998199
 21
90.5100668338855456
 31
0.0
  0
LINE
  5
7B1B
  8
0
 10
3994.5495399561268641
 20
90.4735357900126473
 30
0.0
 11
3995.821193499526089
 21
90.4735357900126473
 31
0.0
  0
LINE
  5
7B1C
  8
0
 10
3994.82286634994216
 20
88.7999931725340019
 30
0.0
 11
3995.5478668226178343
 21
88.7999931725340019
 31
0.0
  0
LINE
  5
7B1D
  8
0
 10
3994.82286634994216
 20
88.7999931725340019
 30
0.0
 11
3994.803417609925873
 21
88.7805430517339857
 31
0.0
  0
LINE
  5
7B1E
  8
0
 10
3994.803417609925873
 20
88.7805430517339857
 30
0.0
 11
3994.8268316619269171
 21
88.766712613533997
 31
0.0
  0
LINE
  5
7B1F
  8
0
 10
3994.8268316619269171
 20
88.766712613533997
 30
0.0
 11
3994.7728667278261128
 21
88.735238428733993
 31
0.0
  0
LINE
  5
7B20
  8
0
 10
3994.7728667278261128
 20
88.735238428733993
 30
0.0
 11
3994.7728667278261128
 21
88.7268088789339942
 31
0.0
  0
LINE
  5
7B21
  8
0
 10
3994.7728667278261128
 20
88.7268088789339942
 30
0.0
 11
3994.8268364640271102
 21
88.6952780648339996
 31
0.0
  0
LINE
  5
7B22
  8
0
 10
3994.8268364640271102
 20
88.6952780648339996
 30
0.0
 11
3994.7728667278261128
 21
88.6637356034339916
 31
0.0
  0
LINE
  5
7B23
  8
0
 10
3994.7728667278261128
 20
88.6637356034339916
 30
0.0
 11
3994.7728667278261128
 21
88.6553300542339855
 31
0.0
  0
LINE
  5
7B24
  8
0
 10
3994.7728667278261128
 20
88.6553300542339855
 30
0.0
 11
3994.8268358535260631
 21
88.6238562504339882
 31
0.0
  0
LINE
  5
7B25
  8
0
 10
3994.8268358535260631
 20
88.6238562504339882
 30
0.0
 11
3994.7728980604260869
 21
88.5924885011839933
 31
0.0
  0
LINE
  5
7B26
  8
0
 10
3994.7728980604260869
 20
88.5924885011839933
 30
0.0
 11
3994.7728982064950287
 21
88.5899935624769341
 31
0.0
  0
LINE
  5
7B27
  8
0
 10
3994.7728982064950287
 20
88.5899935624769341
 30
0.0
 11
3994.7872636353267808
 21
88.5755961668340035
 31
0.0
  0
LINE
  5
7B28
  8
0
 10
3994.7872636353267808
 20
88.5755961668340035
 30
0.0
 11
3994.8268714732471381
 21
88.5524378036698323
 31
0.0
  0
LINE
  5
7B29
  8
0
 10
3994.8268714732471381
 20
88.5524378036698323
 30
0.0
 11
3994.8165926918650257
 21
88.5464578587048123
 31
0.0
  0
LINE
  5
7B2A
  8
0
 10
3994.8165926918650257
 20
88.5464578587048123
 30
0.0
 11
3994.8166506563261464
 21
88.5462091530339848
 31
0.0
  0
LINE
  5
7B2B
  8
0
 10
3994.8166506563261464
 20
88.5462091530339848
 30
0.0
 11
3994.8328666409261132
 21
88.5299931725340059
 31
0.0
  0
LINE
  5
7B2C
  8
0
 10
3994.8328666409261132
 20
88.5299931725340059
 30
0.0
 11
3995.5378927777869649
 21
88.5299931725340059
 31
0.0
  0
LINE
  5
7B2D
  8
0
 10
3994.825366727826804
 20
88.8899931725340053
 30
0.0
 11
3994.825366727826804
 21
88.7999931725340019
 31
0.0
  0
LINE
  5
7B2E
  8
0
 10
3995.5453667278270586
 20
88.8899931725340053
 30
0.0
 11
3995.5453667278270586
 21
88.7999931725340019
 31
0.0
  0
LINE
  5
7B2F
  8
0
 10
3995.5478668226178343
 20
88.7999931725340019
 30
0.0
 11
3995.5899570864539783
 21
88.757902919806952
 31
0.0
  0
LINE
  5
7B30
  8
0
 10
3995.5899570864539783
 20
88.757902919806952
 30
0.0
 11
3995.5898317811261222
 21
88.7575460306340034
 31
0.0
  0
LINE
  5
7B31
  8
0
 10
3995.5898317811261222
 20
88.7575460306340034
 30
0.0
 11
3995.543902098325816
 21
88.7309933957340036
 31
0.0
  0
LINE
  5
7B32
  8
0
 10
3995.543902098325816
 20
88.7309933957340036
 30
0.0
 11
3995.5978667278268404
 21
88.6994855689339943
 31
0.0
  0
LINE
  5
7B33
  8
0
 10
3995.5978667278268404
 20
88.6994855689339943
 30
0.0
 11
3995.5978667278268404
 21
88.691061669134001
 31
0.0
  0
LINE
  5
7B34
  8
0
 10
3995.5978667278268404
 20
88.691061669134001
 30
0.0
 11
3995.5438937967269339
 21
88.6595672820340042
 31
0.0
  0
LINE
  5
7B35
  8
0
 10
3995.5438937967269339
 20
88.6595672820340042
 30
0.0
 11
3995.5978666836272168
 21
88.6281014682340071
 31
0.0
  0
LINE
  5
7B36
  8
0
 10
3995.5978666836272168
 20
88.6281014682340071
 30
0.0
 11
3995.5978667278268404
 21
88.6196041353340149
 31
0.0
  0
LINE
  5
7B37
  8
0
 10
3995.5978667278268404
 20
88.6196041353340149
 30
0.0
 11
3995.5439023144272142
 21
88.5881402828340043
 31
0.0
  0
LINE
  5
7B38
  8
0
 10
3995.5439023144272142
 20
88.5881402828340043
 30
0.0
 11
3995.5767366738909914
 21
88.5690369816146728
 31
0.0
  0
LINE
  5
7B39
  8
0
 10
3995.5767366738909914
 20
88.5690369816146728
 30
0.0
 11
3995.5378927777869649
 21
88.5299931725340059
 31
0.0
  0
LINE
  5
7B3A
  8
0
 10
3994.8268316619269171
 20
88.766712613533997
 30
0.0
 11
3995.5478668226178343
 21
88.7999931725340019
 31
0.0
  0
LINE
  5
7B3B
  8
0
 10
3994.7728667278261128
 20
88.735238428733993
 30
0.0
 11
3995.5899570864539783
 21
88.757902919806952
 31
0.0
  0
LINE
  5
7B3C
  8
0
 10
3995.5898317811261222
 20
88.7575460306340034
 30
0.0
 11
3994.7728667278261128
 21
88.7268088789339942
 31
0.0
  0
LINE
  5
7B3D
  8
0
 10
3994.8268364640271102
 20
88.6952780648339996
 30
0.0
 11
3995.543902098325816
 21
88.7309933957340036
 31
0.0
  0
LINE
  5
7B3E
  8
0
 10
3994.7728667278261128
 20
88.6637356034339916
 30
0.0
 11
3995.5978667278268404
 21
88.6994855689339943
 31
0.0
  0
LINE
  5
7B3F
  8
0
 10
3995.5978667278268404
 20
88.691061669134001
 30
0.0
 11
3994.7728667278261128
 21
88.6553300542339855
 31
0.0
  0
LINE
  5
7B40
  8
0
 10
3994.8268358535260631
 20
88.6238562504339882
 30
0.0
 11
3995.5438937967269339
 21
88.6595672820340042
 31
0.0
  0
LINE
  5
7B41
  8
0
 10
3995.5978666836272168
 20
88.6281014682340071
 30
0.0
 11
3994.7728980604260869
 21
88.5924885011839933
 31
0.0
  0
LINE
  5
7B42
  8
0
 10
3994.7728982064950287
 20
88.5899935624769341
 30
0.0
 11
3995.5978667278268404
 21
88.6196041353340149
 31
0.0
  0
LINE
  5
7B43
  8
0
 10
3995.5439023144272142
 20
88.5881402828340043
 30
0.0
 11
3994.8268714732471381
 21
88.5524378036698323
 31
0.0
  0
LINE
  5
7B44
  8
0
 10
3994.8165926918650257
 20
88.5464578587048123
 30
0.0
 11
3995.5767366738909914
 21
88.5690369816146728
 31
0.0
  0
LINE
  5
7B45
  8
0
 10
3994.803417609925873
 20
88.7805430517339857
 30
0.0
 11
3995.2248114025151153
 21
88.7999931725340161
 31
0.0
  0
ARC
  5
7B47
  8
0
 10
3996.7266588653310464
 20
96.2977852438340136
 30
0.0
 40
0.018
 50
90.0
 51
179.9999999999886029
  0
ARC
  5
7B48
  8
0
 10
3996.7266588653310464
 20
95.4537852438230487
 30
0.0
 40
0.018
 50
180.0000000000113971
 51
270.0000000000259774
  0
LINE
  5
7B49
  8
0
 10
3996.7086588653310173
 20
95.4537852438230487
 30
0.0
 11
3996.7086588653310173
 21
96.2977852438340136
 31
0.0
  0
ARC
  5
7B4A
  8
0
 10
3996.7576393551307774
 20
96.2977852438340136
 30
0.0
 40
0.018
 50
90.0
 51
179.9999999999886029
  0
ARC
  5
7B4B
  8
0
 10
3996.7576393551307774
 20
95.4537852438230487
 30
0.0
 40
0.018
 50
180.0000000000113971
 51
270.0000000000259774
  0
LINE
  5
7B4C
  8
0
 10
3996.739639355131203
 20
95.4537852438230487
 30
0.0
 11
3996.739639355131203
 21
96.2977852438340136
 31
0.0
  0
ARC
  5
7B4D
  8
0
 10
3996.764125846132174
 20
96.2977852438340136
 30
0.0
 40
0.018
 50
90.0
 51
179.9999999999886029
  0
ARC
  5
7B4E
  8
0
 10
3996.764125846132174
 20
95.4537852438230487
 30
0.0
 40
0.018
 50
180.0000000000113971
 51
270.0000000000259774
  0
LINE
  5
7B4F
  8
0
 10
3996.7461258461321449
 20
95.4537852438230487
 30
0.0
 11
3996.7461258461321449
 21
96.2977852438340136
 31
0.0
  0
ARC
  5
7B50
  8
0
 10
3996.8018913676310149
 20
96.2977852438340136
 30
0.0
 40
0.018
 50
90.0
 51
179.9999999999886029
  0
ARC
  5
7B51
  8
0
 10
3996.8018913676310149
 20
95.4537852438230487
 30
0.0
 40
0.018
 50
180.0000000000113971
 51
270.0000000000259774
  0
LINE
  5
7B52
  8
0
 10
3996.7838913676309858
 20
95.4537852438230487
 30
0.0
 11
3996.7838913676309858
 21
96.2977852438340136
 31
0.0
  0
ARC
  5
7B53
  8
0
 10
3996.8584263859320345
 20
96.2977852438340136
 30
0.0
 40
0.018
 50
90.0
 51
179.9999999999886029
  0
ARC
  5
7B54
  8
0
 10
3996.8584263859320345
 20
95.4537852438230487
 30
0.0
 40
0.018
 50
180.0000000000113971
 51
270.0000000000259774
  0
LINE
  5
7B55
  8
0
 10
3996.8404263859310959
 20
95.4537852438230487
 30
0.0
 11
3996.8404263859310959
 21
96.2977852438340136
 31
0.0
  0
ARC
  5
7B56
  8
0
 10
3996.9317683110311918
 20
96.2977852438340136
 30
0.0
 40
0.018
 50
90.0
 51
179.9999999999886029
  0
ARC
  5
7B57
  8
0
 10
3996.9317683110311918
 20
95.4537852438230487
 30
0.0
 40
0.018
 50
180.0000000000113971
 51
270.0000000000259774
  0
LINE
  5
7B58
  8
0
 10
3996.9137683110311627
 20
95.4537852438230487
 30
0.0
 11
3996.9137683110311627
 21
96.2977852438340136
 31
0.0
  0
ARC
  5
7B59
  8
0
 10
3996.8624340425308219
 20
96.2977852438340136
 30
0.0
 40
0.018
 50
90.0
 51
179.9999999999886029
  0
ARC
  5
7B5A
  8
0
 10
3996.8624340425308219
 20
95.4537852438230487
 30
0.0
 40
0.018
 50
180.0000000000113971
 51
270.0000000000259774
  0
LINE
  5
7B5B
  8
0
 10
3996.8444340425307928
 20
95.4537852438230487
 30
0.0
 11
3996.8444340425307928
 21
96.2977852438340136
 31
0.0
  0
ARC
  5
7B5C
  8
0
 10
3997.0108641010319843
 20
96.2977852438340136
 30
0.0
 40
0.018
 50
90.0
 51
179.9999999999886029
  0
ARC
  5
7B5D
  8
0
 10
3997.0108641010319843
 20
95.4537852438230487
 30
0.0
 40
0.018
 50
180.0000000000113971
 51
270.0000000000259774
  0
LINE
  5
7B5E
  8
0
 10
3996.9928641010310457
 20
95.4537852438230487
 30
0.0
 11
3996.9928641010310457
 21
96.2977852438340136
 31
0.0
  0
ARC
  5
7B5F
  8
0
 10
3997.0979545433310705
 20
96.2977852438340136
 30
0.0
 40
0.018
 50
90.0
 51
179.9999999999886029
  0
ARC
  5
7B60
  8
0
 10
3997.0979545433310705
 20
95.4537852438230487
 30
0.0
 40
0.018
 50
180.0000000000113971
 51
270.0000000000259774
  0
LINE
  5
7B61
  8
0
 10
3997.0799545433310414
 20
95.4537852438230487
 30
0.0
 11
3997.0799545433310414
 21
96.2977852438340136
 31
0.0
  0
ARC
  5
7B62
  8
0
 10
3997.1786529821310978
 20
96.2977852438340136
 30
0.0
 40
0.018
 50
90.0
 51
179.9999999999886029
  0
ARC
  5
7B63
  8
0
 10
3997.1786529821310978
 20
95.4537852438230487
 30
0.0
 40
0.018
 50
180.0000000000113971
 51
270.0000000000259774
  0
LINE
  5
7B64
  8
0
 10
3997.1606529821310687
 20
95.4537852438230487
 30
0.0
 11
3997.1606529821310687
 21
96.2977852438340136
 31
0.0
  0
ARC
  5
7B65
  8
0
 10
3997.2732693958319032
 20
96.2977852438340136
 30
0.0
 40
0.018
 50
90.0
 51
179.9999999999886029
  0
ARC
  5
7B66
  8
0
 10
3997.2732693958319032
 20
95.4537852438230487
 30
0.0
 40
0.018
 50
180.0000000000113971
 51
270.0000000000259774
  0
LINE
  5
7B67
  8
0
 10
3997.2552693958309646
 20
95.4537852438230487
 30
0.0
 11
3997.2552693958309646
 21
96.2977852438340136
 31
0.0
  0
ARC
  5
7B68
  8
0
 10
3997.3696390090308341
 20
96.2977852438340136
 30
0.0
 40
0.018
 50
90.0
 51
179.9999999999886029
  0
ARC
  5
7B69
  8
0
 10
3997.3696390090308341
 20
95.4537852438230487
 30
0.0
 40
0.018
 50
180.0000000000113971
 51
270.0000000000259774
  0
LINE
  5
7B6A
  8
0
 10
3997.351639009030805
 20
95.4537852438230487
 30
0.0
 11
3997.351639009030805
 21
96.2977852438340136
 31
0.0
  0
ARC
  5
7B6B
  8
0
 10
3997.4657159798089197
 20
96.2977852467236914
 30
0.0
 40
0.018
 50
90.0
 51
179.9999999999886029
  0
ARC
  5
7B6C
  8
0
 10
3997.4657159798089197
 20
95.4537852467127266
 30
0.0
 40
0.018
 50
180.0000000000113971
 51
270.0000000000259774
  0
LINE
  5
7B6D
  8
0
 10
3997.4477159798088906
 20
95.4537852467127266
 30
0.0
 11
3997.4477159798088906
 21
96.2977852467236914
 31
0.0
  0
ARC
  5
7B6E
  8
0
 10
3997.5596150764799859
 20
96.297785251433254
 30
0.0
 40
0.018
 50
90.0
 51
179.9999999999886029
  0
ARC
  5
7B6F
  8
0
 10
3997.5596150764799859
 20
95.4537852514222891
 30
0.0
 40
0.018
 50
180.0000000000113971
 51
270.0000000000259774
  0
LINE
  5
7B70
  8
0
 10
3997.5416150764799568
 20
95.4537852514222891
 30
0.0
 11
3997.5416150764799568
 21
96.297785251433254
 31
0.0
  0
ARC
  5
7B71
  8
0
 10
3997.643239035131046
 20
96.2977852438340136
 30
0.0
 40
0.018
 50
90.0
 51
179.9999999999886029
  0
ARC
  5
7B72
  8
0
 10
3997.643239035131046
 20
95.4537852438230487
 30
0.0
 40
0.018
 50
180.0000000000113971
 51
270.0000000000259774
  0
LINE
  5
7B73
  8
0
 10
3997.6252390351310169
 20
95.4537852438230487
 30
0.0
 11
3997.6252390351310169
 21
96.2977852438340136
 31
0.0
  0
ARC
  5
7B74
  8
0
 10
3997.7246222768321786
 20
96.2977852438340136
 30
0.0
 40
0.018
 50
90.0
 51
179.9999999999886029
  0
ARC
  5
7B75
  8
0
 10
3997.7246222768321786
 20
95.4537852438230487
 30
0.0
 40
0.018
 50
180.0000000000113971
 51
270.0000000000259774
  0
LINE
  5
7B76
  8
0
 10
3997.7066222768321495
 20
95.4537852438230487
 30
0.0
 11
3997.7066222768321495
 21
96.2977852438340136
 31
0.0
  0
ARC
  5
7B77
  8
0
 10
3997.7980559925308626
 20
96.2977852438340136
 30
0.0
 40
0.018
 50
90.0
 51
179.9999999999886029
  0
ARC
  5
7B78
  8
0
 10
3997.7980559925308626
 20
95.4537852438230487
 30
0.0
 40
0.018
 50
180.0000000000113971
 51
270.0000000000259774
  0
LINE
  5
7B79
  8
0
 10
3997.7800559925308335
 20
95.4537852438230487
 30
0.0
 11
3997.7800559925308335
 21
96.2977852438340136
 31
0.0
  0
ARC
  5
7B7A
  8
0
 10
3997.8618997943308386
 20
96.2977852438340136
 30
0.0
 40
0.018
 50
90.0
 51
179.9999999999886029
  0
ARC
  5
7B7B
  8
0
 10
3997.8618997943308386
 20
95.4537852438230487
 30
0.0
 40
0.018
 50
180.0000000000113971
 51
270.0000000000259774
  0
LINE
  5
7B7C
  8
0
 10
3997.8438997943308095
 20
95.4537852438230487
 30
0.0
 11
3997.8438997943308095
 21
96.2977852438340136
 31
0.0
  0
ARC
  5
7B7D
  8
0
 10
3997.9147275172308582
 20
96.2977852438340136
 30
0.0
 40
0.018
 50
90.0
 51
179.9999999999886029
  0
ARC
  5
7B7E
  8
0
 10
3997.9147275172308582
 20
95.4537852438230487
 30
0.0
 40
0.018
 50
180.0000000000113971
 51
270.0000000000259774
  0
LINE
  5
7B7F
  8
0
 10
3997.8967275172308291
 20
95.4537852438230487
 30
0.0
 11
3997.8967275172308291
 21
96.2977852438340136
 31
0.0
  0
ARC
  5
7B80
  8
0
 10
3997.9691378114498548
 20
96.2977852841703736
 30
0.0
 40
0.018
 50
90.0
 51
179.9999999999886029
  0
ARC
  5
7B81
  8
0
 10
3997.9691378114498548
 20
95.453785284159423
 30
0.0
 40
0.018
 50
180.0000000000113971
 51
270.0000000000259774
  0
LINE
  5
7B82
  8
0
 10
3997.9511378114498257
 20
95.453785284159423
 30
0.0
 11
3997.9511378114498257
 21
96.2977852841703736
 31
0.0
  0
ARC
  5
7B83
  8
0
 10
3997.9824430569260585
 20
96.2977852438339994
 30
0.0
 40
0.018
 50
0.0000000000113991
 51
90.0
  0
ARC
  5
7B84
  8
0
 10
3997.9824430569260585
 20
95.4537852438230345
 30
0.0
 40
0.018
 50
269.9999999999478746
 51
359.9999999999885745
  0
LINE
  5
7B85
  8
0
 10
3998.0004430569260876
 20
96.2977852438339994
 30
0.0
 11
3998.0004430569260876
 21
95.4537852438230345
 31
0.0
  0
ARC
  5
7B86
  8
0
 10
3997.9154164737269639
 20
96.2977852438339994
 30
0.0
 40
0.018
 50
0.0000000000113991
 51
90.0
  0
ARC
  5
7B87
  8
0
 10
3997.9154164737269639
 20
95.4537852438230345
 30
0.0
 40
0.018
 50
269.9999999999478746
 51
359.9999999999885745
  0
LINE
  5
7B88
  8
0
 10
3997.9334164737260835
 20
96.2977852438339994
 30
0.0
 11
3997.9334164737260835
 21
95.4537852438230345
 31
0.0
  0
ARC
  5
7B89
  8
0
 10
3997.8619262944262118
 20
96.2977852438339994
 30
0.0
 40
0.018
 50
0.0000000000113991
 51
90.0
  0
ARC
  5
7B8A
  8
0
 10
3997.8619262944262118
 20
95.4537852438230345
 30
0.0
 40
0.018
 50
269.9999999999478746
 51
359.9999999999885745
  0
LINE
  5
7B8B
  8
0
 10
3997.8799262944271504
 20
96.2977852438339994
 30
0.0
 11
3997.8799262944271504
 21
95.4537852438230345
 31
0.0
  0
ARC
  5
7B8C
  8
0
 10
3997.7966144436268223
 20
96.2977852438339994
 30
0.0
 40
0.018
 50
0.0000000000113991
 51
90.0
  0
ARC
  5
7B8D
  8
0
 10
3997.7966144436268223
 20
95.4537852438230345
 30
0.0
 40
0.018
 50
269.9999999999478746
 51
359.9999999999885745
  0
LINE
  5
7B8E
  8
0
 10
3997.8146144436259419
 20
96.2977852438339994
 30
0.0
 11
3997.8146144436259419
 21
95.4537852438230345
 31
0.0
  0
ARC
  5
7B8F
  8
0
 10
3997.7312680276268111
 20
96.2977852438339994
 30
0.0
 40
0.018
 50
0.0000000000113991
 51
90.0
  0
ARC
  5
7B90
  8
0
 10
3997.7312680276268111
 20
95.4537852438230345
 30
0.0
 40
0.018
 50
269.9999999999478746
 51
359.9999999999885745
  0
LINE
  5
7B91
  8
0
 10
3997.7492680276268402
 20
96.2977852438339994
 30
0.0
 11
3997.7492680276268402
 21
95.4537852438230345
 31
0.0
  0
ARC
  5
7B92
  8
0
 10
3997.6479419167258129
 20
96.2977852438339994
 30
0.0
 40
0.018
 50
0.0000000000113991
 51
90.0
  0
ARC
  5
7B93
  8
0
 10
3997.6479419167258129
 20
95.4537852438230345
 30
0.0
 40
0.018
 50
269.9999999999478746
 51
359.9999999999885745
  0
LINE
  5
7B94
  8
0
 10
3997.665941916725842
 20
96.2977852438339994
 30
0.0
 11
3997.665941916725842
 21
95.4537852438230345
 31
0.0
  0
ARC
  5
7B95
  8
0
 10
3997.5575741917268715
 20
96.2977852438339994
 30
0.0
 40
0.018
 50
0.0000000000113991
 51
90.0
  0
ARC
  5
7B96
  8
0
 10
3997.5575741917268715
 20
95.4537852438230345
 30
0.0
 40
0.018
 50
269.9999999999478746
 51
359.9999999999885745
  0
LINE
  5
7B97
  8
0
 10
3997.5755741917269006
 20
96.2977852438339994
 30
0.0
 11
3997.5755741917269006
 21
95.4537852438230345
 31
0.0
  0
ARC
  5
7B98
  8
0
 10
3997.4758613210260592
 20
96.2977852438339994
 30
0.0
 40
0.018
 50
0.0000000000113991
 51
90.0
  0
ARC
  5
7B99
  8
0
 10
3997.4758613210260592
 20
95.4537852438230345
 30
0.0
 40
0.018
 50
269.9999999999478746
 51
359.9999999999885745
  0
LINE
  5
7B9A
  8
0
 10
3997.4938613210260883
 20
96.2977852438339994
 30
0.0
 11
3997.4938613210260883
 21
95.4537852438230345
 31
0.0
  0
ARC
  5
7B9B
  8
0
 10
3997.3801005409259233
 20
96.2977852438339994
 30
0.0
 40
0.018
 50
0.0000000000113991
 51
90.0
  0
ARC
  5
7B9C
  8
0
 10
3997.3801005409259233
 20
95.4537852438230345
 30
0.0
 40
0.018
 50
269.9999999999478746
 51
359.9999999999885745
  0
LINE
  5
7B9D
  8
0
 10
3997.3981005409268619
 20
96.2977852438339994
 30
0.0
 11
3997.3981005409268619
 21
95.4537852438230345
 31
0.0
  0
ARC
  5
7B9E
  8
0
 10
3997.2842112472258123
 20
96.2977852438339994
 30
0.0
 40
0.018
 50
0.0000000000113991
 51
90.0
  0
ARC
  5
7B9F
  8
0
 10
3997.2842112472258123
 20
95.4537852438230345
 30
0.0
 40
0.018
 50
269.9999999999478746
 51
359.9999999999885745
  0
LINE
  5
7BA0
  8
0
 10
3997.3022112472272056
 20
96.2977852438339994
 30
0.0
 11
3997.3022112472272056
 21
95.4537852438230345
 31
0.0
  0
ARC
  5
7BA1
  8
0
 10
3997.1911955390269213
 20
96.2977852438339994
 30
0.0
 40
0.018
 50
0.0000000000113991
 51
90.0
  0
ARC
  5
7BA2
  8
0
 10
3997.1911955390269213
 20
95.4537852438230345
 30
0.0
 40
0.018
 50
269.9999999999478746
 51
359.9999999999885745
  0
LINE
  5
7BA3
  8
0
 10
3997.2091955390269504
 20
96.2977852438339994
 30
0.0
 11
3997.2091955390269504
 21
95.4537852438230345
 31
0.0
  0
ARC
  5
7BA4
  8
0
 10
3997.101341175926791
 20
96.2977852438339994
 30
0.0
 40
0.018
 50
0.0000000000113991
 51
90.0
  0
ARC
  5
7BA5
  8
0
 10
3997.101341175926791
 20
95.4537852438230345
 30
0.0
 40
0.018
 50
269.9999999999478746
 51
359.9999999999885745
  0
LINE
  5
7BA6
  8
0
 10
3997.1193411759268201
 20
96.2977852438339994
 30
0.0
 11
3997.1193411759268201
 21
95.4537852438230345
 31
0.0
  0
ARC
  5
7BA7
  8
0
 10
3997.0166553560261491
 20
96.2977852438339994
 30
0.0
 40
0.018
 50
0.0000000000113991
 51
90.0
  0
ARC
  5
7BA8
  8
0
 10
3997.0166553560261491
 20
95.4537852438230345
 30
0.0
 40
0.018
 50
269.9999999999478746
 51
359.9999999999885745
  0
LINE
  5
7BA9
  8
0
 10
3997.0346553560261782
 20
96.2977852438339994
 30
0.0
 11
3997.0346553560261782
 21
95.4537852438230345
 31
0.0
  0
ARC
  5
7BAA
  8
0
 10
3996.9390298204261853
 20
96.2977852438339994
 30
0.0
 40
0.018
 50
0.0000000000113991
 51
90.0
  0
ARC
  5
7BAB
  8
0
 10
3996.9390298204261853
 20
95.4537852438230345
 30
0.0
 40
0.018
 50
269.9999999999478746
 51
359.9999999999885745
  0
LINE
  5
7BAC
  8
0
 10
3996.9570298204262144
 20
96.2977852438339994
 30
0.0
 11
3996.9570298204262144
 21
95.4537852438230345
 31
0.0
  0
ARC
  5
7BAD
  8
0
 10
3996.8701985955271994
 20
96.2977852438339994
 30
0.0
 40
0.018
 50
0.0000000000113991
 51
90.0
  0
ARC
  5
7BAE
  8
0
 10
3996.8701985955271994
 20
95.4537852438230345
 30
0.0
 40
0.018
 50
269.9999999999478746
 51
359.9999999999885745
  0
LINE
  5
7BAF
  8
0
 10
3996.8881985955258642
 20
96.2977852438339994
 30
0.0
 11
3996.8881985955258642
 21
95.4537852438230345
 31
0.0
  0
ARC
  5
7BB0
  8
0
 10
3996.8116992571258379
 20
96.2977852438339994
 30
0.0
 40
0.018
 50
0.0000000000113991
 51
90.0
  0
ARC
  5
7BB1
  8
0
 10
3996.8116992571258379
 20
95.4537852438230345
 30
0.0
 40
0.018
 50
269.9999999999478746
 51
359.9999999999885745
  0
LINE
  5
7BB2
  8
0
 10
3996.829699257125867
 20
96.2977852438339994
 30
0.0
 11
3996.829699257125867
 21
95.4537852438230345
 31
0.0
  0
LINE
  5
7BB3
  8
0
 10
4001.8809571758260972
 20
95.3716513337340075
 30
0.0
 11
4001.8809571758260972
 21
93.0116513337339939
 31
0.0
  0
ARC
  5
7BB4
  8
0
 10
4001.8909571758258608
 20
95.3716513337340075
 30
0.0
 40
0.01
 50
90.0000000000260485
 51
180.0
  0
ARC
  5
7BB5
  8
0
 10
4001.8909571758258608
 20
93.0116513337339939
 30
0.0
 40
0.01
 50
179.9999999999795932
 51
270.0
  0
LINE
  5
7BB6
  8
0
 10
4001.9194358737258881
 20
95.3716513337340075
 30
0.0
 11
4001.9194358737258881
 21
93.0116513337339939
 31
0.0
  0
ARC
  5
7BB7
  8
0
 10
4001.9294358737261064
 20
95.3716513337340075
 30
0.0
 40
0.01
 50
90.0000000000260485
 51
180.0
  0
ARC
  5
7BB8
  8
0
 10
4001.9294358737261064
 20
93.0116513337339939
 30
0.0
 40
0.01
 50
179.9999999999795932
 51
270.0
  0
LINE
  5
7BB9
  8
0
 10
4001.9315626429252006
 20
95.3716513337340075
 30
0.0
 11
4001.9315626429252006
 21
93.0116513337339939
 31
0.0
  0
ARC
  5
7BBA
  8
0
 10
4001.9415626429258737
 20
95.3716513337340075
 30
0.0
 40
0.01
 50
90.0000000000260485
 51
180.0
  0
ARC
  5
7BBB
  8
0
 10
4001.9415626429258737
 20
93.0116513337339939
 30
0.0
 40
0.01
 50
179.9999999999795932
 51
270.0
  0
LINE
  5
7BBC
  8
0
 10
4001.9762359722258225
 20
95.3716513337340075
 30
0.0
 11
4001.9762359722258225
 21
93.0116513337339939
 31
0.0
  0
ARC
  5
7BBD
  8
0
 10
4001.9862359722269503
 20
95.3716513337340075
 30
0.0
 40
0.01
 50
90.0000000000260485
 51
180.0
  0
ARC
  5
7BBE
  8
0
 10
4001.9862359722269503
 20
93.0116513337339939
 30
0.0
 40
0.01
 50
179.9999999999795932
 51
270.0
  0
LINE
  5
7BBF
  8
0
 10
4002.0490320685257757
 20
95.3716513337340075
 30
0.0
 11
4002.0490320685257757
 21
93.0116513337339939
 31
0.0
  0
ARC
  5
7BC0
  8
0
 10
4002.059032068525994
 20
95.3716513337340075
 30
0.0
 40
0.01
 50
90.0000000000260485
 51
180.0
  0
ARC
  5
7BC1
  8
0
 10
4002.059032068525994
 20
93.0116513337339939
 30
0.0
 40
0.01
 50
179.9999999999795932
 51
270.0
  0
LINE
  5
7BC2
  8
0
 10
4002.1348438825161793
 20
95.3716513337558638
 30
0.0
 11
4002.1348438825161793
 21
93.0116513337558786
 31
0.0
  0
ARC
  5
7BC3
  8
0
 10
4002.1448438825159428
 20
95.3716513337558638
 30
0.0
 40
0.01
 50
90.0000000000260485
 51
180.0
  0
ARC
  5
7BC4
  8
0
 10
4002.1448438825159428
 20
93.0116513337558786
 30
0.0
 40
0.01
 50
179.9999999999795932
 51
270.0
  0
LINE
  5
7BC5
  8
0
 10
4002.2269018520260033
 20
95.3716513337340075
 30
0.0
 11
4002.2269018520260033
 21
93.0116513337339939
 31
0.0
  0
ARC
  5
7BC6
  8
0
 10
4002.2369018520262216
 20
95.3716513337340075
 30
0.0
 40
0.01
 50
90.0000000000260485
 51
180.0
  0
ARC
  5
7BC7
  8
0
 10
4002.2369018520262216
 20
93.0116513337339939
 30
0.0
 40
0.01
 50
179.9999999999795932
 51
270.0
  0
LINE
  5
7BC8
  8
0
 10
4002.3193884737261214
 20
95.3716513337340075
 30
0.0
 11
4002.3193884737261214
 21
93.0116513337339939
 31
0.0
  0
ARC
  5
7BC9
  8
0
 10
4002.329388473725885
 20
95.3716513337340075
 30
0.0
 40
0.01
 50
90.0000000000260485
 51
180.0
  0
ARC
  5
7BCA
  8
0
 10
4002.329388473725885
 20
93.0116513337339939
 30
0.0
 40
0.01
 50
179.9999999999795932
 51
270.0
  0
LINE
  5
7BCB
  8
0
 10
4002.433477239163949
 20
95.3716513312780023
 30
0.0
 11
4002.433477239163949
 21
93.0116513312780171
 31
0.0
  0
ARC
  5
7BCC
  8
0
 10
4002.4434772391641673
 20
95.3716513312780023
 30
0.0
 40
0.01
 50
90.0000000000260485
 51
180.0
  0
ARC
  5
7BCD
  8
0
 10
4002.4434772391641673
 20
93.0116513312780171
 30
0.0
 40
0.01
 50
179.9999999999795932
 51
270.0
  0
LINE
  5
7BCE
  8
0
 10
4002.5336283456958881
 20
95.3716513185026287
 30
0.0
 11
4002.5336283456958881
 21
93.0116513185026434
 31
0.0
  0
ARC
  5
7BCF
  8
0
 10
4002.5436283456951969
 20
95.3716513185026287
 30
0.0
 40
0.01
 50
90.0000000000260485
 51
180.0
  0
ARC
  5
7BD0
  8
0
 10
4002.5436283456951969
 20
93.0116513185026434
 30
0.0
 40
0.01
 50
179.9999999999795932
 51
270.0
  0
LINE
  5
7BD1
  8
0
 10
4002.6276107825810868
 20
95.3716513017741647
 30
0.0
 11
4002.6276107825810868
 21
93.0116513017741653
 31
0.0
  0
ARC
  5
7BD2
  8
0
 10
4002.6376107825799409
 20
95.3716513017741647
 30
0.0
 40
0.01
 50
90.0000000000260485
 51
180.0
  0
ARC
  5
7BD3
  8
0
 10
4002.6376107825799409
 20
93.0116513017741653
 30
0.0
 40
0.01
 50
179.9999999999795932
 51
270.0
  0
LINE
  5
7BD4
  8
0
 10
4002.7115768979820132
 20
95.3716512828862051
 30
0.0
 11
4002.7115768979820132
 21
93.0116512828861914
 31
0.0
  0
ARC
  5
7BD5
  8
0
 10
4002.7215768979817767
 20
95.3716512828862051
 30
0.0
 40
0.01
 50
90.0000000000260485
 51
180.0
  0
ARC
  5
7BD6
  8
0
 10
4002.7215768979817767
 20
93.0116512828861914
 30
0.0
 40
0.01
 50
179.9999999999795932
 51
270.0
  0
LINE
  5
7BD7
  8
0
 10
4002.7688771179259675
 20
95.3716513337340075
 30
0.0
 11
4002.7688771179259675
 21
93.0116513337339939
 31
0.0
  0
ARC
  5
7BD8
  8
0
 10
4002.7788771179261857
 20
95.3716513337340075
 30
0.0
 40
0.01
 50
90.0000000000260485
 51
180.0
  0
ARC
  5
7BD9
  8
0
 10
4002.7788771179261857
 20
93.0116513337339939
 30
0.0
 40
0.01
 50
179.9999999999795932
 51
270.0
  0
LINE
  5
7BDA
  8
0
 10
4002.821035944526102
 20
95.3716513337340075
 30
0.0
 11
4002.821035944526102
 21
93.0116513337339939
 31
0.0
  0
ARC
  5
7BDB
  8
0
 10
4002.8310359445258655
 20
95.3716513337340075
 30
0.0
 40
0.01
 50
90.0000000000260485
 51
180.0
  0
ARC
  5
7BDC
  8
0
 10
4002.8310359445258655
 20
93.0116513337339939
 30
0.0
 40
0.01
 50
179.9999999999795932
 51
270.0
  0
LINE
  5
7BDD
  8
0
 10
4002.8718736956770954
 20
95.3716512352943369
 30
0.0
 11
4002.8718736956770954
 21
93.0116512352943232
 31
0.0
  0
ARC
  5
7BDE
  8
0
 10
4002.8818736956768589
 20
95.3716512352943369
 30
0.0
 40
0.01
 50
90.0000000000260485
 51
180.0
  0
ARC
  5
7BDF
  8
0
 10
4002.8818736956768589
 20
93.0116512352943232
 30
0.0
 40
0.01
 50
179.9999999999795932
 51
270.0
  0
ARC
  5
7BE0
  8
0
 10
4002.8867811306258773
 20
95.3716513337340075
 30
0.0
 40
0.01
 50
0.0
 51
90.0
  0
LINE
  5
7BE1
  8
0
 10
4002.8967811306251861
 20
95.3716513337340075
 30
0.0
 11
4002.8967811306251861
 21
93.0116513337339939
 31
0.0
  0
ARC
  5
7BE2
  8
0
 10
4002.8867811306258773
 20
93.0116513337339939
 30
0.0
 40
0.01
 50
270.0
 51
0.0000000000203555
  0
ARC
  5
7BE3
  8
0
 10
4002.8485857927262259
 20
95.3716513337340075
 30
0.0
 40
0.01
 50
0.0
 51
90.0
  0
LINE
  5
7BE4
  8
0
 10
4002.8585857927268989
 20
95.3716513337340075
 30
0.0
 11
4002.8585857927268989
 21
93.0116513337339939
 31
0.0
  0
ARC
  5
7BE5
  8
0
 10
4002.8485857927262259
 20
93.0116513337339939
 30
0.0
 40
0.01
 50
270.0
 51
0.0000000000203555
  0
ARC
  5
7BE6
  8
0
 10
4002.7954431619259594
 20
95.3716513337340075
 30
0.0
 40
0.01
 50
0.0
 51
90.0
  0
LINE
  5
7BE7
  8
0
 10
4002.8054431619261777
 20
95.3716513337340075
 30
0.0
 11
4002.8054431619261777
 21
93.0116513337339939
 31
0.0
  0
ARC
  5
7BE8
  8
0
 10
4002.7954431619259594
 20
93.0116513337339939
 30
0.0
 40
0.01
 50
270.0
 51
0.0000000000203555
  0
ARC
  5
7BE9
  8
0
 10
4002.7403424982258002
 20
95.3716513337340075
 30
0.0
 40
0.01
 50
0.0
 51
90.0
  0
LINE
  5
7BEA
  8
0
 10
4002.7503424982260185
 20
95.3716513337340075
 30
0.0
 11
4002.7503424982260185
 21
93.0116513337339939
 31
0.0
  0
ARC
  5
7BEB
  8
0
 10
4002.7403424982258002
 20
93.0116513337339939
 30
0.0
 40
0.01
 50
270.0
 51
0.0000000000203555
  0
ARC
  5
7BEC
  8
0
 10
4002.6581101946258059
 20
95.3716513337340075
 30
0.0
 40
0.01
 50
0.0
 51
90.0
  0
LINE
  5
7BED
  8
0
 10
4002.6681101946260242
 20
95.3716513337340075
 30
0.0
 11
4002.6681101946260242
 21
93.0116513337339939
 31
0.0
  0
ARC
  5
7BEE
  8
0
 10
4002.6581101946258059
 20
93.0116513337339939
 30
0.0
 40
0.01
 50
270.0
 51
0.0000000000203555
  0
ARC
  5
7BEF
  8
0
 10
4002.5743432267281605
 20
95.3716513319070884
 30
0.0
 40
0.01
 50
0.0
 51
90.0
  0
LINE
  5
7BF0
  8
0
 10
4002.584343226727924
 20
95.3716513319070884
 30
0.0
 11
4002.584343226727924
 21
93.0116513319071032
 31
0.0
  0
ARC
  5
7BF1
  8
0
 10
4002.5743432267281605
 20
93.0116513319071032
 30
0.0
 40
0.01
 50
270.0
 51
0.0000000000203555
  0
ARC
  5
7BF2
  8
0
 10
4002.4833141885260375
 20
95.3716513337340075
 30
0.0
 40
0.01
 50
0.0
 51
90.0
  0
LINE
  5
7BF3
  8
0
 10
4002.493314188525801
 20
95.3716513337340075
 30
0.0
 11
4002.493314188525801
 21
93.0116513337339939
 31
0.0
  0
ARC
  5
7BF4
  8
0
 10
4002.4833141885260375
 20
93.0116513337339939
 30
0.0
 40
0.01
 50
270.0
 51
0.0000000000203555
  0
ARC
  5
7BF5
  8
0
 10
4002.373549200367961
 20
95.3716513140779796
 30
0.0
 40
0.01
 50
0.0
 51
90.0
  0
LINE
  5
7BF6
  8
0
 10
4002.3835492003668151
 20
95.3716513140779796
 30
0.0
 11
4002.3835492003668151
 21
93.0116513140779659
 31
0.0
  0
ARC
  5
7BF7
  8
0
 10
4002.373549200367961
 20
93.0116513140779659
 30
0.0
 40
0.01
 50
270.0
 51
0.0000000000203555
  0
ARC
  5
7BF8
  8
0
 10
4002.2718215256109033
 20
95.3716513159199195
 30
0.0
 40
0.01
 50
0.0
 51
90.0
  0
LINE
  5
7BF9
  8
0
 10
4002.2818215256111216
 20
95.3716513159199195
 30
0.0
 11
4002.2818215256111216
 21
93.0116513159199059
 31
0.0
  0
ARC
  5
7BFA
  8
0
 10
4002.2718215256109033
 20
93.0116513159199059
 30
0.0
 40
0.01
 50
270.0
 51
0.0000000000203555
  0
ARC
  5
7BFB
  8
0
 10
4002.1742542546739969
 20
95.3716512864192936
 30
0.0
 40
0.01
 50
0.0
 51
90.0
  0
LINE
  5
7BFC
  8
0
 10
4002.1842542546728509
 20
95.3716512864192936
 30
0.0
 11
4002.1842542546728509
 21
93.0116512864193083
 31
0.0
  0
ARC
  5
7BFD
  8
0
 10
4002.1742542546739969
 20
93.0116512864193083
 30
0.0
 40
0.01
 50
270.0
 51
0.0000000000203555
  0
ARC
  5
7BFE
  8
0
 10
4002.0848212069768124
 20
95.3716512527669948
 30
0.0
 40
0.01
 50
0.0
 51
90.0
  0
LINE
  5
7BFF
  8
0
 10
4002.0948212069761212
 20
95.3716512527669948
 30
0.0
 11
4002.0948212069761212
 21
93.011651252766967
 31
0.0
  0
ARC
  5
7C00
  8
0
 10
4002.0848212069768124
 20
93.011651252766967
 30
0.0
 40
0.01
 50
270.0
 51
0.0000000000203555
  0
ARC
  5
7C01
  8
0
 10
4002.0071837821360532
 20
95.3716512181202773
 30
0.0
 40
0.01
 50
0.0
 51
90.0
  0
LINE
  5
7C02
  8
0
 10
4002.0171837821358167
 20
95.3716512181202773
 30
0.0
 11
4002.0171837821358167
 21
93.0116512181202921
 31
0.0
  0
ARC
  5
7C03
  8
0
 10
4002.0071837821360532
 20
93.0116512181202921
 30
0.0
 40
0.01
 50
270.0
 51
0.0000000000203555
  0
ARC
  5
7C04
  8
0
 10
4001.9588117678658818
 20
95.3716513299055748
 30
0.0
 40
0.01
 50
0.0
 51
90.0
  0
LINE
  5
7C05
  8
0
 10
4001.9688117678661001
 20
95.3716513299055748
 30
0.0
 11
4001.9688117678661001
 21
93.0116513299055754
 31
0.0
  0
ARC
  5
7C06
  8
0
 10
4001.9588117678658818
 20
93.0116513299055754
 30
0.0
 40
0.01
 50
270.0
 51
0.0000000000203555
  0
ARC
  5
7C07
  8
0
 10
4001.8993967002052159
 20
95.371651160828705
 30
0.0
 40
0.01
 50
0.0
 51
90.0
  0
LINE
  5
7C08
  8
0
 10
4001.9093967002058889
 20
95.371651160828705
 30
0.0
 11
4001.9093967002058889
 21
93.0116511608287055
 31
0.0
  0
ARC
  5
7C09
  8
0
 10
4001.8993967002052159
 20
93.0116511608287055
 30
0.0
 40
0.01
 50
270.0
 51
0.0000000000203555
  0
ENDSEC
  0
EOF
