  0
SECTION
  2
HEADER
  9
$ACADVER
  1
AC1009
  9
$INSBASE
 10
4740.9399628866303829
 20
496.8994787409548053
 30
0.0
  9
$EXTMIN
 10
4739.8774628866312923
 20
494.0987194638290134
 30
0.0
  9
$EXTMAX
 10
4742.0024628866303829
 20
497.9619787409546916
 30
0.0
  9
$LIMMIN
 10
0.0
 20
0.0
  9
$LIMMAX
 10
11.6929133858000007
 20
8.2677165353999982
  9
$ORTHOMODE
 70
     0
  9
$REGENMODE
 70
     1
  9
$FILLMODE
 70
     1
  9
$QTEXTMODE
 70
     0
  9
$MIRRTEXT
 70
     0
  9
$DRAGMODE
 70
     2
  9
$LTSCALE
 40
0.6431102362
  9
$OSMODE
 70
  4095
  9
$ATTMODE
 70
     1
  9
$TEXTSIZE
 40
0.2
  9
$TRACEWID
 40
0.05
  9
$TEXTSTYLE
  7
STANDARD
  9
$CLAYER
  8
0
  9
$CELTYPE
  6
BYLAYER
  9
$CECOLOR
 62
   256
  9
$DIMSCALE
 40
1.0
  9
$DIMASZ
 40
0.1875
  9
$DIMEXO
 40
0.0625
  9
$DIMDLI
 40
0.4443307087
  9
$DIMRND
 40
0.0
  9
$DIMDLE
 40
0.0
  9
$DIMEXE
 40
0.125
  9
$DIMTP
 40
0.01
  9
$DIMTM
 40
0.01
  9
$DIMTXT
 40
2.0
  9
$DIMCEN
 40
0.1052362205
  9
$DIMTSZ
 40
0.0
  9
$DIMTOL
 70
     1
  9
$DIMLIM
 70
     0
  9
$DIMTIH
 70
     1
  9
$DIMTOH
 70
     1
  9
$DIMSE1
 70
     0
  9
$DIMSE2
 70
     0
  9
$DIMTAD
 70
     0
  9
$DIMZIN
 70
     0
  9
$DIMBLK
  1

  9
$DIMASO
 70
     1
  9
$DIMSHO
 70
     1
  9
$DIMPOST
  1
\X
  9
$DIMAPOST
  1

  9
$DIMALT
 70
     1
  9
$DIMALTD
 70
     2
  9
$DIMALTF
 40
25.3999999999999986
  9
$DIMLFAC
 40
1.0
  9
$DIMTOFL
 70
     0
  9
$DIMTVP
 40
0.0
  9
$DIMTIX
 70
     0
  9
$DIMSOXD
 70
     0
  9
$DIMSAH
 70
     0
  9
$DIMBLK1
  1

  9
$DIMBLK2
  1

  9
$DIMSTYLE
  2
STANDARD
  9
$DIMCLRD
 70
     0
  9
$DIMCLRE
 70
     0
  9
$DIMCLRT
 70
     0
  9
$DIMTFAC
 40
1.0
  9
$DIMGAP
 40
0.09
  9
$LUNITS
 70
     2
  9
$LUPREC
 70
     4
  9
$SKETCHINC
 40
0.1
  9
$FILLETRAD
 40
0.0
  9
$AUNITS
 70
     0
  9
$AUPREC
 70
     0
  9
$MENU
  1
.
  9
$ELEVATION
 40
0.0
  9
$PELEVATION
 40
0.0
  9
$THICKNESS
 40
0.0
  9
$LIMCHECK
 70
     0
  9
$BLIPMODE
 70
     0
  9
$CHAMFERA
 40
0.0
  9
$CHAMFERB
 40
0.0
  9
$SKPOLY
 70
     0
  9
$TDCREATE
 40
2458060.468368056230247
  9
$TDUPDATE
 40
2459870.9192476850003004
  9
$TDINDWG
 40
1.5238196759
  9
$TDUSRTIMER
 40
1.5238196759
  9
$USRTIMER
 70
     1
  9
$ANGBASE
 50
0.0
  9
$ANGDIR
 70
     0
  9
$PDMODE
 70
     0
  9
$PDSIZE
 40
0.3125
  9
$PLINEWID
 40
0.0
  9
$COORDS
 70
     1
  9
$SPLFRAME
 70
     0
  9
$SPLINETYPE
 70
     6
  9
$SPLINESEGS
 70
     8
  9
$ATTDIA
 70
     1
  9
$ATTREQ
 70
     1
  9
$HANDLING
 70
     1
  9
$HANDSEED
  5
20BD4
  9
$SURFTAB1
 70
     6
  9
$SURFTAB2
 70
     6
  9
$SURFTYPE
 70
     6
  9
$SURFU
 70
     6
  9
$SURFV
 70
     6
  9
$UCSNAME
  2

  9
$UCSORG
 10
0.0
 20
0.0
 30
0.0
  9
$UCSXDIR
 10
1.0
 20
0.0
 30
0.0
  9
$UCSYDIR
 10
0.0
 20
1.0
 30
0.0
  9
$PUCSNAME
  2

  9
$PUCSORG
 10
0.0
 20
0.0
 30
0.0
  9
$PUCSXDIR
 10
1.0
 20
0.0
 30
0.0
  9
$PUCSYDIR
 10
0.0
 20
1.0
 30
0.0
  9
$USERI1
 70
     0
  9
$USERI2
 70
     0
  9
$USERI3
 70
     0
  9
$USERI4
 70
     0
  9
$USERI5
 70
     0
  9
$USERR1
 40
0.0
  9
$USERR2
 40
0.0
  9
$USERR3
 40
0.0
  9
$USERR4
 40
0.0
  9
$USERR5
 40
0.0
  9
$WORLDVIEW
 70
     1
  9
$SHADEDGE
 70
     3
  9
$SHADEDIF
 70
    70
  9
$TILEMODE
 70
     1
  9
$MAXACTVP
 70
    64
  9
$PLIMCHECK
 70
     0
  9
$PEXTMIN
 10
1.0000000000000000E+20
 20
1.0000000000000000E+20
 30
1.0000000000000000E+20
  9
$PEXTMAX
 10
-1.0000000000000000E+20
 20
-1.0000000000000000E+20
 30
-1.0000000000000000E+20
  9
$PLIMMIN
 10
0.0
 20
0.0
  9
$PLIMMAX
 10
12.0
 20
9.0
  9
$UNITMODE
 70
     0
  9
$VISRETAIN
 70
     1
  9
$PLINEGEN
 70
     0
  9
$PSLTSCALE
 70
     1
  0
ENDSEC
  0
SECTION
  2
TABLES
  0
TABLE
  2
VPORT
 70
     1
  0
VPORT
  2
*ACTIVE
 70
     0
 10
0.0
 20
0.0
 11
1.0
 21
1.0
 12
829.7767349053286807
 22
363.4507439998528753
 13
0.0
 23
0.0
 14
1.0
 24
1.0
 15
0.0
 25
0.0
 16
0.0
 26
0.0
 36
60.4960186965801583
 17
3911.3653564453120453
 27
132.5796051025390057
 37
0.0
 40
3.8896897852931138
 41
2.2831541218637992
 42
50.0
 43
0.0
 44
0.0
 50
0.0
 51
0.0
 71
     0
 72
   100
 73
     1
 74
     1
 75
     0
 76
     0
 77
     0
 78
     0
  0
ENDTAB
  0
TABLE
  2
LTYPE
 70
     2
  0
LTYPE
  2
CONTINUOUS
 70
     0
  3
Solid line
 72
    65
 73
     0
 40
0.0
  0
LTYPE
  2
PHANTOM2
 70
     0
  3
___ _ _ ___ _ _ ___ _ _ ___ _ _
 72
    65
 73
     6
 40
1.25
 49
0.625
 49
-0.125
 49
0.125
 49
-0.125
 49
0.125
 49
-0.125
  0
ENDTAB
  0
TABLE
  2
LAYER
 70
     2
  0
LAYER
  2
0
 70
     0
 62
   255
  6
CONTINUOUS
  0
LAYER
  2
DEFPOINTS
 70
     0
 62
     7
  6
CONTINUOUS
  0
ENDTAB
  0
TABLE
  2
STYLE
 70
     1
  0
STYLE
  2
STANDARD
 70
     0
 40
0.0
 41
0.8
 50
0.0
 71
     0
 42
0.2
  3
txt
  4

  0
ENDTAB
  0
TABLE
  2
VIEW
 70
     0
  0
ENDTAB
  0
TABLE
  2
UCS
 70
     0
  0
ENDTAB
  0
TABLE
  2
APPID
 70
    11
  0
APPID
  2
ACAD
 70
     0
  0
APPID
  2
ACAD_MLEADERVER
 70
     0
  0
APPID
  2
ACAD_EXEMPT_FROM_CAD_STANDARDS
 70
     0
  0
APPID
  2
ACAD_NAV_VCDISPLAY
 70
     0
  0
APPID
  2
ACAECLAYERSTANDARD
 70
     0
  0
APPID
  2
ACCMTRANSPARENCY
 70
     0
  0
APPID
  2
ACAD_DSTYLE_DIMJAG
 70
     0
  0
APPID
  2
ACAD_DSTYLE_DIMTALN
 70
     0
  0
APPID
  2
ACDBATTR
 70
     0
  0
APPID
  2
ACADANNOTATIVE
 70
     0
  0
APPID
  2
DCO15
 70
     0
  0
ENDTAB
  0
TABLE
  2
DIMSTYLE
 70
     1
  0
DIMSTYLE
  2
STANDARD
 70
     0
  3

  4

  5

  6

  7

 40
1.0
 41
0.1875
 42
0.0625
 43
0.38
 44
0.125
 45
0.0
 46
0.0
 47
0.01
 48
0.01
140
0.15625
141
0.09
142
0.0
143
25.3999999999999986
144
1.0
145
0.0
146
1.0
147
0.09
 71
     1
 72
     0
 73
     1
 74
     1
 75
     0
 76
     0
 77
     0
 78
     4
170
     0
171
     2
172
     0
173
     0
174
     0
175
     0
176
     0
177
     0
178
     0
  0
ENDTAB
  0
ENDSEC
  0
SECTION
  2
BLOCKS
  0
BLOCK
  8
0
  2
$MODEL_SPACE
 70
     0
 10
0.0
 20
0.0
 30
0.0
  3
$MODEL_SPACE
  1

  0
ENDBLK
  5
21
  8
0
  0
BLOCK
 67
     1
  8
0
  2
$PAPER_SPACE
 70
     0
 10
0.0
 20
0.0
 30
0.0
  3
$PAPER_SPACE
  1

  0
ENDBLK
  5
1D
 67
     1
  8
0
  0
ENDSEC
  0
SECTION
  2
ENTITIES
  0
ATTDEF
  5
20765
  8
DEFPOINTS
 10
4740.9405513105821228
 20
496.9038644695485232
 30
0.0
 40
0.001
  1
P80271-00
  3

  2
MODELNUMBER
 70
     0
1001
ACDBATTR
1070
     0
1070
     1
  0
ATTDEF
  5
20766
  8
DEFPOINTS
 10
4740.9405513105821228
 20
496.9021976291692795
 30
0.0
 40
0.001
  1
VIR STIL
  3

  2
TRADENAME
 70
     0
1001
ACDBATTR
1070
     0
1070
     1
  0
ATTDEF
  5
20767
  8
DEFPOINTS
 10
4740.9405513105821228
 20
496.9005311362151929
 30
0.0
 40
0.001
  1
SOAP DISPENSER
  3

  2
PRODUCT
 70
     0
1001
ACDBATTR
1070
     0
1070
     1
  0
ARC
  5
208EB
  8
0
 10
4740.9399628866303829
 20
496.8994787409548053
 30
0.0
 40
1.0625
 50
280.1645242213944016
 51
259.8357513782858064
  0
ARC
  5
208EC
  8
0
 10
4740.9399628866303829
 20
496.8994787409548053
 30
0.0
 40
0.9325000000000001
 50
281.5999917878058909
 51
258.4003237494159748
  0
CIRCLE
  5
208ED
  8
0
 10
4740.9399628866303829
 20
496.8994787409548053
 30
0.0
 40
0.5744370079000003
  0
ARC
  5
208EE
  8
0
 10
4740.9399628866303829
 20
496.8994787409548053
 30
0.0
 40
0.8624999999999998
 50
282.5562001651093169
 51
257.4441422014053273
  0
LINE
  5
208EF
  8
0
 10
4740.7524578560860391
 20
494.1842817764371034
 30
0.0
 11
4740.7524578560860391
 21
496.3565056849325856
 31
0.0
  0
ARC
  5
208F0
  8
0
 10
4740.8137932619483763
 20
494.1845231864550101
 30
0.0
 40
0.0613358809420889
 50
180.2255092885660019
 51
191.6935921302284953
  0
ARC
  5
208F1
  8
0
 10
4740.8129035097472297
 20
494.1845296369962739
 30
0.0
 40
0.0604661905791304
 50
191.8704555120064015
 51
209.7820918584529011
  0
ARC
  5
208F2
  8
0
 10
4740.8200372871833679
 20
494.1886122293561812
 30
0.0
 40
0.0686855786879802
 50
209.7820918584529011
 51
228.4172682775902956
  0
ARC
  5
208F3
  8
0
 10
4740.8372700429808901
 20
494.2080337359549276
 30
0.0
 40
0.0946502237071087
 50
228.4172682775902956
 51
247.9270536071456092
  0
ARC
  5
208F4
  8
0
 10
4740.9399407500441157
 20
494.6741485969753853
 30
0.0
 40
0.5754291331464034
 50
267.0434467662951761
 51
270.0022041514773719
  0
ARC
  5
208F5
  8
0
 10
4740.9356524314407579
 20
494.5911179800256718
 30
0.0
 40
0.4922878496136198
 50
260.2180053350925846
 51
267.0434467662951761
  0
ARC
  5
208F6
  8
0
 10
4740.8936963431797267
 20
494.3477622076135845
 30
0.0
 40
0.2453418123737024
 50
247.9778487625891046
 51
260.2180053350925846
  0
ARC
  5
208F7
  8
0
 10
4740.9404060367205602
 20
493.5377477416878946
 30
0.0
 40
0.6951305512621567
 50
90.0365264216978574
 51
96.4648921991574042
  0
ARC
  5
208F8
  8
0
 10
4740.9098865941223266
 20
493.8091241972308012
 30
0.0
 40
0.4220435142233942
 50
96.4961293705032546
 51
105.0081661308258987
  0
ARC
  5
208F9
  8
0
 10
4740.8396037065876953
 20
494.0712740461642056
 30
0.0
 40
0.1506356521854169
 50
105.0081661308258987
 51
116.368677745883403
  0
ARC
  5
208FA
  8
0
 10
4740.8002771898636638
 20
494.1506056650133019
 30
0.0
 40
0.0620914221827052
 50
116.368677745883403
 51
132.0002908839294093
  0
ARC
  5
208FB
  8
0
 10
4740.7726591434638976
 20
494.181278299821372
 30
0.0
 40
0.0208171322063528
 50
132.0002908839294093
 51
154.7400169113529103
  0
ARC
  5
208FC
  8
0
 10
4740.7673507951540159
 20
494.1837830101608802
 30
0.0
 40
0.0149475380412612
 50
154.7400169113500112
 51
168.4047482715843103
  0
ARC
  5
208FD
  8
0
 10
4740.766820003101202
 20
494.1841115424145983
 30
0.0
 40
0.014363155868765
 50
169.2629913256338057
 51
179.3209069461765068
  0
LINE
  5
20923
  8
0
 10
4741.1274679171729076
 20
494.1842817764371034
 30
0.0
 11
4741.1274679171729076
 21
496.3565056849325856
 31
0.0
  0
ARC
  5
20924
  8
0
 10
4741.0661325113132989
 20
494.1845231864550101
 30
0.0
 40
0.0613358809420889
 50
348.3064078697714194
 51
359.7744907114338844
  0
ARC
  5
20925
  8
0
 10
4741.0670222635126265
 20
494.1845296369962739
 30
0.0
 40
0.0604661905791304
 50
330.2179081415471273
 51
348.1295444879935985
  0
ARC
  5
20926
  8
0
 10
4741.0598884860773978
 20
494.1886122293561812
 30
0.0
 40
0.0686855786879802
 50
311.5827317224097897
 51
330.2179081415471273
  0
ARC
  5
20927
  8
0
 10
4741.0426557302789661
 20
494.2080337359549276
 30
0.0
 40
0.0946502237071087
 50
292.0729463928544192
 51
311.5827317224097897
  0
ARC
  5
20928
  8
0
 10
4740.9399850232157405
 20
494.6741485969753853
 30
0.0
 40
0.5754291331464034
 50
269.9977958485225145
 51
272.9565532337048239
  0
ARC
  5
20929
  8
0
 10
4740.9442733418190983
 20
494.5911179800256718
 30
0.0
 40
0.4922878496136198
 50
272.9565532337048239
 51
279.7819946649074154
  0
ARC
  5
2092A
  8
0
 10
4740.9862294300801295
 20
494.3477622076135845
 30
0.0
 40
0.2453418123737024
 50
279.7819946649074154
 51
292.0221512374109238
  0
ARC
  5
2092B
  8
0
 10
4740.939519736539296
 20
493.5377477416878946
 30
0.0
 40
0.6951305512621185
 50
83.5351078008426242
 51
89.9634735783021569
  0
ARC
  5
2092C
  8
0
 10
4740.9700391791384391
 20
493.8091241972308012
 30
0.0
 40
0.4220435142233942
 50
74.9918338691740729
 51
83.5038706294967312
  0
ARC
  5
2092D
  8
0
 10
4741.0403220666721609
 20
494.0712740461642056
 30
0.0
 40
0.1506356521854169
 50
63.6313222541165615
 51
74.9918338691740729
  0
ARC
  5
2092E
  8
0
 10
4741.0796485833961924
 20
494.1506056650133019
 30
0.0
 40
0.0620914221827052
 50
47.9997091160705907
 51
63.6313222541165615
  0
ARC
  5
2092F
  8
0
 10
4741.1072666297959586
 20
494.181278299821372
 30
0.0
 40
0.0208171322063528
 50
25.25998308864704
 51
47.9997091160705907
  0
ARC
  5
20930
  8
0
 10
4741.1125749781067498
 20
494.1837830101608802
 30
0.0
 40
0.0149475380412612
 50
11.59525172841564
 51
25.2599830886499888
  0
ARC
  5
20931
  8
0
 10
4741.1131057701586542
 20
494.1841115424145983
 30
0.0
 40
0.014363155868765
 50
0.6790930538234764
 51
10.7370086743661393
  0
ENDSEC
  0
EOF
