  0
SECTION
  2
HEADER
  9
$ACADVER
  1
AC1009
  9
$INSBASE
 10
5617.0939969785868016
 20
421.8822671510798159
 30
0.0
  9
$EXTMIN
 10
5615.9829969785869253
 20
415.925725268412009
 30
0.0
  9
$EXTMAX
 10
5620.0494231458687864
 20
422.9932671510799764
 30
0.0
  9
$LIMMIN
 10
0.0
 20
0.0
  9
$LIMMAX
 10
11.6929133858000007
 20
8.2677165353999982
  9
$ORTHOMODE
 70
     0
  9
$REGENMODE
 70
     1
  9
$FILLMODE
 70
     1
  9
$QTEXTMODE
 70
     0
  9
$MIRRTEXT
 70
     0
  9
$DRAGMODE
 70
     2
  9
$LTSCALE
 40
0.6431102362
  9
$OSMODE
 70
  3839
  9
$ATTMODE
 70
     1
  9
$TEXTSIZE
 40
0.2
  9
$TRACEWID
 40
0.05
  9
$TEXTSTYLE
  7
STANDARD
  9
$CLAYER
  8
0
  9
$CELTYPE
  6
BYLAYER
  9
$CECOLOR
 62
   256
  9
$DIMSCALE
 40
1.0
  9
$DIMASZ
 40
0.1875
  9
$DIMEXO
 40
0.0625
  9
$DIMDLI
 40
0.4443307087
  9
$DIMRND
 40
0.0
  9
$DIMDLE
 40
0.0
  9
$DIMEXE
 40
0.125
  9
$DIMTP
 40
0.01
  9
$DIMTM
 40
0.01
  9
$DIMTXT
 40
2.0
  9
$DIMCEN
 40
0.1052362205
  9
$DIMTSZ
 40
0.0
  9
$DIMTOL
 70
     1
  9
$DIMLIM
 70
     0
  9
$DIMTIH
 70
     1
  9
$DIMTOH
 70
     1
  9
$DIMSE1
 70
     0
  9
$DIMSE2
 70
     0
  9
$DIMTAD
 70
     0
  9
$DIMZIN
 70
     0
  9
$DIMBLK
  1

  9
$DIMASO
 70
     1
  9
$DIMSHO
 70
     1
  9
$DIMPOST
  1
\X
  9
$DIMAPOST
  1

  9
$DIMALT
 70
     1
  9
$DIMALTD
 70
     2
  9
$DIMALTF
 40
25.3999999999999986
  9
$DIMLFAC
 40
1.0
  9
$DIMTOFL
 70
     0
  9
$DIMTVP
 40
0.0
  9
$DIMTIX
 70
     0
  9
$DIMSOXD
 70
     0
  9
$DIMSAH
 70
     0
  9
$DIMBLK1
  1

  9
$DIMBLK2
  1

  9
$DIMSTYLE
  2
STANDARD
  9
$DIMCLRD
 70
     0
  9
$DIMCLRE
 70
     0
  9
$DIMCLRT
 70
     0
  9
$DIMTFAC
 40
1.0
  9
$DIMGAP
 40
0.09
  9
$LUNITS
 70
     2
  9
$LUPREC
 70
     4
  9
$SKETCHINC
 40
0.1
  9
$FILLETRAD
 40
0.0
  9
$AUNITS
 70
     0
  9
$AUPREC
 70
     0
  9
$MENU
  1
.
  9
$ELEVATION
 40
0.0
  9
$PELEVATION
 40
0.0
  9
$THICKNESS
 40
0.0
  9
$LIMCHECK
 70
     0
  9
$BLIPMODE
 70
     0
  9
$CHAMFERA
 40
0.0
  9
$CHAMFERB
 40
0.0
  9
$SKPOLY
 70
     0
  9
$TDCREATE
 40
2458060.468368056230247
  9
$TDUPDATE
 40
2460440.5120833339169621
  9
$TDINDWG
 40
0.6458751157
  9
$TDUSRTIMER
 40
0.6458751157
  9
$USRTIMER
 70
     1
  9
$ANGBASE
 50
0.0
  9
$ANGDIR
 70
     0
  9
$PDMODE
 70
     0
  9
$PDSIZE
 40
0.3125
  9
$PLINEWID
 40
0.0
  9
$COORDS
 70
     1
  9
$SPLFRAME
 70
     0
  9
$SPLINETYPE
 70
     6
  9
$SPLINESEGS
 70
     8
  9
$ATTDIA
 70
     1
  9
$ATTREQ
 70
     1
  9
$HANDLING
 70
     1
  9
$HANDSEED
  5
2CA9E
  9
$SURFTAB1
 70
     6
  9
$SURFTAB2
 70
     6
  9
$SURFTYPE
 70
     6
  9
$SURFU
 70
     6
  9
$SURFV
 70
     6
  9
$UCSNAME
  2

  9
$UCSORG
 10
0.0
 20
0.0
 30
0.0
  9
$UCSXDIR
 10
1.0
 20
0.0
 30
0.0
  9
$UCSYDIR
 10
0.0
 20
1.0
 30
0.0
  9
$PUCSNAME
  2

  9
$PUCSORG
 10
0.0
 20
0.0
 30
0.0
  9
$PUCSXDIR
 10
1.0
 20
0.0
 30
0.0
  9
$PUCSYDIR
 10
0.0
 20
1.0
 30
0.0
  9
$USERI1
 70
     0
  9
$USERI2
 70
     0
  9
$USERI3
 70
     0
  9
$USERI4
 70
     0
  9
$USERI5
 70
     0
  9
$USERR1
 40
0.0
  9
$USERR2
 40
0.0
  9
$USERR3
 40
0.0
  9
$USERR4
 40
0.0
  9
$USERR5
 40
0.0
  9
$WORLDVIEW
 70
     1
  9
$SHADEDGE
 70
     3
  9
$SHADEDIF
 70
    70
  9
$TILEMODE
 70
     1
  9
$MAXACTVP
 70
    64
  9
$PLIMCHECK
 70
     0
  9
$PEXTMIN
 10
1.0000000000000000E+20
 20
1.0000000000000000E+20
 30
1.0000000000000000E+20
  9
$PEXTMAX
 10
-1.0000000000000000E+20
 20
-1.0000000000000000E+20
 30
-1.0000000000000000E+20
  9
$PLIMMIN
 10
0.0
 20
0.0
  9
$PLIMMAX
 10
12.0
 20
9.0
  9
$UNITMODE
 70
     0
  9
$VISRETAIN
 70
     1
  9
$PLINEGEN
 70
     0
  9
$PSLTSCALE
 70
     1
  0
ENDSEC
  0
SECTION
  2
TABLES
  0
TABLE
  2
VPORT
 70
     1
  0
VPORT
  2
*ACTIVE
 70
     0
 10
0.0
 20
0.0
 11
1.0
 21
1.0
 12
1706.6508536169149011
 22
286.8798911072070155
 13
0.0
 23
0.0
 14
1.0
 24
1.0
 15
0.0
 25
0.0
 16
0.0
 26
0.0
 36
60.4960186965801583
 17
3911.3653564453120453
 27
132.5796051025390057
 37
0.0
 40
7.114606534494782
 41
2.1211111111111101
 42
50.0
 43
0.0
 44
0.0
 50
0.0
 51
0.0
 71
     0
 72
   100
 73
     1
 74
     1
 75
     0
 76
     0
 77
     0
 78
     1
  0
ENDTAB
  0
TABLE
  2
LTYPE
 70
     2
  0
LTYPE
  2
CONTINUOUS
 70
     0
  3
Solid line
 72
    65
 73
     0
 40
0.0
  0
LTYPE
  2
PHANTOM2
 70
     0
  3
___ _ _ ___ _ _ ___ _ _ ___ _ _
 72
    65
 73
     6
 40
1.25
 49
0.625
 49
-0.125
 49
0.125
 49
-0.125
 49
0.125
 49
-0.125
  0
ENDTAB
  0
TABLE
  2
LAYER
 70
     2
  0
LAYER
  2
0
 70
     0
 62
   255
  6
CONTINUOUS
  0
LAYER
  2
DEFPOINTS
 70
     0
 62
     7
  6
CONTINUOUS
  0
ENDTAB
  0
TABLE
  2
STYLE
 70
     1
  0
STYLE
  2
STANDARD
 70
     0
 40
0.0
 41
0.8
 50
0.0
 71
     0
 42
0.2
  3
txt
  4

  0
ENDTAB
  0
TABLE
  2
VIEW
 70
     0
  0
ENDTAB
  0
TABLE
  2
UCS
 70
     0
  0
ENDTAB
  0
TABLE
  2
APPID
 70
    11
  0
APPID
  2
ACAD
 70
     0
  0
APPID
  2
ACAD_MLEADERVER
 70
     0
  0
APPID
  2
ACAD_EXEMPT_FROM_CAD_STANDARDS
 70
     0
  0
APPID
  2
ACAD_NAV_VCDISPLAY
 70
     0
  0
APPID
  2
ACAECLAYERSTANDARD
 70
     0
  0
APPID
  2
ACCMTRANSPARENCY
 70
     0
  0
APPID
  2
ACAD_DSTYLE_DIMJAG
 70
     0
  0
APPID
  2
ACAD_DSTYLE_DIMTALN
 70
     0
  0
APPID
  2
ACDBATTR
 70
     0
  0
APPID
  2
ACADANNOTATIVE
 70
     0
  0
APPID
  2
DCO15
 70
     0
  0
ENDTAB
  0
TABLE
  2
DIMSTYLE
 70
     1
  0
DIMSTYLE
  2
STANDARD
 70
     0
  3

  4

  5

  6

  7

 40
1.0
 41
0.1875
 42
0.0625
 43
0.38
 44
0.125
 45
0.0
 46
0.0
 47
0.01
 48
0.01
140
0.15625
141
0.09
142
0.0
143
25.3999999999999986
144
1.0
145
0.0
146
1.0
147
0.09
 71
     1
 72
     0
 73
     1
 74
     1
 75
     0
 76
     0
 77
     0
 78
     4
170
     0
171
     2
172
     0
173
     0
174
     0
175
     0
176
     0
177
     0
178
     0
  0
ENDTAB
  0
ENDSEC
  0
SECTION
  2
BLOCKS
  0
BLOCK
  8
0
  2
$MODEL_SPACE
 70
     0
 10
0.0
 20
0.0
 30
0.0
  3
$MODEL_SPACE
  1

  0
ENDBLK
  5
21
  8
0
  0
BLOCK
 67
     1
  8
0
  2
$PAPER_SPACE
 70
     0
 10
0.0
 20
0.0
 30
0.0
  3
$PAPER_SPACE
  1

  0
ENDBLK
  5
1D
 67
     1
  8
0
  0
BLOCK
  8
0
  2
_FILLED
 70
     0
 10
0.0
 20
0.0
 30
0.0
  3
_FILLED
  1

  0
SOLID
  5
2A961
  8
0
  6
BYBLOCK
 62
     0
 10
0.0
 20
0.0
 30
0.0
 11
-1.0
 21
0.1666666667
 31
0.0
 12
-1.0
 22
-0.1666666667
 32
0.0
 13
-1.0
 23
-0.1666666667
 33
0.0
  0
ENDBLK
  5
2A962
  8
0
  6
BYBLOCK
 62
     0
  0
ENDSEC
  0
SECTION
  2
ENTITIES
  0
LINE
  5
2C6A1
  8
0
 10
5616.6877469785868016
 20
421.8822671510799864
 30
0.0
 11
5616.6877469785868016
 21
416.3178009354442111
 31
0.0
  0
LINE
  5
2C6A2
  8
0
 10
5617.5002469785858921
 20
421.8822671510799864
 30
0.0
 11
5617.5002469785858921
 21
416.3178009355971199
 31
0.0
  0
ARC
  5
2C6A3
  8
0
 10
5617.0939969785868016
 20
421.8822671510799864
 30
0.0
 40
1.1109999999999991
 50
291.4483022817788083
 51
320.1101190908889862
  0
ARC
  5
2C6A4
  8
0
 10
5617.0939969785868016
 20
421.8822671510799864
 30
0.0
 40
1.1109999999999991
 50
39.8899417955013931
 51
248.5516977182211917
  0
ARC
  5
2C6A5
  8
0
 10
5617.0939969785868016
 20
421.8822671510799864
 30
0.0
 40
0.7999999999999999
 50
300.5182310075463761
 51
239.4817689924535955
  0
ARC
  5
2C6A6
  8
0
 10
5617.0939969785868016
 20
421.8822671510799864
 30
0.0
 40
0.4062500000000004
 50
0.0
 51
180.0
  0
ARC
  5
2C6A7
  8
0
 10
5617.0939969785868016
 20
421.8822671510799864
 30
0.0
 40
0.9500000000000001
 50
295.3173478284609814
 51
311.4096221092859764
  0
ARC
  5
2C6A8
  8
0
 10
5617.0939969785868016
 20
421.8822671510799864
 30
0.0
 40
0.9500000000000001
 50
48.5905070467076712
 51
244.6826521715389902
  0
ARC
  5
2C6A9
  8
0
 10
5617.0939969785868016
 20
421.8822671510799864
 30
0.0
 40
1.0169999999999999
 50
293.5443744200139236
 51
315.5256433985103968
  0
ARC
  5
2C6AA
  8
0
 10
5617.0939969785868016
 20
421.8822671510799864
 30
0.0
 40
1.0169999999999999
 50
44.4744509255085632
 51
246.4556255799861049
  0
ARC
  5
2C6AB
  8
0
 10
5617.0939969785868016
 20
421.8822671510799864
 30
0.0
 40
0.6225000000000005
 50
310.7387083661095062
 51
229.2612916338904938
  0
ARC
  5
2C6AC
  8
0
 10
5617.0939969785868016
 20
421.8822671510799864
 30
0.0
 40
0.6875
 50
306.2215466198304057
 51
233.7784533801695943
  0
LINE
  5
2C6AD
  8
0
 10
5617.4745626593239649
 20
422.5947689046964229
 30
0.0
 11
5618.3439969785868016
 21
422.5947689046964229
 31
0.0
  0
ARC
  5
2C6AE
  8
0
 10
5618.3439969785868016
 20
422.5847689045427273
 30
0.0
 40
0.0100000001537311
 50
359.9899533992779084
 51
90.0
  0
LINE
  5
2C6AF
  8
0
 10
5618.3539969785870198
 20
422.5847671510800865
 30
0.0
 11
5618.3539969785870198
 21
421.1797671510800001
 31
0.0
  0
ARC
  5
2C6B0
  8
0
 10
5618.3439969785868016
 20
421.1797671510800001
 30
0.0
 40
0.0100000000000007
 50
270.0
 51
359.9999999999805027
  0
LINE
  5
2C6B1
  8
0
 10
5618.3439969785868016
 20
421.1697671510800092
 30
0.0
 11
5617.5002469785858921
 21
421.1697671510800092
 31
0.0
  0
ARC
  5
2C6B2
  8
0
 10
5617.4772954147647397
 20
422.6791042745691129
 30
0.0
 40
0.0843796335845916
 50
247.5300725960586874
 51
268.1440694761553232
  0
ARC
  5
2C6B3
  8
0
 10
5618.4132523430471338
 20
422.5844611262464809
 30
0.0
 40
0.0102558387653849
 50
91.4141305538431936
 51
179.3181571749377952
  0
LINE
  5
2C6B4
  8
0
 10
5618.4129992419866539
 20
422.5947138414301207
 30
0.0
 11
5619.1559972304858093
 21
422.5947138414301207
 31
0.0
  0
ARC
  5
2C6B5
  8
0
 10
5619.1561990729824174
 20
422.5849166228496188
 30
0.0
 40
0.009799297541482
 50
359.1260155495110098
 51
91.1802418421825536
  0
LINE
  5
2C6B6
  8
0
 10
5619.165997230486937
 20
422.5847671510800865
 30
0.0
 11
5619.165997230486937
 21
421.1797671510800001
 31
0.0
  0
ARC
  5
2C6B7
  8
0
 10
5619.1559972304858093
 20
421.1797671510800001
 30
0.0
 40
0.0100000000000069
 50
270.0000000000521254
 51
359.9999999999805027
  0
LINE
  5
2C6B8
  8
0
 10
5619.1559972304858093
 20
421.1697671510800092
 30
0.0
 11
5618.4146195416351475
 21
421.1697671510796113
 31
0.0
  0
ARC
  5
2C6B9
  8
0
 10
5618.4135924514966973
 20
421.1803188856848124
 30
0.0
 40
0.0106016044695031
 50
181.9883904080386969
 51
275.5595714372250882
  0
LINE
  5
2C6BA
  8
0
 10
5618.4029972304870171
 20
421.1799511567314767
 30
0.0
 11
5618.4029972304870171
 21
422.5845831719727812
 31
0.0
  0
ARC
  5
2C6BB
  8
0
 10
5618.2570599706868961
 20
421.8822671510791906
 30
0.0
 40
0.6617170096008782
 50
77.259053781651005
 51
81.5762463389937551
  0
ARC
  5
2C6BC
  8
0
 10
5618.2570599706859866
 20
421.8822671510857845
 30
0.0
 40
0.6617170096058118
 50
278.4237536610061738
 51
282.740946218348995
  0
ARC
  5
2C6BD
  8
0
 10
5619.1859972304882831
 20
422.489767151080116
 30
0.0
 40
0.0199999999999987
 50
180.0
 51
270.0
  0
LINE
  5
2C6BE
  8
0
 10
5619.1859972304882831
 20
422.4697671510800774
 30
0.0
 11
5619.2259972304873372
 21
422.4697671510800774
 31
0.0
  0
ARC
  5
2C6BF
  8
0
 10
5619.2259972304873372
 20
422.4597671510800865
 30
0.0
 40
0.009999999999998
 50
359.9999999999575948
 51
90.0
  0
LINE
  5
2C6C0
  8
0
 10
5619.235997230486646
 20
422.4597671510800865
 30
0.0
 11
5619.235997230486646
 21
421.3047671510800001
 31
0.0
  0
ARC
  5
2C6C1
  8
0
 10
5619.2259972304864277
 20
421.3047671510800001
 30
0.0
 40
0.0100000000000087
 50
270.0000000047419917
 51
359.9999999999575948
  0
LINE
  5
2C6C2
  8
0
 10
5619.2259972304873372
 20
421.2947671510800092
 30
0.0
 11
5619.1859972304882831
 21
421.2947671510767123
 31
0.0
  0
ARC
  5
2C6C3
  8
0
 10
5619.1859972304882831
 20
421.2747567043264212
 30
0.0
 40
0.0200104467502946
 50
90.0000000047420343
 51
178.148521359164107
  0
ARC
  5
2C6C4
  8
0
 10
5619.2559972304879921
 20
421.3647671510781834
 30
0.0
 40
0.0200000000019074
 50
90.0000000032308236
 51
179.9999999944926117
  0
LINE
  5
2C6C5
  8
0
 10
5619.2559972304870826
 20
421.3847671510800978
 30
0.0
 11
5619.2959972304870462
 21
421.3847671510823716
 31
0.0
  0
ARC
  5
2C6C6
  8
0
 10
5619.2959972304861367
 20
421.3947671510828741
 30
0.0
 40
0.0100000000005665
 50
270.0000000032308094
 51
359.9999999838165081
  0
LINE
  5
2C6C7
  8
0
 10
5619.3059972304872645
 20
421.3947671510799751
 30
0.0
 11
5619.3059972307628414
 21
422.3697671509801239
 31
0.0
  0
ARC
  5
2C6C8
  8
0
 10
5619.2959972306653071
 20
422.3697671509829092
 30
0.0
 40
0.0100000000971754
 50
359.9999999838165081
 51
90.000001021047396
  0
LINE
  5
2C6C9
  8
0
 10
5619.2959972304870462
 20
422.3797671510799887
 30
0.0
 11
5619.2559972304870826
 21
422.3797671503672859
 31
0.0
  0
ARC
  5
2C6CA
  8
0
 10
5619.2559972301296511
 20
422.3997762835525123
 30
0.0
 40
0.0200091331852619
 50
181.7312493541166987
 51
270.0000010210474102
  0
LINE
  5
2C6CB
  8
0
 10
5619.3059972304872645
 20
422.1322671510799864
 30
0.0
 11
5619.5496207308869998
 21
422.1322671510799864
 31
0.0
  0
LINE
  5
2C6CC
  8
0
 10
5619.3059972304872645
 20
421.6322671510799864
 30
0.0
 11
5619.5496207308860903
 21
421.6322671510799864
 31
0.0
  0
ARC
  5
2C728
  8
0
 10
5617.0940000008267816
 20
416.3322283524037175
 30
0.0
 40
0.4065030839915484
 50
182.0097942885795987
 51
357.9660579040420885
  0
CIRCLE
  5
2C729
  8
0
 10
5619.7369972304868497
 20
421.8822671510798159
 30
0.0
 40
0.3124259153821085
  0
CIRCLE
  5
2C72A
  8
0
 10
5619.736997230525958
 20
421.8822671510798159
 30
0.0
 40
0.2920000000210691
  0
ARC
  5
2C736
  8
0
 10
5617.546957066617324
 20
416.4743342324309765
 30
0.0
 40
0.8702789900500922
 50
189.147913260308087
 51
195.9481766934914049
  0
ARC
  5
2C737
  8
0
 10
5617.0934077164083646
 20
416.3691019510309843
 30
0.0
 40
0.4059492568699912
 50
199.2581754843693034
 51
231.2696197806614009
  0
ARC
  5
2C738
  8
0
 10
5617.0939703464728154
 20
416.3698159328591828
 30
0.0
 40
0.4068582463815642
 50
231.2707182521156142
 51
270.0037430440842172
  0
ARC
  5
2C739
  8
0
 10
5617.0940067398996689
 20
416.3699134882421049
 30
0.0
 40
0.4069558010146219
 50
269.9986182738667253
 51
296.8183149456414753
  0
ARC
  5
2C73A
  8
0
 10
5617.0942157202771341
 20
416.3694875855355804
 30
0.0
 40
0.4064814235614987
 50
296.8191111583541897
 51
315.3495684701272239
  0
ARC
  5
2C73B
  8
0
 10
5617.09458876235567
 20
416.3691177654657736
 30
0.0
 40
0.4059561365748453
 50
315.3496992387530895
 51
333.5523340596857906
  0
ARC
  5
2C73C
  8
0
 10
5617.0949414162505491
 20
416.3689342302649266
 30
0.0
 40
0.4055586480141162
 50
333.5533599552753117
 51
349.3604432717669965
  0
ARC
  5
2C73D
  8
0
 10
5616.4866017795638982
 20
416.4653634082549161
 30
0.0
 40
1.021394214993611
 50
350.344764039866277
 51
352.9378137648513984
  0
ATTDEF
  5
2C744
  8
DEFPOINTS
 10
5617.0815333173441104
 20
421.880063444631503
 30
0.0
 40
0.001
  1
P80270-00
  3

  2
MODELNUMBER
 70
     0
1001
ACDBATTR
1070
     0
1070
     1
  0
ATTDEF
  5
2C745
  8
DEFPOINTS
 10
5617.0814075076859808
 20
421.8783966042524867
 30
0.0
 40
0.001
  1
VIR STIL
  3

  2
TRADENAME
 70
     0
1001
ACDBATTR
1070
     0
1070
     1
  0
ATTDEF
  5
2C746
  8
DEFPOINTS
 10
5617.0815333173441104
 20
421.8767301112982864
 30
0.0
 40
0.001
  1
ENTERTAINMENT FAUCET
  3

  2
PRODUCT
 70
     0
1001
ACDBATTR
1070
     0
1070
     1
  0
ENDSEC
  0
EOF
