  0
SECTION
  2
HEADER
  9
$ACADVER
  1
AC1009
  9
$INSBASE
 10
328.7795672157673152
 20
17.9508193442730892
 30
0.0
  9
$EXTMIN
 10
327.1726561300586127
 20
14.6613251822398993
 30
-0.0015258207003583
  9
$EXTMAX
 10
330.4049227729112772
 20
17.9572015900479016
 30
0.0000000349246037
  9
$LIMMIN
 10
0.0
 20
0.0
  9
$LIMMAX
 10
11.6929133858000007
 20
8.2677165353999982
  9
$ORTHOMODE
 70
     0
  9
$REGENMODE
 70
     1
  9
$FILLMODE
 70
     1
  9
$QTEXTMODE
 70
     0
  9
$MIRRTEXT
 70
     0
  9
$DRAGMODE
 70
     2
  9
$LTSCALE
 40
0.6431102362
  9
$OSMODE
 70
  4095
  9
$ATTMODE
 70
     1
  9
$TEXTSIZE
 40
0.2
  9
$TRACEWID
 40
0.05
  9
$TEXTSTYLE
  7
STANDARD
  9
$CLAYER
  8
0
  9
$CELTYPE
  6
BYLAYER
  9
$CECOLOR
 62
   256
  9
$DIMSCALE
 40
1.0
  9
$DIMASZ
 40
0.1875
  9
$DIMEXO
 40
0.0625
  9
$DIMDLI
 40
0.4443307087
  9
$DIMRND
 40
0.0
  9
$DIMDLE
 40
0.0
  9
$DIMEXE
 40
0.125
  9
$DIMTP
 40
0.01
  9
$DIMTM
 40
0.01
  9
$DIMTXT
 40
0.15625
  9
$DIMCEN
 40
0.1052362205
  9
$DIMTSZ
 40
0.0
  9
$DIMTOL
 70
     1
  9
$DIMLIM
 70
     0
  9
$DIMTIH
 70
     1
  9
$DIMTOH
 70
     1
  9
$DIMSE1
 70
     0
  9
$DIMSE2
 70
     0
  9
$DIMTAD
 70
     0
  9
$DIMZIN
 70
     0
  9
$DIMBLK
  1

  9
$DIMASO
 70
     1
  9
$DIMSHO
 70
     1
  9
$DIMPOST
  1
\X
  9
$DIMAPOST
  1

  9
$DIMALT
 70
     1
  9
$DIMALTD
 70
     2
  9
$DIMALTF
 40
25.3999999999999986
  9
$DIMLFAC
 40
1.0
  9
$DIMTOFL
 70
     0
  9
$DIMTVP
 40
0.0
  9
$DIMTIX
 70
     0
  9
$DIMSOXD
 70
     0
  9
$DIMSAH
 70
     0
  9
$DIMBLK1
  1

  9
$DIMBLK2
  1

  9
$DIMSTYLE
  2
STANDARD
  9
$DIMCLRD
 70
     0
  9
$DIMCLRE
 70
     0
  9
$DIMCLRT
 70
     0
  9
$DIMTFAC
 40
1.0
  9
$DIMGAP
 40
0.09
  9
$LUNITS
 70
     2
  9
$LUPREC
 70
     4
  9
$SKETCHINC
 40
0.1
  9
$FILLETRAD
 40
0.0
  9
$AUNITS
 70
     0
  9
$AUPREC
 70
     0
  9
$MENU
  1
.
  9
$ELEVATION
 40
0.0
  9
$PELEVATION
 40
0.0
  9
$THICKNESS
 40
0.0
  9
$LIMCHECK
 70
     0
  9
$BLIPMODE
 70
     0
  9
$CHAMFERA
 40
0.0
  9
$CHAMFERB
 40
0.0
  9
$SKPOLY
 70
     0
  9
$TDCREATE
 40
2458018.639108797069639
  9
$TDUPDATE
 40
2460201.7422685190103948
  9
$TDINDWG
 40
0.4603351852
  9
$TDUSRTIMER
 40
0.4603351852
  9
$USRTIMER
 70
     1
  9
$ANGBASE
 50
0.0
  9
$ANGDIR
 70
     0
  9
$PDMODE
 70
     0
  9
$PDSIZE
 40
0.3125
  9
$PLINEWID
 40
0.0
  9
$COORDS
 70
     1
  9
$SPLFRAME
 70
     0
  9
$SPLINETYPE
 70
     6
  9
$SPLINESEGS
 70
     8
  9
$ATTDIA
 70
     1
  9
$ATTREQ
 70
     1
  9
$HANDLING
 70
     1
  9
$HANDSEED
  5
CA52
  9
$SURFTAB1
 70
     6
  9
$SURFTAB2
 70
     6
  9
$SURFTYPE
 70
     6
  9
$SURFU
 70
     6
  9
$SURFV
 70
     6
  9
$UCSNAME
  2

  9
$UCSORG
 10
0.0
 20
0.0
 30
0.0
  9
$UCSXDIR
 10
1.0
 20
0.0
 30
0.0
  9
$UCSYDIR
 10
0.0
 20
1.0
 30
0.0
  9
$PUCSNAME
  2

  9
$PUCSORG
 10
0.0
 20
0.0
 30
0.0
  9
$PUCSXDIR
 10
1.0
 20
0.0
 30
0.0
  9
$PUCSYDIR
 10
0.0
 20
1.0
 30
0.0
  9
$USERI1
 70
     0
  9
$USERI2
 70
     0
  9
$USERI3
 70
     0
  9
$USERI4
 70
     0
  9
$USERI5
 70
     0
  9
$USERR1
 40
0.0
  9
$USERR2
 40
0.0
  9
$USERR3
 40
0.0
  9
$USERR4
 40
0.0
  9
$USERR5
 40
0.0
  9
$WORLDVIEW
 70
     1
  9
$SHADEDGE
 70
     3
  9
$SHADEDIF
 70
    70
  9
$TILEMODE
 70
     1
  9
$MAXACTVP
 70
    64
  9
$PLIMCHECK
 70
     0
  9
$PEXTMIN
 10
1.0000000000000000E+20
 20
1.0000000000000000E+20
 30
1.0000000000000000E+20
  9
$PEXTMAX
 10
-1.0000000000000000E+20
 20
-1.0000000000000000E+20
 30
-1.0000000000000000E+20
  9
$PLIMMIN
 10
0.0
 20
0.0
  9
$PLIMMAX
 10
12.0
 20
9.0
  9
$UNITMODE
 70
     0
  9
$VISRETAIN
 70
     1
  9
$PLINEGEN
 70
     0
  9
$PSLTSCALE
 70
     1
  0
ENDSEC
  0
SECTION
  2
TABLES
  0
TABLE
  2
VPORT
 70
     1
  0
VPORT
  2
*ACTIVE
 70
     0
 10
0.0
 20
0.0
 11
1.0
 21
1.0
 12
233.4645284537471923
 22
9.2729313749210611
 13
0.0
 23
0.0
 14
1.0
 24
1.0
 15
0.0
 25
0.0
 16
-0.0000000000000142
 26
0.0
 36
39.3282560748450578
 17
95.3242609977377526
 27
7.0363320112228394
 37
0.0
 40
3.3238495360990949
 41
2.525132275132274
 42
50.0
 43
0.0
 44
0.0
 50
0.0
 51
0.0
 71
     0
 72
   100
 73
     1
 74
     1
 75
     0
 76
     0
 77
     0
 78
     0
  0
ENDTAB
  0
TABLE
  2
LTYPE
 70
     2
  0
LTYPE
  2
CONTINUOUS
 70
     0
  3
Solid line
 72
    65
 73
     0
 40
0.0
  0
LTYPE
  2
PHANTOM2
 70
     0
  3
___ _ _ ___ _ _ ___ _ _ ___ _ _
 72
    65
 73
     6
 40
1.25
 49
0.625
 49
-0.125
 49
0.125
 49
-0.125
 49
0.125
 49
-0.125
  0
ENDTAB
  0
TABLE
  2
LAYER
 70
     2
  0
LAYER
  2
0
 70
     0
 62
   255
  6
CONTINUOUS
  0
LAYER
  2
DEFPOINTS
 70
     0
 62
     7
  6
CONTINUOUS
  0
ENDTAB
  0
TABLE
  2
STYLE
 70
     1
  0
STYLE
  2
STANDARD
 70
     0
 40
0.0
 41
0.8
 50
0.0
 71
     0
 42
0.2
  3
txt
  4

  0
ENDTAB
  0
TABLE
  2
VIEW
 70
     0
  0
ENDTAB
  0
TABLE
  2
UCS
 70
     0
  0
ENDTAB
  0
TABLE
  2
APPID
 70
    10
  0
APPID
  2
ACAD
 70
     0
  0
APPID
  2
ACAD_MLEADERVER
 70
     0
  0
APPID
  2
ACAD_DSTYLE_DIMJAG
 70
     0
  0
APPID
  2
ACAD_DSTYLE_DIMTALN
 70
     0
  0
APPID
  2
ACAD_NAV_VCDISPLAY
 70
     0
  0
APPID
  2
ACAD_EXEMPT_FROM_CAD_STANDARDS
 70
     0
  0
APPID
  2
ACAECLAYERSTANDARD
 70
     0
  0
APPID
  2
ACCMTRANSPARENCY
 70
     0
  0
APPID
  2
DCO15
 70
     0
  0
APPID
  2
ACDBATTR
 70
     0
  0
ENDTAB
  0
TABLE
  2
DIMSTYLE
 70
     1
  0
DIMSTYLE
  2
STANDARD
 70
     0
  3

  4

  5

  6

  7

 40
1.0
 41
0.1875
 42
0.0625
 43
0.38
 44
0.125
 45
0.0
 46
0.0
 47
0.01
 48
0.01
140
0.15625
141
0.09
142
0.0
143
25.3999999999999986
144
1.0
145
0.0
146
1.0
147
0.09
 71
     1
 72
     0
 73
     1
 74
     1
 75
     0
 76
     0
 77
     0
 78
     4
170
     0
171
     2
172
     0
173
     0
174
     0
175
     0
176
     0
177
     0
178
     0
  0
ENDTAB
  0
ENDSEC
  0
SECTION
  2
BLOCKS
  0
BLOCK
  8
0
  2
$MODEL_SPACE
 70
     0
 10
0.0
 20
0.0
 30
0.0
  3
$MODEL_SPACE
  1

  0
ENDBLK
  5
21
  8
0
  0
BLOCK
 67
     1
  8
0
  2
$PAPER_SPACE
 70
     0
 10
0.0
 20
0.0
 30
0.0
  3
$PAPER_SPACE
  1

  0
ENDBLK
  5
1D
 67
     1
  8
0
  0
BLOCK
  8
0
  2
_FILLED
 70
     0
 10
0.0
 20
0.0
 30
0.0
  3
_FILLED
  1

  0
SOLID
  5
A58D
  8
0
  6
BYBLOCK
 62
     0
 10
0.0
 20
0.0
 30
0.0
 11
-1.0
 21
0.1666666667
 31
0.0
 12
-1.0
 22
-0.1666666667
 32
0.0
 13
-1.0
 23
-0.1666666667
 33
0.0
  0
ENDBLK
  5
A58E
  8
0
  6
BYBLOCK
 62
     0
  0
ENDSEC
  0
SECTION
  2
ENTITIES
  0
ATTDEF
  5
7A6E
  8
DEFPOINTS
 10
328.7774204840114862
 20
17.9549027246655406
 30
0.0
 40
0.001
  1
P80261-00
  3

  2
MODELNUMBER
 70
     0
1001
ACDBATTR
1070
     0
1070
     1
  0
ATTDEF
  5
7A6F
  8
DEFPOINTS
 10
328.7774204840114862
 20
17.953236057998879
 30
0.0
 40
0.001
  1

  3

  2
TRADENAME
 70
     0
1001
ACDBATTR
1070
     0
1070
     1
  0
ATTDEF
  5
7A70
  8
DEFPOINTS
 10
328.7774204840114862
 20
17.9515693913322103
 30
0.0
 40
0.001
  1
BODY SPRAY
  3

  2
PRODUCT
 70
     0
1001
ACDBATTR
1070
     0
1070
     1
  0
LINE
  5
C725
  8
0
 10
327.5295672157673152
 20
17.6002193442730892
 30
0.0
 11
327.5295672157673152
 21
17.931119344273089
 31
0.0
  0
LINE
  5
C726
  8
0
 10
328.2874412314673123
 20
16.9634556703159696
 30
0.0
 11
328.2874412314673123
 21
17.4908193442730884
 31
0.0
  0
LINE
  5
C727
  8
0
 10
328.0118506802672869
 20
15.6540783993730894
 30
0.0
 11
328.0118506802672869
 21
16.567419344273091
 31
0.0
  0
LINE
  5
C728
  8
0
 10
327.226567215767318
 20
15.5613311552730895
 30
0.0
 11
327.226567215767318
 21
15.6113311552730902
 31
0.0
  0
LINE
  5
C729
  8
0
 10
327.1795672157672925
 20
14.9218035962730902
 30
0.0
 11
327.1795672157672925
 21
15.5413311552730899
 31
0.0
  0
LINE
  5
C72A
  8
0
 10
328.3675672157672807
 20
14.6726209201730899
 30
0.0
 11
328.3675672157672807
 21
14.73662092017309
 31
0.0
  0
LINE
  5
C72B
  8
0
 10
327.5492672157673155
 20
17.9508193442730892
 30
0.0
 11
330.009867215767315
 21
17.9508193442730892
 31
0.0
  0
LINE
  5
C72C
  8
0
 10
327.5689672157673158
 20
17.5608193442730887
 30
0.0
 11
329.9901672157673147
 21
17.5608193442730887
 31
0.0
  0
LINE
  5
C72D
  8
0
 10
327.7634076429264951
 20
17.4908193442730884
 30
0.0
 11
329.7957267886081922
 21
17.4908193442730884
 31
0.0
  0
LINE
  5
C72E
  8
0
 10
327.7380818111000167
 20
17.5000371932182688
 30
0.0
 11
327.6766298688312986
 21
17.5516014953279083
 31
0.0
  0
ARC
  5
C72F
  8
0
 10
327.7634076429264951
 20
17.5302193442730996
 30
0.0
 40
0.0394
 50
229.9999999908004042
 51
269.9999999999968168
  0
ARC
  5
C730
  8
0
 10
327.6513040370047065
 20
17.5214193442730917
 30
0.0
 40
0.0394
 50
49.9999999907995871
 51
89.9999999999967457
  0
ARC
  5
C731
  8
0
 10
327.5689672157673158
 20
17.6002193442730892
 30
0.0
 40
0.0394
 50
180.0
 51
270.0
  0
ARC
  5
C732
  8
0
 10
327.5492672157673155
 20
17.931119344273089
 30
0.0
 40
0.0197
 50
89.9999999999934914
 51
180.0000000000052012
  0
LINE
  5
C733
  8
0
 10
328.304242319861487
 20
16.9311810797804903
 30
0.0
 11
328.432057465873072
 21
16.8416839509656917
 31
0.0
  0
LINE
  5
C734
  8
0
 10
328.4488585542673036
 20
16.8094093604302088
 30
0.0
 11
328.4488585542673036
 21
16.7521522048932212
 31
0.0
  0
ARC
  5
C735
  8
0
 10
328.3268412314673128
 20
16.9634556703159696
 30
0.0
 40
0.0394
 50
179.9999999999974136
 51
234.9999999759087075
  0
ARC
  5
C736
  8
0
 10
328.409458554267303
 20
16.8094093604302088
 30
0.0
 40
0.0394
 50
0.0000000000026462
 51
54.9999999759091907
  0
ARC
  5
C737
  8
0
 10
328.7795672157673152
 20
16.3651894229730708
 30
0.0
 40
0.4960629921000295
 50
133.7246771860380932
 51
150.8387580510998021
  0
ARC
  5
C738
  8
0
 10
328.409458554267303
 20
16.7521522048932106
 30
0.0
 40
0.0394
 50
313.7246771860250192
 51
0.0000000000038676
  0
LINE
  5
C739
  8
0
 10
328.0512506802672874
 20
16.6068193442730916
 30
0.0
 11
329.5078837512672862
 21
16.6068193442730916
 31
0.0
  0
ARC
  5
C73A
  8
0
 10
328.0512506802672874
 20
16.567419344273091
 30
0.0
 40
0.0394
 50
90.0
 51
179.9999999999974136
  0
LINE
  5
C73B
  8
0
 10
328.0315506802672871
 20
15.6343783993730892
 30
0.0
 11
329.5275837512672865
 21
15.6343783993730892
 31
0.0
  0
LINE
  5
C73C
  8
0
 10
328.0905908377673086
 20
15.6225673757730892
 30
0.0
 11
329.4685435937673219
 21
15.6225673757730892
 31
0.0
  0
LINE
  5
C73D
  8
0
 10
327.2365672157673089
 20
15.62133115527309
 30
0.0
 11
330.3225672157673216
 21
15.62133115527309
 31
0.0
  0
ARC
  5
C73E
  8
0
 10
328.0315506802672871
 20
15.6540783993730894
 30
0.0
 40
0.0197
 50
179.9999999999974136
 51
270.0
  0
LINE
  5
C73F
  8
0
 10
328.0787798141673193
 20
15.6343783993730892
 30
0.0
 11
328.0905908377673086
 21
15.6225673757730892
 31
0.0
  0
ARC
  5
C740
  8
0
 10
328.1378349322673103
 20
15.6331421788731095
 30
0.0
 40
0.0118110236000151
 50
270.0000000000163141
 51
296.2995080282781828
  0
ARC
  5
C741
  8
0
 10
327.2365672157673089
 20
15.6113311552730902
 30
0.0
 40
0.01
 50
89.9999999999967457
 51
180.0
  0
LINE
  5
C742
  8
0
 10
327.1895672157672834
 20
15.5513311552730897
 30
0.0
 11
330.3695672157672902
 21
15.5513311552730897
 31
0.0
  0
ARC
  5
C743
  8
0
 10
327.2165672157673271
 20
15.5613311552730895
 30
0.0
 40
0.01
 50
270.0
 51
0.0
  0
ARC
  5
C744
  8
0
 10
327.1895672157672834
 20
15.5413311552730899
 30
0.0
 40
0.01
 50
90.0000000000032543
 51
179.9999999999949125
  0
LINE
  5
C745
  8
0
 10
327.2365672157673089
 20
14.8418035962730901
 30
0.0
 11
330.3225672157673216
 21
14.8418035962730901
 31
0.0
  0
ARC
  5
C746
  8
0
 10
327.2365672157673089
 20
14.8518035962730899
 30
0.0
 40
0.01
 50
180.0
 51
270.0000000000064801
  0
LINE
  5
C747
  8
0
 10
327.1895672157672834
 20
14.9118035962730904
 30
0.0
 11
330.3695672157672902
 21
14.9118035962730904
 31
0.0
  0
ARC
  5
C748
  8
0
 10
327.1895672157672834
 20
14.9218035962730902
 30
0.0
 40
0.01
 50
180.0000000000050875
 51
269.9999999999968168
  0
ARC
  5
C749
  8
0
 10
327.2165672157673271
 20
14.9018035962730906
 30
0.0
 40
0.0100000000000007
 50
0.0000000000050889
 51
89.9999999999967457
  0
LINE
  5
C74A
  8
0
 10
327.226567215767318
 20
14.9018035962730906
 30
0.0
 11
327.226567215767318
 21
14.8518035962730899
 31
0.0
  0
LINE
  5
C74B
  8
0
 10
328.3775672157672716
 20
14.7466209201730898
 30
0.0
 11
328.7231215544024963
 21
14.7466209201730898
 31
0.0
  0
LINE
  5
C74C
  8
0
 10
328.3775672157672716
 20
14.6626209201730902
 30
0.0
 11
329.1815672157673021
 21
14.6626209201730902
 31
0.0
  0
ARC
  5
C74D
  8
0
 10
328.3775672157672716
 20
14.6726209201730899
 30
0.0
 40
0.01
 50
180.0
 51
269.9999999999935199
  0
ARC
  5
C74E
  8
0
 10
328.3775672157672716
 20
14.73662092017309
 30
0.0
 40
0.01
 50
89.9999999999967457
 51
180.0000000000050875
  0
ARC
  5
C74F
  8
0
 10
328.7789635138087192
 20
16.81916939842597
 30
0.0
 40
0.5278640767696627
 50
89.934472559552475
 51
114.9334215711349003
  0
LINE
  5
C750
  8
0
 10
328.5564345811674798
 20
17.2978356262729314
 30
0.0
 11
328.5564345811674798
 21
16.9311810797804903
 31
0.0
  0
ARC
  5
C751
  8
0
 10
328.7834245734870819
 20
17.6121057375557015
 30
0.0
 40
0.7153833156508078
 50
252.1443251194415893
 51
269.6910587882974824
  0
LINE
  5
C752
  8
0
 10
328.56407348790691
 20
16.9311810797804903
 30
0.0
 11
328.304242319861487
 21
16.9311810797804903
 31
0.0
  0
LINE
  5
C753
  8
0
 10
328.432057465873072
 20
16.8416839509656917
 30
0.0
 11
329.1270769656615016
 21
16.8416839509656917
 31
0.0
  0
LINE
  5
C754
  8
0
 10
328.4366915871345896
 20
16.7236790259198891
 30
0.0
 11
329.1224428443999841
 21
16.7236790259198891
 31
0.0
  0
ARC
  5
C755
  8
0
 10
328.7755493708089034
 20
17.4800776956400199
 30
0.0
 40
1.2844211581670499
 50
254.5030410136268983
 51
270.1792293227401842
  0
LINE
  5
C756
  8
0
 10
328.4323684389672735
 20
16.2423521365730892
 30
0.0
 11
328.4323684389672735
 21
16.6068193442730916
 31
0.0
  0
ARC
  5
C757
  8
0
 10
328.7781689143976109
 20
13.8325963271363896
 30
0.0
 40
0.9582082246715264
 50
89.9163889503955005
 51
93.5556095010980471
  0
ARC
  5
C758
  8
0
 10
328.7285590238486179
 20
14.6309932242265504
 30
0.0
 40
0.1582715105975382
 50
93.5556095010980471
 51
99.9010686431575436
  0
ARC
  5
C759
  8
0
 10
328.7325667263207833
 20
14.6080326529481894
 30
0.0
 40
0.1815792241820003
 50
99.9010686431575436
 51
101.5519943344185947
  0
ARC
  5
C75A
  8
0
 10
328.696630064207227
 20
14.7838501676674703
 30
0.0
 40
0.0021266060179482
 50
101.5519943344121003
 51
134.5845079049126127
  0
ARC
  5
C75B
  8
0
 10
328.6956223260253864
 20
14.7848726285119803
 30
0.0
 40
0.0006910007721679
 50
134.5845079049408923
 51
240.3464600010644858
  0
ARC
  5
C75C
  8
0
 10
328.6997833973580896
 20
14.7921815277880402
 30
0.0
 40
0.0091013826459878
 50
240.3464600010644006
 51
259.8323015200448936
  0
ARC
  5
C75D
  8
0
 10
328.7362770486612931
 20
14.9956628544480797
 30
0.0
 40
0.2158293122655049
 50
259.8323015200448936
 51
262.5802075741650015
  0
ARC
  5
C75E
  8
0
 10
328.7267937471925734
 20
14.9228424388124701
 30
0.0
 40
0.1423939941951817
 50
262.5802075741650015
 51
267.7233344931236161
  0
LINE
  5
C75F
  8
0
 10
328.7199433412690155
 20
14.7890338757834492
 30
0.0
 11
328.7260072100135062
 21
14.7459962889586205
 31
0.0
  0
ARC
  5
C760
  8
0
 10
328.7458350759922041
 20
14.7487899766546295
 30
0.0
 40
0.0200237099512299
 50
188.0200129693288886
 51
248.5912506038721972
  0
ARC
  5
C761
  8
0
 10
328.751047572408595
 20
14.7620847234370807
 30
0.0
 40
0.0343037803607636
 50
248.5912506038721972
 51
267.6675770290036098
  0
ARC
  5
C762
  8
0
 10
328.7773846472927062
 20
15.0671114838582305
 30
0.0
 40
0.3404336301320336
 50
265.3272687338395031
 51
270.3673339168154257
  0
ARC
  5
C763
  8
0
 10
328.7793944651709808
 20
14.4695756683794894
 30
0.0
 40
0.2609944112566529
 50
89.9620762730192638
 51
92.3111760008805078
  0
ARC
  5
C764
  8
0
 10
328.7735692514019092
 20
14.6139087355527693
 30
0.0
 40
0.11654384048899
 50
92.3111760008805078
 51
95.428566701450606
  0
ARC
  5
C765
  8
0
 10
328.7649429571368955
 20
14.7046823144471492
 30
0.0
 40
0.0253613006140798
 50
95.428566701450606
 51
100.8584003166666037
  0
ARC
  5
C766
  8
0
 10
328.7609954040333946
 20
14.7252621259180501
 30
0.0
 40
0.0044063056085359
 50
100.8584003166666037
 51
113.1804726438935944
  0
ARC
  5
C767
  8
0
 10
328.7593965519246808
 20
14.7289960414483403
 30
0.0
 40
0.0003444768020906
 50
113.1804726438549977
 51
140.0497440442366894
  0
ARC
  5
C768
  8
0
 10
328.7592411704832216
 20
14.7291261922414591
 30
0.0
 40
0.000141788318608
 50
140.0497440441994002
 51
245.9279154555524087
  0
ARC
  5
C769
  8
0
 10
328.7613689561381989
 20
14.7338891410822193
 30
0.0
 40
0.0053584111201308
 50
245.927915455552494
 51
255.8473091453232087
  0
ARC
  5
C76A
  8
0
 10
328.765469797023286
 20
14.7567422862198505
 30
0.0
 40
0.0285660756292739
 50
259.0810150914311976
 51
265.2053907245601749
  0
ARC
  5
C76B
  8
0
 10
328.7750700067612115
 20
14.86746410419412
 30
0.0
 40
0.1397032210559585
 50
265.0774177159760256
 51
268.5341885777220909
  0
ARC
  5
C76C
  8
0
 10
328.7794596179609243
 20
14.9996084060427393
 30
0.0
 40
0.2719184369496319
 50
268.3218214841738245
 51
270.0226718733039775
  0
ARC
  5
C76D
  8
0
 10
328.7809655171370196
 20
13.8325963271363896
 30
0.0
 40
0.9582082246715264
 50
86.4443904989019529
 51
90.0836110496045137
  0
ARC
  5
C76E
  8
0
 10
328.8305754076860126
 20
14.6309932242265504
 30
0.0
 40
0.1582715105975382
 50
80.0989313568424564
 51
86.4443904989019529
  0
ARC
  5
C76F
  8
0
 10
328.8265677052136766
 20
14.6080326529481894
 30
0.0
 40
0.1815792241820003
 50
78.4480056655813627
 51
80.0989313568424564
  0
ARC
  5
C770
  8
0
 10
328.8625043673274035
 20
14.7838501676674703
 30
0.0
 40
0.0021266060179482
 50
45.4154920950874299
 51
78.4480056655878997
  0
ARC
  5
C771
  8
0
 10
328.8635121055091872
 20
14.7848726285119803
 30
0.0
 40
0.0006910007721679
 50
299.6535399989355142
 51
45.4154920950590792
  0
ARC
  5
C772
  8
0
 10
328.8593510341764841
 20
14.7921815277880402
 30
0.0
 40
0.0091013826459878
 50
280.1676984799551064
 51
299.6535399989355142
  0
ARC
  5
C773
  8
0
 10
328.8228573828732806
 20
14.9956628544480797
 30
0.0
 40
0.2158293122655049
 50
277.4197924258351122
 51
280.1676984799551064
  0
ARC
  5
C774
  8
0
 10
328.8323406843420003
 20
14.9228424388124701
 30
0.0
 40
0.1423939941951817
 50
272.2766655068763839
 51
277.4197924258351122
  0
LINE
  5
C775
  8
0
 10
328.839191090265615
 20
14.7890338757834492
 30
0.0
 11
328.8331272215211243
 21
14.7459962889586205
 31
0.0
  0
ARC
  5
C776
  8
0
 10
328.8132993555424264
 20
14.7487899766546295
 30
0.0
 40
0.0200237099512299
 50
291.4087493961278028
 51
351.9799870306712251
  0
ARC
  5
C777
  8
0
 10
328.8080868591259218
 20
14.7620847234370807
 30
0.0
 40
0.0343037803607636
 50
272.3324229709965039
 51
291.4087493961278028
  0
ARC
  5
C778
  8
0
 10
328.7817497842419243
 20
15.0671114838582305
 30
0.0
 40
0.3404336301320336
 50
269.6326660831845743
 51
274.6727312661604969
  0
ARC
  5
C779
  8
0
 10
328.7797399663634792
 20
14.4695756683794894
 30
0.0
 40
0.2609944112566529
 50
87.6888239991195064
 51
90.037923726980722
  0
ARC
  5
C77A
  8
0
 10
328.7855651801327213
 20
14.6139087355527693
 30
0.0
 40
0.11654384048899
 50
84.571433298549394
 51
87.6888239991195064
  0
ARC
  5
C77B
  8
0
 10
328.7941914743976781
 20
14.7046823144471492
 30
0.0
 40
0.0253613006140798
 50
79.1415996833333963
 51
84.571433298549394
  0
ARC
  5
C77C
  8
0
 10
328.7981390275011222
 20
14.7252621259180501
 30
0.0
 40
0.0044063056085359
 50
66.819527356106363
 51
79.1415996833333537
  0
ARC
  5
C77D
  8
0
 10
328.7997378796097792
 20
14.7289960414483403
 30
0.0
 40
0.0003444768020906
 50
39.9502559557632821
 51
66.8195273561449454
  0
ARC
  5
C77E
  8
0
 10
328.7998932610514089
 20
14.7291261922414591
 30
0.0
 40
0.000141788318608
 50
294.0720845444475913
 51
39.9502559558005501
  0
ARC
  5
C77F
  8
0
 10
328.7977654753963748
 20
14.7338891410822193
 30
0.0
 40
0.0053584111201308
 50
284.1526908546767913
 51
294.0720845444474207
  0
ARC
  5
C780
  8
0
 10
328.7936646345114013
 20
14.7567422862198505
 30
0.0
 40
0.0285660756292739
 50
274.7946092754398251
 51
280.9189849085688024
  0
ARC
  5
C781
  8
0
 10
328.784064424773419
 20
14.86746410419412
 30
0.0
 40
0.1397032210559585
 50
271.4658114222777954
 51
274.9225822840239744
  0
ARC
  5
C782
  8
0
 10
328.7796748135737062
 20
14.9996084060427393
 30
0.0
 40
0.2719184369496319
 50
269.9773281266960225
 51
271.6781785158261187
  0
ARC
  5
C783
  8
0
 10
328.7781688608649233
 20
13.8137027291364394
 30
0.0
 40
0.9582082246715264
 50
93.3255914023272766
 51
93.5556095010980471
  0
ARC
  5
C784
  8
0
 10
328.7285589703158166
 20
14.6120996262266107
 30
0.0
 40
0.1582715105975382
 50
93.5556095010980471
 51
99.9010686431575436
  0
ARC
  5
C785
  8
0
 10
328.7325666727880957
 20
14.5891390549482391
 30
0.0
 40
0.1815792241820003
 50
99.9010686431575436
 51
101.5519943344185947
  0
ARC
  5
C786
  8
0
 10
328.6966300106744825
 20
14.76495656966752
 30
0.0
 40
0.0021266060179482
 50
101.5519943344121003
 51
134.5845079049126127
  0
ARC
  5
C787
  8
0
 10
328.6956222724925851
 20
14.76597903051203
 30
0.0
 40
0.0006910007721679
 50
134.5845079049408923
 51
240.3464600010644858
  0
ARC
  5
C788
  8
0
 10
328.6997833438252883
 20
14.7732879297880899
 30
0.0
 40
0.0091013826459878
 50
240.3464600010644006
 51
259.8323015200448936
  0
ARC
  5
C789
  8
0
 10
328.7362769951286054
 20
14.9767692564481294
 30
0.0
 40
0.2158293122655049
 50
259.8323015200448936
 51
262.5802075741650015
  0
ARC
  5
C78A
  8
0
 10
328.7267936936598858
 20
14.9039488408125198
 30
0.0
 40
0.1423939941951817
 50
262.5802075741650015
 51
267.7233344931236161
  0
LINE
  5
C78B
  8
0
 10
328.7199432877363279
 20
14.7701402777835096
 30
0.0
 11
328.7260071564808186
 21
14.7271026909586702
 31
0.0
  0
ARC
  5
C78C
  8
0
 10
328.7458350224595165
 20
14.7298963786546793
 30
0.0
 40
0.0200237099512299
 50
188.0200129693288886
 51
248.5912506038721972
  0
ARC
  5
C78D
  8
0
 10
328.7510475188759074
 20
14.7431911254371393
 30
0.0
 40
0.0343037803607636
 50
248.5912506038721972
 51
267.6675770290036098
  0
ARC
  5
C78E
  8
0
 10
328.7773845937600186
 20
15.0482178858582891
 30
0.0
 40
0.3404336301320336
 50
265.3272687338395031
 51
270.3673339168154257
  0
ARC
  5
C78F
  8
0
 10
328.7793944116382931
 20
14.4506820703795391
 30
0.0
 40
0.2609944112566529
 50
89.9620762730192638
 51
92.3111760008805078
  0
ARC
  5
C790
  8
0
 10
328.7735691978692216
 20
14.5950151375528296
 30
0.0
 40
0.11654384048899
 50
92.3111760008805078
 51
95.428566701450606
  0
ARC
  5
C791
  8
0
 10
328.7649429036040942
 20
14.6857887164472007
 30
0.0
 40
0.0253613006140798
 50
95.428566701450606
 51
100.8584003166666037
  0
ARC
  5
C792
  8
0
 10
328.7609953505008207
 20
14.7063685279181104
 30
0.0
 40
0.0044063056085359
 50
100.8584003166666037
 51
113.1804726438935944
  0
ARC
  5
C793
  8
0
 10
328.7593964983919932
 20
14.7101024434484007
 30
0.0
 40
0.0003444768020906
 50
113.1804726438549977
 51
140.0497440442366894
  0
ARC
  5
C794
  8
0
 10
328.7592411169504771
 20
14.7102325942415195
 30
0.0
 40
0.000141788318608
 50
140.0497440441994002
 51
245.9279154555524087
  0
ARC
  5
C795
  8
0
 10
328.7613689026055113
 20
14.7149955430822708
 30
0.0
 40
0.0053584111201308
 50
245.927915455552494
 51
255.8473091453232087
  0
ARC
  5
C796
  8
0
 10
328.7654697434905984
 20
14.7378486882199002
 30
0.0
 40
0.0285660756292739
 50
259.0810150914311976
 51
265.2053907245601749
  0
ARC
  5
C797
  8
0
 10
328.7750699532285239
 20
14.8485705061941804
 30
0.0
 40
0.1397032210559585
 50
265.0774177159760256
 51
268.5341885777220909
  0
ARC
  5
C798
  8
0
 10
328.7794595644281799
 20
14.9807148080427908
 30
0.0
 40
0.2719184369496319
 50
268.3218214841738245
 51
270.0226718733039775
  0
ARC
  5
C799
  8
0
 10
328.7809654636042751
 20
13.8137027291364394
 30
0.0
 40
0.9582082246715264
 50
86.4443904989019529
 51
86.6744022370036049
  0
ARC
  5
C79A
  8
0
 10
328.830575354153325
 20
14.6120996262266107
 30
0.0
 40
0.1582715105975382
 50
80.0989313568424564
 51
86.4443904989019529
  0
ARC
  5
C79B
  8
0
 10
328.826567651680989
 20
14.5891390549482391
 30
0.0
 40
0.1815792241820003
 50
78.4480056655813627
 51
80.0989313568424564
  0
ARC
  5
C79C
  8
0
 10
328.8625043137947159
 20
14.76495656966752
 30
0.0
 40
0.0021266060179482
 50
45.4154920950874299
 51
78.4480056655878997
  0
ARC
  5
C79D
  8
0
 10
328.8635120519764996
 20
14.76597903051203
 30
0.0
 40
0.0006910007721679
 50
299.6535399989355142
 51
45.4154920950590792
  0
ARC
  5
C79E
  8
0
 10
328.8593509806437964
 20
14.7732879297880899
 30
0.0
 40
0.0091013826459878
 50
280.1676984799551064
 51
299.6535399989355142
  0
ARC
  5
C79F
  8
0
 10
328.8228573293404793
 20
14.9767692564481294
 30
0.0
 40
0.2158293122655049
 50
277.4197924258351122
 51
280.1676984799551064
  0
ARC
  5
C7A0
  8
0
 10
328.8323406308093126
 20
14.9039488408125198
 30
0.0
 40
0.1423939941951817
 50
272.2766655068763839
 51
277.4197924258351122
  0
LINE
  5
C7A1
  8
0
 10
328.8391910367329274
 20
14.7701402777835096
 30
0.0
 11
328.833127167988323
 21
14.7271026909586702
 31
0.0
  0
ARC
  5
C7A2
  8
0
 10
328.8132993020096819
 20
14.7298963786546793
 30
0.0
 40
0.0200237099512299
 50
291.4087493961278028
 51
351.9799870306712251
  0
ARC
  5
C7A3
  8
0
 10
328.8080868055931774
 20
14.7431911254371393
 30
0.0
 40
0.0343037803607636
 50
272.3324229709965039
 51
291.4087493961278028
  0
ARC
  5
C7A4
  8
0
 10
328.7817497307091799
 20
15.0482178858582891
 30
0.0
 40
0.3404336301320336
 50
269.6326660831845743
 51
274.6727312661604969
  0
ARC
  5
C7A5
  8
0
 10
328.7797399128307916
 20
14.4506820703795391
 30
0.0
 40
0.2609944112566529
 50
87.6888239991195064
 51
90.037923726980722
  0
ARC
  5
C7A6
  8
0
 10
328.7855651265999768
 20
14.5950151375528296
 30
0.0
 40
0.11654384048899
 50
84.571433298549394
 51
87.6888239991195064
  0
ARC
  5
C7A7
  8
0
 10
328.7941914208649905
 20
14.6857887164472007
 30
0.0
 40
0.0253613006140798
 50
79.1415996833333963
 51
84.571433298549394
  0
ARC
  5
C7A8
  8
0
 10
328.7981389739683777
 20
14.7063685279181104
 30
0.0
 40
0.0044063056085359
 50
66.819527356106363
 51
79.1415996833333537
  0
ARC
  5
C7A9
  8
0
 10
328.7997378260770915
 20
14.7101024434484007
 30
0.0
 40
0.0003444768020906
 50
39.9502559557632821
 51
66.8195273561449454
  0
ARC
  5
C7AA
  8
0
 10
328.7998932075187213
 20
14.7102325942415195
 30
0.0
 40
0.000141788318608
 50
294.0720845444475913
 51
39.9502559558005501
  0
ARC
  5
C7AB
  8
0
 10
328.7977654218636872
 20
14.7149955430822708
 30
0.0
 40
0.0053584111201308
 50
284.1526908546767913
 51
294.0720845444474207
  0
ARC
  5
C7AC
  8
0
 10
328.7936645809786
 20
14.7378486882199002
 30
0.0
 40
0.0285660756292739
 50
274.7946092754398251
 51
280.9189849085688024
  0
ARC
  5
C7AD
  8
0
 10
328.7840643712406745
 20
14.8485705061941804
 30
0.0
 40
0.1397032210559585
 50
271.4658114222777954
 51
274.9225822840239744
  0
ARC
  5
C7AE
  8
0
 10
328.7796747600410185
 20
14.9807148080427908
 30
0.0
 40
0.2719184369496319
 50
269.9773281266960225
 51
271.6781785158261187
  0
ARC
  5
C7AF
  8
0
 10
328.3899279822160224
 20
13.8620272528283905
 30
0.0
 40
0.9582082246715264
 50
89.9163889503955005
 51
93.5556095010980471
  0
ARC
  5
C7B0
  8
0
 10
328.3403180916669726
 20
14.6604241499185601
 30
0.0
 40
0.1582715105975382
 50
93.5556095010980471
 51
99.9010686431575436
  0
ARC
  5
C7B1
  8
0
 10
328.3443257941393085
 20
14.6374635786401903
 30
0.0
 40
0.1815792241820003
 50
99.9010686431575436
 51
101.5519943344185947
  0
ARC
  5
C7B2
  8
0
 10
328.3083891320255816
 20
14.8132810933594694
 30
0.0
 40
0.0021266060179482
 50
101.5519943344121003
 51
134.5845079049126127
  0
ARC
  5
C7B3
  8
0
 10
328.3073813938437979
 20
14.8143035542039794
 30
0.0
 40
0.0006910007721679
 50
134.5845079049408923
 51
240.3464600010644858
  0
ARC
  5
C7B4
  8
0
 10
328.3115424651765011
 20
14.8216124534800393
 30
0.0
 40
0.0091013826459878
 50
240.3464600010644006
 51
259.8323015200448936
  0
ARC
  5
C7B5
  8
0
 10
328.3480361164798182
 20
15.0250937801400806
 30
0.0
 40
0.2158293122655049
 50
259.8323015200448936
 51
262.5802075741650015
  0
ARC
  5
C7B6
  8
0
 10
328.3385528150109849
 20
14.9522733645044692
 30
0.0
 40
0.1423939941951817
 50
262.5802075741650015
 51
267.7233344931236161
  0
LINE
  5
C7B7
  8
0
 10
328.331702409087427
 20
14.8184648014754607
 30
0.0
 11
328.3377662778319177
 21
14.7754272146506302
 31
0.0
  0
ARC
  5
C7B8
  8
0
 10
328.3575941438106156
 20
14.7782209023466304
 30
0.0
 40
0.0200237099512299
 50
188.0200129693286897
 51
248.5912506038721972
  0
ARC
  5
C7B9
  8
0
 10
328.3628066402271202
 20
14.7915156491290904
 30
0.0
 40
0.0343037803607636
 50
248.5912506038721972
 51
267.6675770290036098
  0
ARC
  5
C7BA
  8
0
 10
328.3891437151111177
 20
15.0965424095502403
 30
0.0
 40
0.3404336301320336
 50
265.3272687338395031
 51
270.3673339168154257
  0
ARC
  5
C7BB
  8
0
 10
328.3911535329893923
 20
14.4990065940714903
 30
0.0
 40
0.2609944112566529
 50
89.9620762730192638
 51
92.3111760008805078
  0
ARC
  5
C7BC
  8
0
 10
328.3853283192203207
 20
14.6433396612447808
 30
0.0
 40
0.11654384048899
 50
92.3111760008805078
 51
95.428566701450606
  0
ARC
  5
C7BD
  8
0
 10
328.376702024955307
 20
14.7341132401391501
 30
0.0
 40
0.0253613006140798
 50
95.428566701450606
 51
100.8584003166666037
  0
ARC
  5
C7BE
  8
0
 10
328.3727544718519198
 20
14.7546930516100598
 30
0.0
 40
0.0044063056085359
 50
100.8584003166666037
 51
113.1804726438935944
  0
ARC
  5
C7BF
  8
0
 10
328.3711556197430923
 20
14.7584269671403501
 30
0.0
 40
0.0003444768020906
 50
113.1804726438549977
 51
140.0497440442366894
  0
ARC
  5
C7C0
  8
0
 10
328.3710002383015762
 20
14.7585571179334707
 30
0.0
 40
0.000141788318608
 50
140.0497440441994002
 51
245.9279154555524087
  0
ARC
  5
C7C1
  8
0
 10
328.3731280239566104
 20
14.7633200667742202
 30
0.0
 40
0.0053584111201308
 50
245.927915455552494
 51
255.8473091453232087
  0
ARC
  5
C7C2
  8
0
 10
328.3772288648416975
 20
14.7861732119118496
 30
0.0
 40
0.0285660756292739
 50
259.0810150914311976
 51
265.2053907245601749
  0
ARC
  5
C7C3
  8
0
 10
328.386829074579623
 20
14.8968950298861298
 30
0.0
 40
0.1397032210559585
 50
265.0774177159760256
 51
268.5341885777220909
  0
ARC
  5
C7C4
  8
0
 10
328.3912186857793927
 20
15.0290393317347402
 30
0.0
 40
0.2719184369496319
 50
268.3218214841738245
 51
270.0226718733039775
  0
ARC
  5
C7C5
  8
0
 10
328.3927245849553742
 20
13.8620272528283905
 30
0.0
 40
0.9582082246715264
 50
86.4443904989019529
 51
90.0836110496045137
  0
ARC
  5
C7C6
  8
0
 10
328.4423344755044241
 20
14.6604241499185601
 30
0.0
 40
0.1582715105975382
 50
80.0989313568424564
 51
86.4443904989019529
  0
ARC
  5
C7C7
  8
0
 10
328.4383267730320881
 20
14.6374635786401903
 30
0.0
 40
0.1815792241820003
 50
78.4480056655813627
 51
80.0989313568424564
  0
ARC
  5
C7C8
  8
0
 10
328.474263435145815
 20
14.8132810933594694
 30
0.0
 40
0.0021266060179482
 50
45.4154920950874299
 51
78.4480056655878997
  0
ARC
  5
C7C9
  8
0
 10
328.4752711733275987
 20
14.8143035542039794
 30
0.0
 40
0.0006910007721679
 50
299.6535399989355142
 51
45.4154920950590792
  0
ARC
  5
C7CA
  8
0
 10
328.4711101019948956
 20
14.8216124534800393
 30
0.0
 40
0.0091013826459878
 50
280.1676984799551064
 51
299.6535399989355142
  0
ARC
  5
C7CB
  8
0
 10
328.4346164506916921
 20
15.0250937801400806
 30
0.0
 40
0.2158293122655049
 50
277.4197924258351122
 51
280.1676984799551064
  0
ARC
  5
C7CC
  8
0
 10
328.4440997521604118
 20
14.9522733645044692
 30
0.0
 40
0.1423939941951817
 50
272.2766655068763839
 51
277.4197924258351122
  0
LINE
  5
C7CD
  8
0
 10
328.4509501580840265
 20
14.8184648014754607
 30
0.0
 11
328.4448862893394789
 21
14.7754272146506302
 31
0.0
  0
ARC
  5
C7CE
  8
0
 10
328.425058423360781
 20
14.7782209023466304
 30
0.0
 40
0.0200237099512299
 50
291.4087493961278028
 51
351.9799870306712251
  0
ARC
  5
C7CF
  8
0
 10
328.4198459269442765
 20
14.7915156491290904
 30
0.0
 40
0.0343037803607636
 50
272.3324229709965039
 51
291.4087493961278028
  0
ARC
  5
C7D0
  8
0
 10
328.393508852060279
 20
15.0965424095502403
 30
0.0
 40
0.3404336301320336
 50
269.6326660831845743
 51
274.6727312661604969
  0
ARC
  5
C7D1
  8
0
 10
328.3914990341818907
 20
14.4990065940714903
 30
0.0
 40
0.2609944112566529
 50
87.6888239991195064
 51
90.037923726980722
  0
ARC
  5
C7D2
  8
0
 10
328.3973242479510759
 20
14.6433396612447808
 30
0.0
 40
0.11654384048899
 50
84.571433298549394
 51
87.6888239991195064
  0
ARC
  5
C7D3
  8
0
 10
328.4059505422160896
 20
14.7341132401391501
 30
0.0
 40
0.0253613006140798
 50
79.1415996833333963
 51
84.571433298549394
  0
ARC
  5
C7D4
  8
0
 10
328.4098980953194769
 20
14.7546930516100598
 30
0.0
 40
0.0044063056085359
 50
66.819527356106363
 51
79.1415996833333537
  0
ARC
  5
C7D5
  8
0
 10
328.4114969474281907
 20
14.7584269671403501
 30
0.0
 40
0.0003444768020906
 50
39.9502559557632821
 51
66.8195273561449454
  0
ARC
  5
C7D6
  8
0
 10
328.4116523288698204
 20
14.7585571179334707
 30
0.0
 40
0.000141788318608
 50
294.0720845444475913
 51
39.9502559558005501
  0
ARC
  5
C7D7
  8
0
 10
328.4095245432147863
 20
14.7633200667742202
 30
0.0
 40
0.0053584111201308
 50
284.1526908546767913
 51
294.0720845444474207
  0
ARC
  5
C7D8
  8
0
 10
328.4054237023298128
 20
14.7861732119118496
 30
0.0
 40
0.0285660756292739
 50
274.7946092754398251
 51
280.9189849085688024
  0
ARC
  5
C7D9
  8
0
 10
328.3958234925917736
 20
14.8968950298861298
 30
0.0
 40
0.1397032210559585
 50
271.4658114222777954
 51
274.9225822840239744
  0
ARC
  5
C7DA
  8
0
 10
328.3914338813921177
 20
15.0290393317347402
 30
0.0
 40
0.2719184369496319
 50
269.9773281266960225
 51
271.6781785158261187
  0
ARC
  5
C7DB
  8
0
 10
328.2480907672464241
 20
13.8344268598669
 30
0.0
 40
0.9582082246715264
 50
89.9163889503955005
 51
93.5556095010980471
  0
ARC
  5
C7DC
  8
0
 10
328.1984808766973174
 20
14.6328237569570607
 30
0.0
 40
0.1582715105975382
 50
93.5556095010980471
 51
99.9010686431575436
  0
ARC
  5
C7DD
  8
0
 10
328.2024885791697102
 20
14.6098631856786998
 30
0.0
 40
0.1815792241820003
 50
99.9010686431575436
 51
101.5519943344185947
  0
ARC
  5
C7DE
  8
0
 10
328.1665519170559833
 20
14.7856807003979807
 30
0.0
 40
0.0021266060179482
 50
101.5519943344121003
 51
134.5845079049126127
  0
ARC
  5
C7DF
  8
0
 10
328.1655441788740859
 20
14.7867031612424906
 30
0.0
 40
0.0006910007721679
 50
134.5845079049408923
 51
240.3464600010644858
  0
ARC
  5
C7E0
  8
0
 10
328.1697052502067891
 20
14.7940120605185506
 30
0.0
 40
0.0091013826459878
 50
240.3464600010644006
 51
259.8323015200448936
  0
ARC
  5
C7E1
  8
0
 10
328.2061989015101062
 20
14.99749338717859
 30
0.0
 40
0.2158293122655049
 50
259.8323015200448936
 51
262.5802075741650015
  0
ARC
  5
C7E2
  8
0
 10
328.1967156000413866
 20
14.9246729715429804
 30
0.0
 40
0.1423939941951817
 50
262.5802075741650015
 51
267.7233344931236161
  0
LINE
  5
C7E3
  8
0
 10
328.1898651941177718
 20
14.7908644085139702
 30
0.0
 11
328.1959290628623194
 21
14.7478268216891308
 31
0.0
  0
ARC
  5
C7E4
  8
0
 10
328.2157569288409036
 20
14.7506205093851399
 30
0.0
 40
0.0200237099512299
 50
188.0200129693286897
 51
248.5912506038721972
  0
ARC
  5
C7E5
  8
0
 10
328.2209694252574081
 20
14.7639152561675999
 30
0.0
 40
0.0343037803607636
 50
248.5912506038721972
 51
267.6675770290036098
  0
ARC
  5
C7E6
  8
0
 10
328.2473065001415193
 20
15.0689420165887409
 30
0.0
 40
0.3404336301320336
 50
265.3272687338395031
 51
270.3673339168154257
  0
ARC
  5
C7E7
  8
0
 10
328.2493163180199076
 20
14.4714062011099998
 30
0.0
 40
0.2609944112566529
 50
89.9620762730192638
 51
92.3111760008805078
  0
ARC
  5
C7E8
  8
0
 10
328.2434911042507224
 20
14.6157392682832903
 30
0.0
 40
0.11654384048899
 50
92.3111760008805078
 51
95.428566701450606
  0
ARC
  5
C7E9
  8
0
 10
328.2348648099857087
 20
14.7065128471776596
 30
0.0
 40
0.0253613006140798
 50
95.428566701450606
 51
100.8584003166666037
  0
ARC
  5
C7EA
  8
0
 10
328.2309172568823215
 20
14.7270926586485604
 30
0.0
 40
0.0044063056085359
 50
100.8584003166666037
 51
113.1804726438935944
  0
ARC
  5
C7EB
  8
0
 10
328.229318404773494
 20
14.7308265741788507
 30
0.0
 40
0.0003444768020906
 50
113.1804726438549977
 51
140.0497440442366894
  0
ARC
  5
C7EC
  8
0
 10
328.2291630233319779
 20
14.7309567249719802
 30
0.0
 40
0.000141788318608
 50
140.0497440441994002
 51
245.9279154555524087
  0
ARC
  5
C7ED
  8
0
 10
328.231290808987012
 20
14.7357196738127296
 30
0.0
 40
0.0053584111201308
 50
245.927915455552494
 51
255.8473091453232087
  0
ARC
  5
C7EE
  8
0
 10
328.2353916498719855
 20
14.7585728189503609
 30
0.0
 40
0.0285660756292739
 50
259.0810150914311976
 51
265.2053907245601749
  0
ARC
  5
C7EF
  8
0
 10
328.2449918596100247
 20
14.8692946369246393
 30
0.0
 40
0.1397032210559585
 50
265.0774177159760256
 51
268.5341885777220909
  0
ARC
  5
C7F0
  8
0
 10
328.2493814708096806
 20
15.0014389387732496
 30
0.0
 40
0.2719184369496319
 50
268.3218214841738245
 51
270.0226718733039775
  0
ARC
  5
C7F1
  8
0
 10
328.2508873699857759
 20
13.8344268598669
 30
0.0
 40
0.9582082246715264
 50
86.4443904989019529
 51
90.0836110496045137
  0
ARC
  5
C7F2
  8
0
 10
328.3004972605348257
 20
14.6328237569570607
 30
0.0
 40
0.1582715105975382
 50
80.0989313568424564
 51
86.4443904989019529
  0
ARC
  5
C7F3
  8
0
 10
328.2964895580624898
 20
14.6098631856786998
 30
0.0
 40
0.1815792241820003
 50
78.4480056655813627
 51
80.0989313568424564
  0
ARC
  5
C7F4
  8
0
 10
328.332426220176103
 20
14.7856807003979807
 30
0.0
 40
0.0021266060179482
 50
45.4154920950874299
 51
78.4480056655878997
  0
ARC
  5
C7F5
  8
0
 10
328.3334339583580004
 20
14.7867031612424906
 30
0.0
 40
0.0006910007721679
 50
299.6535399989355142
 51
45.4154920950590792
  0
ARC
  5
C7F6
  8
0
 10
328.3292728870252972
 20
14.7940120605185506
 30
0.0
 40
0.0091013826459878
 50
280.1676984799551064
 51
299.6535399989355142
  0
ARC
  5
C7F7
  8
0
 10
328.2927792357220937
 20
14.99749338717859
 30
0.0
 40
0.2158293122655049
 50
277.4197924258351122
 51
280.1676984799551064
  0
ARC
  5
C7F8
  8
0
 10
328.3022625371906997
 20
14.9246729715429804
 30
0.0
 40
0.1423939941951817
 50
272.2766655068763839
 51
277.4197924258351122
  0
LINE
  5
C7F9
  8
0
 10
328.3091129431144282
 20
14.7908644085139702
 30
0.0
 11
328.3030490743698238
 21
14.7478268216891308
 31
0.0
  0
ARC
  5
C7FA
  8
0
 10
328.2832212083911827
 20
14.7506205093851399
 30
0.0
 40
0.0200237099512299
 50
291.4087493961278028
 51
351.9799870306712251
  0
ARC
  5
C7FB
  8
0
 10
328.2780087119746781
 20
14.7639152561675999
 30
0.0
 40
0.0343037803607636
 50
272.3324229709965039
 51
291.4087493961278028
  0
ARC
  5
C7FC
  8
0
 10
328.2516716370906806
 20
15.0689420165887409
 30
0.0
 40
0.3404336301320336
 50
269.6326660831845743
 51
274.6727312661604969
  0
ARC
  5
C7FD
  8
0
 10
328.2496618192122924
 20
14.4714062011099998
 30
0.0
 40
0.2609944112566529
 50
87.6888239991195064
 51
90.037923726980722
  0
ARC
  5
C7FE
  8
0
 10
328.2554870329814776
 20
14.6157392682832903
 30
0.0
 40
0.11654384048899
 50
84.571433298549394
 51
87.6888239991195064
  0
ARC
  5
C7FF
  8
0
 10
328.2641133272464913
 20
14.7065128471776596
 30
0.0
 40
0.0253613006140798
 50
79.1415996833333963
 51
84.571433298549394
  0
ARC
  5
C800
  8
0
 10
328.2680608803498785
 20
14.7270926586485604
 30
0.0
 40
0.0044063056085359
 50
66.819527356106363
 51
79.1415996833333537
  0
ARC
  5
C801
  8
0
 10
328.2696597324585923
 20
14.7308265741788507
 30
0.0
 40
0.0003444768020906
 50
39.9502559557632821
 51
66.8195273561449454
  0
ARC
  5
C802
  8
0
 10
328.2698151139002221
 20
14.7309567249719802
 30
0.0
 40
0.000141788318608
 50
294.0720845444475913
 51
39.9502559558005501
  0
ARC
  5
C803
  8
0
 10
328.2676873282451879
 20
14.7357196738127296
 30
0.0
 40
0.0053584111201308
 50
284.1526908546767913
 51
294.0720845444474207
  0
ARC
  5
C804
  8
0
 10
328.2635864873601008
 20
14.7585728189503609
 30
0.0
 40
0.0285660756292739
 50
274.7946092754398251
 51
280.9189849085688024
  0
ARC
  5
C805
  8
0
 10
328.2539862776221753
 20
14.8692946369246393
 30
0.0
 40
0.1397032210559585
 50
271.4658114222777954
 51
274.9225822840239744
  0
ARC
  5
C806
  8
0
 10
328.2495966664225193
 20
15.0014389387732496
 30
0.0
 40
0.2719184369496319
 50
269.9773281266960225
 51
271.6781785158261187
  0
LINE
  5
C807
  8
0
 10
328.2120064308757037
 20
14.7308031121906104
 30
0.0
 11
328.2125151340754883
 21
14.7271926517650193
 31
0.0
  0
ARC
  5
C808
  8
0
 10
328.2323430000540725
 20
14.7299863394610195
 30
0.0
 40
0.0200237099512299
 50
188.0200129693286897
 51
248.5912506038721972
  0
ARC
  5
C809
  8
0
 10
328.2375554964705771
 20
14.7432810862434795
 30
0.0
 40
0.0343037803607636
 50
248.5912506038721972
 51
267.6675770290036098
  0
ARC
  5
C80A
  8
0
 10
328.2638925713545746
 20
15.0483078466646294
 30
0.0
 40
0.3404336301320336
 50
265.3272687338395031
 51
270.3673339168154257
  0
ARC
  5
C80B
  8
0
 10
328.2659023892330197
 20
14.45077203118589
 30
0.0
 40
0.2609944112566529
 50
89.9620762730192638
 51
92.3111760008805078
  0
ARC
  5
C80C
  8
0
 10
328.2600771754637776
 20
14.5951050983591699
 30
0.0
 40
0.11654384048899
 50
92.3111760008805078
 51
95.428566701450606
  0
ARC
  5
C80D
  8
0
 10
328.2514508811988208
 20
14.6858786772535392
 30
0.0
 40
0.0253613006140798
 50
95.428566701450606
 51
100.8584003166666037
  0
ARC
  5
C80E
  8
0
 10
328.2475033280953767
 20
14.7064584887244507
 30
0.0
 40
0.0044063056085359
 50
100.8584003166666037
 51
113.1804726438935944
  0
ARC
  5
C80F
  8
0
 10
328.2459044759867197
 20
14.7101924042547392
 30
0.0
 40
0.0003444768020906
 50
113.1804726438549977
 51
140.0497440442366894
  0
ARC
  5
C810
  8
0
 10
328.24574909454509
 20
14.7103225550478598
 30
0.0
 40
0.000141788318608
 50
140.0497440441994002
 51
245.9279154555524087
  0
ARC
  5
C811
  8
0
 10
328.2478768802001241
 20
14.7150855038886093
 30
0.0
 40
0.0053584111201308
 50
245.927915455552494
 51
255.8473091453232087
  0
ARC
  5
C812
  8
0
 10
328.2519777210852112
 20
14.7379386490262405
 30
0.0
 40
0.0285660756292739
 50
259.0810150914311976
 51
265.2053907245601749
  0
ARC
  5
C813
  8
0
 10
328.2615779308231936
 20
14.8486604670005207
 30
0.0
 40
0.1397032210559585
 50
265.0774177159760256
 51
268.5341885777220909
  0
ARC
  5
C814
  8
0
 10
328.2659675420227927
 20
14.9808047688491293
 30
0.0
 40
0.2719184369496319
 50
268.3218214841738245
 51
270.0226718733039775
  0
ARC
  5
C815
  8
0
 10
328.2674734411988879
 20
13.8137926899427796
 30
0.0
 40
0.9582082246715264
 50
86.4443904989019529
 51
87.6751082740244385
  0
ARC
  5
C816
  8
0
 10
328.3170833317479946
 20
14.6121895870329492
 30
0.0
 40
0.1582715105975382
 50
81.7029721703589189
 51
86.4443904989019529
  0
ARC
  5
C817
  8
0
 10
328.3093653069352058
 20
14.9768592172544697
 30
0.0
 40
0.2158293122655049
 50
277.4197924258351122
 51
279.1593185657894765
  0
ARC
  5
C818
  8
0
 10
328.3188486084039255
 20
14.9040388016188707
 30
0.0
 40
0.1423939941951817
 50
272.2766655068763839
 51
277.4197924258351122
  0
LINE
  5
C819
  8
0
 10
328.3256990143274834
 20
14.7702302385898498
 30
0.0
 11
328.3196351455829927
 21
14.7271926517650193
 31
0.0
  0
ARC
  5
C81A
  8
0
 10
328.2998072796042948
 20
14.7299863394610195
 30
0.0
 40
0.0200237099512299
 50
291.4087493961278028
 51
351.9799870306712251
  0
ARC
  5
C81B
  8
0
 10
328.2945947831879039
 20
14.7432810862434795
 30
0.0
 40
0.0343037803607636
 50
272.3324229709965039
 51
291.4087493961278028
  0
ARC
  5
C81C
  8
0
 10
328.2682577083039064
 20
15.0483078466646294
 30
0.0
 40
0.3404336301320336
 50
269.6326660831845743
 51
274.6727312661604969
  0
ARC
  5
C81D
  8
0
 10
328.2662478904255181
 20
14.45077203118589
 30
0.0
 40
0.2609944112566529
 50
87.6888239991195064
 51
90.037923726980722
  0
ARC
  5
C81E
  8
0
 10
328.2720731041945896
 20
14.5951050983591699
 30
0.0
 40
0.11654384048899
 50
84.571433298549394
 51
87.6888239991195064
  0
ARC
  5
C81F
  8
0
 10
328.280699398459717
 20
14.6858786772535392
 30
0.0
 40
0.0253613006140798
 50
79.1415996833333963
 51
84.571433298549394
  0
ARC
  5
C820
  8
0
 10
328.2846469515629906
 20
14.7064584887244507
 30
0.0
 40
0.0044063056085359
 50
66.819527356106363
 51
79.1415996833333537
  0
ARC
  5
C821
  8
0
 10
328.2862458036718181
 20
14.7101924042547392
 30
0.0
 40
0.0003444768020906
 50
39.9502559557632821
 51
66.8195273561449454
  0
ARC
  5
C822
  8
0
 10
328.2864011851132773
 20
14.7103225550478598
 30
0.0
 40
0.000141788318608
 50
294.0720845444475913
 51
39.9502559558005501
  0
ARC
  5
C823
  8
0
 10
328.2842733994583
 20
14.7150855038886093
 30
0.0
 40
0.0053584111201308
 50
284.1526908546767913
 51
294.0720845444474207
  0
ARC
  5
C824
  8
0
 10
328.2801725585733266
 20
14.7379386490262405
 30
0.0
 40
0.0285660756292739
 50
274.7946092754398251
 51
280.9189849085688024
  0
ARC
  5
C825
  8
0
 10
328.270572348835401
 20
14.8486604670005207
 30
0.0
 40
0.1397032210559585
 50
271.4658114222777954
 51
274.9225822840239744
  0
ARC
  5
C826
  8
0
 10
328.2661827376355745
 20
14.9808047688491293
 30
0.0
 40
0.2719184369496319
 50
269.9773281266960225
 51
271.6781785158261187
  0
ARC
  5
C827
  8
0
 10
327.9294532445262007
 20
13.8396110916761295
 30
0.0
 40
0.9582082246715264
 50
89.9163889503955005
 51
93.5556095010980471
  0
ARC
  5
C828
  8
0
 10
327.8798433539772077
 20
14.6380079887662902
 30
0.0
 40
0.1582715105975382
 50
93.5556095010980471
 51
99.9010686431575436
  0
ARC
  5
C829
  8
0
 10
327.8838510564494868
 20
14.6150474174879292
 30
0.0
 40
0.1815792241820003
 50
99.9010686431575436
 51
101.5519943344185947
  0
ARC
  5
C82A
  8
0
 10
327.8479143943358167
 20
14.7908649322072101
 30
0.0
 40
0.0021266060179482
 50
101.5519943344121003
 51
134.5845079049126127
  0
ARC
  5
C82B
  8
0
 10
327.8469066561539762
 20
14.7918873930517094
 30
0.0
 40
0.0006910007721679
 50
134.5845079049408923
 51
240.3464600010644858
  0
ARC
  5
C82C
  8
0
 10
327.8510677274866794
 20
14.79919629232778
 30
0.0
 40
0.0091013826459878
 50
240.3464600010644006
 51
259.8323015200448936
  0
ARC
  5
C82D
  8
0
 10
327.8875613787898828
 20
15.0026776189878195
 30
0.0
 40
0.2158293122655049
 50
259.8323015200448936
 51
262.5802075741650015
  0
ARC
  5
C82E
  8
0
 10
327.87807807732122
 20
14.9298572033522099
 30
0.0
 40
0.1423939941951817
 50
262.5802075741650015
 51
267.7233344931236161
  0
LINE
  5
C82F
  8
0
 10
327.8712276713976053
 20
14.7960486403231908
 30
0.0
 11
327.877291540142096
 21
14.7530110534983603
 31
0.0
  0
ARC
  5
C830
  8
0
 10
327.8971194061207939
 20
14.7558047411943694
 30
0.0
 40
0.0200237099512299
 50
188.0200129693286897
 51
248.5912506038721972
  0
ARC
  5
C831
  8
0
 10
327.9023319025371848
 20
14.7690994879768205
 30
0.0
 40
0.0343037803607636
 50
248.5912506038721972
 51
267.6675770290036098
  0
ARC
  5
C832
  8
0
 10
327.9286689774212959
 20
15.0741262483979703
 30
0.0
 40
0.3404336301320336
 50
265.3272687338395031
 51
270.3673339168154257
  0
ARC
  5
C833
  8
0
 10
327.9306787952996274
 20
14.4765904329192292
 30
0.0
 40
0.2609944112566529
 50
89.9620762730192638
 51
92.3111760008805078
  0
ARC
  5
C834
  8
0
 10
327.924853581530499
 20
14.6209235000925108
 30
0.0
 40
0.11654384048899
 50
92.3111760008805078
 51
95.428566701450606
  0
ARC
  5
C835
  8
0
 10
327.9162272872654853
 20
14.7116970789868802
 30
0.0
 40
0.0253613006140798
 50
95.428566701450606
 51
100.8584003166666037
  0
ARC
  5
C836
  8
0
 10
327.9122797341619844
 20
14.7322768904577899
 30
0.0
 40
0.0044063056085359
 50
100.8584003166666037
 51
113.1804726438935944
  0
ARC
  5
C837
  8
0
 10
327.9106808820533274
 20
14.7360108059880801
 30
0.0
 40
0.0003444768020906
 50
113.1804726438549977
 51
140.0497440442366894
  0
ARC
  5
C838
  8
0
 10
327.9105255006116977
 20
14.7361409567812007
 30
0.0
 40
0.000141788318608
 50
140.0497440441994002
 51
245.9279154555524087
  0
ARC
  5
C839
  8
0
 10
327.9126532862667887
 20
14.7409039056219608
 30
0.0
 40
0.0053584111201308
 50
245.927915455552494
 51
255.8473091453232087
  0
ARC
  5
C83A
  8
0
 10
327.9167541271518758
 20
14.7637570507595903
 30
0.0
 40
0.0285660756292739
 50
259.0810150914311976
 51
265.2053907245601749
  0
ARC
  5
C83B
  8
0
 10
327.9263543368898013
 20
14.8744788687338598
 30
0.0
 40
0.1397032210559585
 50
265.0774177159760256
 51
268.5341885777220909
  0
ARC
  5
C83C
  8
0
 10
327.9307439480895141
 20
15.0066231705824809
 30
0.0
 40
0.2719184369496319
 50
268.3218214841738245
 51
270.0226718733039775
  0
ARC
  5
C83D
  8
0
 10
327.9322498472656093
 20
13.8396110916761295
 30
0.0
 40
0.9582082246715264
 50
86.4443904989019529
 51
90.0836110496045137
  0
ARC
  5
C83E
  8
0
 10
327.9818597378146023
 20
14.6380079887662902
 30
0.0
 40
0.1582715105975382
 50
80.0989313568424564
 51
86.4443904989019529
  0
ARC
  5
C83F
  8
0
 10
327.9778520353423232
 20
14.6150474174879292
 30
0.0
 40
0.1815792241820003
 50
78.4480056655813627
 51
80.0989313568424564
  0
ARC
  5
C840
  8
0
 10
328.0137886974558796
 20
14.7908649322072101
 30
0.0
 40
0.0021266060179482
 50
45.4154920950874299
 51
78.4480056655878997
  0
ARC
  5
C841
  8
0
 10
328.014796435637777
 20
14.7918873930517094
 30
0.0
 40
0.0006910007721679
 50
299.6535399989355142
 51
45.4154920950590792
  0
ARC
  5
C842
  8
0
 10
328.0106353643050738
 20
14.79919629232778
 30
0.0
 40
0.0091013826459878
 50
280.1676984799551064
 51
299.6535399989355142
  0
ARC
  5
C843
  8
0
 10
327.9741417130019272
 20
15.0026776189878195
 30
0.0
 40
0.2158293122655049
 50
277.4197924258351122
 51
280.1676984799551064
  0
ARC
  5
C844
  8
0
 10
327.98362501447059
 20
14.9298572033522099
 30
0.0
 40
0.1423939941951817
 50
272.2766655068763839
 51
277.4197924258351122
  0
LINE
  5
C845
  8
0
 10
327.9904754203942048
 20
14.7960486403231908
 30
0.0
 11
327.9844115516497141
 21
14.7530110534983603
 31
0.0
  0
ARC
  5
C846
  8
0
 10
327.9645836856710162
 20
14.7558047411943694
 30
0.0
 40
0.0200237099512299
 50
291.4087493961278028
 51
351.9799870306712251
  0
ARC
  5
C847
  8
0
 10
327.9593711892545116
 20
14.7690994879768205
 30
0.0
 40
0.0343037803607636
 50
272.3324229709965039
 51
291.4087493961278028
  0
ARC
  5
C848
  8
0
 10
327.9330341143705141
 20
15.0741262483979703
 30
0.0
 40
0.3404336301320336
 50
269.6326660831845743
 51
274.6727312661604969
  0
ARC
  5
C849
  8
0
 10
327.9310242964921258
 20
14.4765904329192292
 30
0.0
 40
0.2609944112566529
 50
87.6888239991195064
 51
90.037923726980722
  0
ARC
  5
C84A
  8
0
 10
327.9368495102611973
 20
14.6209235000925108
 30
0.0
 40
0.11654384048899
 50
84.571433298549394
 51
87.6888239991195064
  0
ARC
  5
C84B
  8
0
 10
327.9454758045263247
 20
14.7116970789868802
 30
0.0
 40
0.0253613006140798
 50
79.1415996833333963
 51
84.571433298549394
  0
ARC
  5
C84C
  8
0
 10
327.949423357629712
 20
14.7322768904577899
 30
0.0
 40
0.0044063056085359
 50
66.819527356106363
 51
79.1415996833333537
  0
ARC
  5
C84D
  8
0
 10
327.9510222097384258
 20
14.7360108059880801
 30
0.0
 40
0.0003444768020906
 50
39.9502559557632821
 51
66.8195273561449454
  0
ARC
  5
C84E
  8
0
 10
327.9511775911799987
 20
14.7361409567812007
 30
0.0
 40
0.000141788318608
 50
294.0720845444475913
 51
39.9502559558005501
  0
ARC
  5
C84F
  8
0
 10
327.9490498055249077
 20
14.7409039056219608
 30
0.0
 40
0.0053584111201308
 50
284.1526908546767913
 51
294.0720845444474207
  0
ARC
  5
C850
  8
0
 10
327.9449489646398774
 20
14.7637570507595903
 30
0.0
 40
0.0285660756292739
 50
274.7946092754398251
 51
280.9189849085688024
  0
ARC
  5
C851
  8
0
 10
327.9353487549020087
 20
14.8744788687338598
 30
0.0
 40
0.1397032210559585
 50
271.4658114222777954
 51
274.9225822840239744
  0
ARC
  5
C852
  8
0
 10
327.9309591437021822
 20
15.0066231705824809
 30
0.0
 40
0.2719184369496319
 50
269.9773281266960225
 51
271.6781785158261187
  0
ARC
  5
C853
  8
0
 10
327.7690775306945739
 20
13.8621684720899996
 30
0.0
 40
0.9582082246715264
 50
89.9163889503955005
 51
93.5556095010980471
  0
ARC
  5
C854
  8
0
 10
327.7194676401455808
 20
14.6605653691801603
 30
0.0
 40
0.1582715105975382
 50
93.5556095010980471
 51
99.9010686431575436
  0
ARC
  5
C855
  8
0
 10
327.7234753426179168
 20
14.6376047979017994
 30
0.0
 40
0.1815792241820003
 50
99.9010686431575436
 51
101.5519943344185947
  0
ARC
  5
C856
  8
0
 10
327.6875386805043036
 20
14.8134223126210802
 30
0.0
 40
0.0021266060179482
 50
101.5519943344121003
 51
134.5845079049126127
  0
ARC
  5
C857
  8
0
 10
327.6865309423224062
 20
14.8144447734655902
 30
0.0
 40
0.0006910007721679
 50
134.5845079049408923
 51
240.3464600010644858
  0
ARC
  5
C858
  8
0
 10
327.6906920136551093
 20
14.8217536727416501
 30
0.0
 40
0.0091013826459878
 50
240.3464600010644006
 51
259.8323015200448936
  0
ARC
  5
C859
  8
0
 10
327.7271856649584265
 20
15.0252349994016896
 30
0.0
 40
0.2158293122655049
 50
259.8323015200448936
 51
262.5802075741650015
  0
ARC
  5
C85A
  8
0
 10
327.7177023634895932
 20
14.95241458376608
 30
0.0
 40
0.1423939941951817
 50
262.5802075741650015
 51
267.7233344931236161
  0
LINE
  5
C85B
  8
0
 10
327.7108519575659784
 20
14.8186060207370591
 30
0.0
 11
327.716915826310526
 21
14.7755684339122304
 31
0.0
  0
ARC
  5
C85C
  8
0
 10
327.7367436922892239
 20
14.7783621216082395
 30
0.0
 40
0.0200237099512299
 50
188.0200129693286897
 51
248.5912506038721972
  0
ARC
  5
C85D
  8
0
 10
327.7419561887056716
 20
14.7916568683906906
 30
0.0
 40
0.0343037803607636
 50
248.5912506038721972
 51
267.6675770290036098
  0
ARC
  5
C85E
  8
0
 10
327.7682932635897259
 20
15.0966836288118404
 30
0.0
 40
0.3404336301320336
 50
265.3272687338395031
 51
270.3673339168154257
  0
ARC
  5
C85F
  8
0
 10
327.7703030814681142
 20
14.4991478133330993
 30
0.0
 40
0.2609944112566529
 50
89.9620762730192638
 51
92.3111760008805078
  0
ARC
  5
C860
  8
0
 10
327.7644778676989858
 20
14.6434808805063792
 30
0.0
 40
0.11654384048899
 50
92.3111760008805078
 51
95.428566701450606
  0
ARC
  5
C861
  8
0
 10
327.7558515734339153
 20
14.7342544594007592
 30
0.0
 40
0.0253613006140798
 50
95.428566701450606
 51
100.8584003166666037
  0
ARC
  5
C862
  8
0
 10
327.7519040203305281
 20
14.75483427087166
 30
0.0
 40
0.0044063056085359
 50
100.8584003166666037
 51
113.1804726438935944
  0
ARC
  5
C863
  8
0
 10
327.7503051682217006
 20
14.7585681864019502
 30
0.0
 40
0.0003444768020906
 50
113.1804726438549977
 51
140.0497440442366894
  0
ARC
  5
C864
  8
0
 10
327.7501497867801845
 20
14.7586983371950708
 30
0.0
 40
0.000141788318608
 50
140.0497440441994002
 51
245.9279154555524087
  0
ARC
  5
C865
  8
0
 10
327.7522775724352186
 20
14.7634612860358292
 30
0.0
 40
0.0053584111201308
 50
245.927915455552494
 51
255.8473091453232087
  0
ARC
  5
C866
  8
0
 10
327.7563784133203058
 20
14.7863144311734604
 30
0.0
 40
0.0285660756292739
 50
259.0810150914311976
 51
265.2053907245601749
  0
ARC
  5
C867
  8
0
 10
327.7659786230581744
 20
14.8970362491477299
 30
0.0
 40
0.1397032210559585
 50
265.0774177159760256
 51
268.5341885777220909
  0
ARC
  5
C868
  8
0
 10
327.7703682342580009
 20
15.0291805509963492
 30
0.0
 40
0.2719184369496319
 50
268.3218214841738245
 51
270.0226718733039775
  0
ARC
  5
C869
  8
0
 10
327.7718741334339825
 20
13.8621684720899996
 30
0.0
 40
0.9582082246715264
 50
86.4443904989019529
 51
90.0836110496045137
  0
ARC
  5
C86A
  8
0
 10
327.8214840239829755
 20
14.6605653691801603
 30
0.0
 40
0.1582715105975382
 50
80.0989313568424564
 51
86.4443904989019529
  0
ARC
  5
C86B
  8
0
 10
327.8174763215106964
 20
14.6376047979017994
 30
0.0
 40
0.1815792241820003
 50
78.4480056655813627
 51
80.0989313568424564
  0
ARC
  5
C86C
  8
0
 10
327.8534129836244233
 20
14.8134223126210802
 30
0.0
 40
0.0021266060179482
 50
45.4154920950874299
 51
78.4480056655878997
  0
ARC
  5
C86D
  8
0
 10
327.854420721806207
 20
14.8144447734655902
 30
0.0
 40
0.0006910007721679
 50
299.6535399989355142
 51
45.4154920950590792
  0
ARC
  5
C86E
  8
0
 10
327.8502596504735038
 20
14.8217536727416501
 30
0.0
 40
0.0091013826459878
 50
280.1676984799551064
 51
299.6535399989355142
  0
ARC
  5
C86F
  8
0
 10
327.8137659991703003
 20
15.0252349994016896
 30
0.0
 40
0.2158293122655049
 50
277.4197924258351122
 51
280.1676984799551064
  0
ARC
  5
C870
  8
0
 10
327.82324930063902
 20
14.95241458376608
 30
0.0
 40
0.1423939941951817
 50
272.2766655068763839
 51
277.4197924258351122
  0
LINE
  5
C871
  8
0
 10
327.8300997065625779
 20
14.8186060207370591
 30
0.0
 11
327.8240358378180872
 21
14.7755684339122304
 31
0.0
  0
ARC
  5
C872
  8
0
 10
327.804207971839503
 20
14.7783621216082395
 30
0.0
 40
0.0200237099512299
 50
291.4087493961278028
 51
351.9799870306712251
  0
ARC
  5
C873
  8
0
 10
327.7989954754228847
 20
14.7916568683906906
 30
0.0
 40
0.0343037803607636
 50
272.3324229709965039
 51
291.4087493961278028
  0
ARC
  5
C874
  8
0
 10
327.7726584005388872
 20
15.0966836288118404
 30
0.0
 40
0.3404336301320336
 50
269.6326660831845743
 51
274.6727312661604969
  0
ARC
  5
C875
  8
0
 10
327.7706485826606126
 20
14.4991478133330993
 30
0.0
 40
0.2609944112566529
 50
87.6888239991195064
 51
90.037923726980722
  0
ARC
  5
C876
  8
0
 10
327.7764737964296842
 20
14.6434808805063792
 30
0.0
 40
0.11654384048899
 50
84.571433298549394
 51
87.6888239991195064
  0
ARC
  5
C877
  8
0
 10
327.7851000906946979
 20
14.7342544594007592
 30
0.0
 40
0.0253613006140798
 50
79.1415996833333963
 51
84.571433298549394
  0
ARC
  5
C878
  8
0
 10
327.7890476437981988
 20
14.75483427087166
 30
0.0
 40
0.0044063056085359
 50
66.819527356106363
 51
79.1415996833333537
  0
ARC
  5
C879
  8
0
 10
327.7906464959069126
 20
14.7585681864019502
 30
0.0
 40
0.0003444768020906
 50
39.9502559557632821
 51
66.8195273561449454
  0
ARC
  5
C87A
  8
0
 10
327.7908018773483718
 20
14.7586983371950708
 30
0.0
 40
0.000141788318608
 50
294.0720845444475913
 51
39.9502559558005501
  0
ARC
  5
C87B
  8
0
 10
327.7886740916933945
 20
14.7634612860358292
 30
0.0
 40
0.0053584111201308
 50
284.1526908546767913
 51
294.0720845444474207
  0
ARC
  5
C87C
  8
0
 10
327.7845732508084211
 20
14.7863144311734604
 30
0.0
 40
0.0285660756292739
 50
274.7946092754398251
 51
280.9189849085688024
  0
ARC
  5
C87D
  8
0
 10
327.7749730410703819
 20
14.8970362491477299
 30
0.0
 40
0.1397032210559585
 50
271.4658114222777954
 51
274.9225822840239744
  0
ARC
  5
C87E
  8
0
 10
327.7705834298707259
 20
15.0291805509963492
 30
0.0
 40
0.2719184369496319
 50
269.9773281266960225
 51
271.6781785158261187
  0
LINE
  5
C87F
  8
0
 10
327.4686236155174015
 20
14.8213952027384792
 30
0.0
 11
327.4702367542673187
 21
14.7820342137730893
 31
0.0
  0
ARC
  5
C880
  8
0
 10
327.489905282691609
 20
14.7828402927408291
 30
0.0
 40
0.0196850393364465
 50
182.3468502628539056
 51
264.3468501399607931
  0
LINE
  5
C881
  8
0
 10
327.4879661868200174
 20
14.7632509925777704
 30
0.0
 11
327.5557731101009722
 21
14.7565389546846895
 31
0.0
  0
ARC
  5
C882
  8
0
 10
327.557712205974326
 20
14.7761282548656201
 30
0.0
 40
0.0196850393543982
 50
264.3468501399607931
 51
346.3468503940234768
  0
LINE
  5
C883
  8
0
 10
327.5768409944673181
 20
14.7714817265730893
 30
0.0
 11
327.5860906732009994
 21
14.8095607259863105
 31
0.0
  0
ARC
  5
C884
  8
0
 10
328.7757721493055101
 20
27.2070386957812289
 30
0.0
 40
12.4544290124492107
 50
263.1387561171816856
 51
265.1083390566105891
  0
LINE
  5
C885
  8
0
 10
327.8259340618565716
 20
14.7890408531399693
 30
0.0
 11
327.8726990988000125
 21
14.7856053594318393
 31
0.0
  0
LINE
  5
C886
  8
0
 10
327.9879175981719186
 20
14.7778948014767693
 30
0.0
 11
328.1932746662462819
 21
14.7666660858030401
 31
0.0
  0
LINE
  5
C887
  8
0
 10
328.3244501752814131
 20
14.7613667520696605
 30
0.0
 11
328.3481913721453225
 21
14.7605421907074295
 31
0.0
  0
LINE
  5
C888
  8
0
 10
328.7217148698672986
 20
14.7566209201730896
 30
0.0
 11
328.434567215767288
 21
14.7566209201730896
 31
0.0
  0
LINE
  5
C889
  8
0
 10
328.434567215767288
 20
14.7566209201730896
 30
0.0
 11
328.434567215767288
 21
14.7466209201730898
 31
0.0
  0
LINE
  5
C88A
  8
0
 10
328.4275794992080932
 20
14.7580949787725508
 30
0.0
 11
328.4793170322549258
 21
14.7566209201730896
 31
0.0
  0
LINE
  5
C88B
  8
0
 10
330.0295672157673152
 20
17.6002193442730892
 30
0.0
 11
330.0295672157673152
 21
17.931119344273089
 31
0.0
  0
LINE
  5
C88C
  8
0
 10
329.2716932000673182
 20
16.9634556703159696
 30
0.0
 11
329.2716932000673182
 21
17.4908193442730884
 31
0.0
  0
LINE
  5
C88D
  8
0
 10
329.5472837512672868
 20
15.6540783993730894
 30
0.0
 11
329.5472837512672868
 21
16.567419344273091
 31
0.0
  0
LINE
  5
C88E
  8
0
 10
330.3325672157673125
 20
15.5613311552730895
 30
0.0
 11
330.3325672157673125
 21
15.6113311552730902
 31
0.0
  0
LINE
  5
C88F
  8
0
 10
330.3795672157672811
 20
14.9218035962730902
 30
0.0
 11
330.3795672157672811
 21
15.5413311552730899
 31
0.0
  0
LINE
  5
C890
  8
0
 10
329.191567215767293
 20
14.6726209201730899
 30
0.0
 11
329.191567215767293
 21
14.73662092017309
 31
0.0
  0
LINE
  5
C891
  8
0
 10
329.8210526204346138
 20
17.5000371932182688
 30
0.0
 11
329.8825045627033887
 21
17.5516014953279083
 31
0.0
  0
ARC
  5
C892
  8
0
 10
329.7957267886081922
 20
17.5302193442730996
 30
0.0
 40
0.0394
 50
270.0000000000032969
 51
310.0000000091994821
  0
ARC
  5
C893
  8
0
 10
329.907830394529924
 20
17.5214193442730917
 30
0.0
 40
0.0394
 50
90.0000000000032543
 51
130.0000000092003916
  0
ARC
  5
C894
  8
0
 10
329.9901672157673147
 20
17.6002193442730892
 30
0.0
 40
0.0394
 50
270.0
 51
0.0
  0
ARC
  5
C895
  8
0
 10
330.009867215767315
 20
17.931119344273089
 30
0.0
 40
0.0197
 50
359.9999999999948272
 51
90.0000000000065086
  0
LINE
  5
C896
  8
0
 10
329.2548921116730867
 20
16.9311810797804903
 30
0.0
 11
329.1270769656615016
 21
16.8416839509656917
 31
0.0
  0
LINE
  5
C897
  8
0
 10
329.1102758772673269
 20
16.8094093604302088
 30
0.0
 11
329.1102758772673269
 21
16.7521522048932212
 31
0.0
  0
ARC
  5
C898
  8
0
 10
329.2322932000673177
 20
16.9634556703159696
 30
0.0
 40
0.0394
 50
305.0000000240912073
 51
0.0000000000025444
  0
ARC
  5
C899
  8
0
 10
329.1496758772673275
 20
16.8094093604302088
 30
0.0
 40
0.0394
 50
125.0000000240908946
 51
179.9999999999974136
  0
ARC
  5
C89A
  8
0
 10
328.7795672157673152
 20
16.3651894229730708
 30
0.0
 40
0.4960629921000295
 50
29.1612419489001908
 51
46.2753228139618429
  0
ARC
  5
C89B
  8
0
 10
329.1496758772673275
 20
16.7521522048932106
 30
0.0
 40
0.0394
 50
179.9999999999961062
 51
226.2753228139750092
  0
ARC
  5
C89C
  8
0
 10
329.5078837512672862
 20
16.567419344273091
 30
0.0
 40
0.0394
 50
0.0000000000025444
 51
90.0
  0
ARC
  5
C89D
  8
0
 10
329.5275837512672865
 20
15.6540783993730894
 30
0.0
 40
0.0197
 50
270.0
 51
0.0000000000025444
  0
LINE
  5
C89E
  8
0
 10
329.4803546173673112
 20
15.6343783993730892
 30
0.0
 11
329.4685435937673219
 21
15.6225673757730892
 31
0.0
  0
ARC
  5
C89F
  8
0
 10
329.4212994992673202
 20
15.6331421788731095
 30
0.0
 40
0.0118110236000151
 50
243.7004919717217888
 51
269.9999999999837996
  0
ARC
  5
C8A0
  8
0
 10
330.3225672157673216
 20
15.6113311552730902
 30
0.0
 40
0.01
 50
0.0
 51
90.0000000000032543
  0
ARC
  5
C8A1
  8
0
 10
330.3425672157673034
 20
15.5613311552730895
 30
0.0
 40
0.01
 50
180.0
 51
270.0
  0
ARC
  5
C8A2
  8
0
 10
330.3695672157672902
 20
15.5413311552730899
 30
0.0
 40
0.01
 50
0.0000000000050889
 51
89.9999999999967457
  0
ARC
  5
C8A3
  8
0
 10
330.3225672157673216
 20
14.8518035962730899
 30
0.0
 40
0.01
 50
269.9999999999935199
 51
0.0
  0
ARC
  5
C8A4
  8
0
 10
330.3695672157672902
 20
14.9218035962730902
 30
0.0
 40
0.01
 50
270.0000000000032969
 51
359.9999999999948841
  0
ARC
  5
C8A5
  8
0
 10
330.3425672157673034
 20
14.9018035962730906
 30
0.0
 40
0.0100000000000007
 50
90.0000000000032543
 51
179.9999999999949125
  0
LINE
  5
C8A6
  8
0
 10
330.3325672157673125
 20
14.9018035962730906
 30
0.0
 11
330.3325672157673125
 21
14.8518035962730899
 31
0.0
  0
LINE
  5
C8A7
  8
0
 10
329.1815672157673021
 20
14.7466209201730898
 30
0.0
 11
328.8360128771320774
 21
14.7466209201730898
 31
0.0
  0
ARC
  5
C8A8
  8
0
 10
329.1815672157673021
 20
14.6726209201730899
 30
0.0
 40
0.01
 50
270.0000000000064801
 51
0.0
  0
ARC
  5
C8A9
  8
0
 10
329.1815672157673021
 20
14.73662092017309
 30
0.0
 40
0.01
 50
359.9999999999948841
 51
90.0000000000032543
  0
ARC
  5
C8AA
  8
0
 10
328.780170917726025
 20
16.81916939842597
 30
0.0
 40
0.5278640767696627
 50
65.0665784288650286
 51
90.065527440447525
  0
LINE
  5
C8AB
  8
0
 10
329.0026998503670939
 20
17.2978356262729314
 30
0.0
 11
329.0026998503670939
 21
16.9311810797804903
 31
0.0
  0
ARC
  5
C8AC
  8
0
 10
328.775709858047378
 20
17.6121057375557015
 30
0.0
 40
0.7153833156508078
 50
270.3089412117025176
 51
287.8556748805584107
  0
LINE
  5
C8AD
  8
0
 10
328.9950609436277205
 20
16.9311810797804903
 30
0.0
 11
329.2548921116730867
 21
16.9311810797804903
 31
0.0
  0
ARC
  5
C8AE
  8
0
 10
328.7835850607257271
 20
17.4800776956400199
 30
0.0
 40
1.2844211581670499
 50
269.8207706772598158
 51
285.4969589863731017
  0
LINE
  5
C8AF
  8
0
 10
329.1267659925673001
 20
16.2423521365730892
 30
0.0
 11
329.1267659925673001
 21
16.6068193442730916
 31
0.0
  0
ARC
  5
C8B0
  8
0
 10
329.1692064493186081
 20
13.8620272528283905
 30
0.0
 40
0.9582082246715264
 50
86.4443904989019529
 51
90.0836110496045137
  0
ARC
  5
C8B1
  8
0
 10
329.2188163398676011
 20
14.6604241499185601
 30
0.0
 40
0.1582715105975382
 50
80.0989313568424564
 51
86.4443904989019529
  0
ARC
  5
C8B2
  8
0
 10
329.214808637395322
 20
14.6374635786401903
 30
0.0
 40
0.1815792241820003
 50
78.4480056655813627
 51
80.0989313568424564
  0
ARC
  5
C8B3
  8
0
 10
329.2507452995088784
 20
14.8132810933594694
 30
0.0
 40
0.0021266060179482
 50
45.4154920950874299
 51
78.4480056655878997
  0
ARC
  5
C8B4
  8
0
 10
329.2517530376907757
 20
14.8143035542039794
 30
0.0
 40
0.0006910007721679
 50
299.6535399989355142
 51
45.4154920950590792
  0
ARC
  5
C8B5
  8
0
 10
329.2475919663580726
 20
14.8216124534800393
 30
0.0
 40
0.0091013826459878
 50
280.1676984799551064
 51
299.6535399989355142
  0
ARC
  5
C8B6
  8
0
 10
329.2110983150549259
 20
15.0250937801400806
 30
0.0
 40
0.2158293122655049
 50
277.4197924258351122
 51
280.1676984799551064
  0
ARC
  5
C8B7
  8
0
 10
329.2205816165235888
 20
14.9522733645044692
 30
0.0
 40
0.1423939941951817
 50
272.2766655068763839
 51
277.4197924258351122
  0
LINE
  5
C8B8
  8
0
 10
329.2274320224472035
 20
14.8184648014754607
 30
0.0
 11
329.2213681537027128
 21
14.7754272146506302
 31
0.0
  0
ARC
  5
C8B9
  8
0
 10
329.2015402877240149
 20
14.7782209023466304
 30
0.0
 40
0.0200237099512299
 50
291.4087493961278028
 51
351.9799870306712251
  0
ARC
  5
C8BA
  8
0
 10
329.1963277913075103
 20
14.7915156491290904
 30
0.0
 40
0.0343037803607636
 50
272.3324229709965039
 51
291.4087493961278028
  0
ARC
  5
C8BB
  8
0
 10
329.1699907164235128
 20
15.0965424095502403
 30
0.0
 40
0.3404336301320336
 50
269.6326660831845743
 51
274.6727312661604969
  0
ARC
  5
C8BC
  8
0
 10
329.1679808985451245
 20
14.4990065940714903
 30
0.0
 40
0.2609944112566529
 50
87.6888239991195064
 51
90.037923726980722
  0
ARC
  5
C8BD
  8
0
 10
329.1738061123143098
 20
14.6433396612447808
 30
0.0
 40
0.11654384048899
 50
84.571433298549394
 51
87.6888239991195064
  0
ARC
  5
C8BE
  8
0
 10
329.1824324065793235
 20
14.7341132401391501
 30
0.0
 40
0.0253613006140798
 50
79.1415996833333963
 51
84.571433298549394
  0
ARC
  5
C8BF
  8
0
 10
329.1863799596827107
 20
14.7546930516100598
 30
0.0
 40
0.0044063056085359
 50
66.819527356106363
 51
79.1415996833333537
  0
ARC
  5
C8C0
  8
0
 10
329.1879788117914245
 20
14.7584269671403501
 30
0.0
 40
0.0003444768020906
 50
39.9502559557632821
 51
66.8195273561449454
  0
ARC
  5
C8C1
  8
0
 10
329.1881341932329974
 20
14.7585571179334707
 30
0.0
 40
0.000141788318608
 50
294.0720845444475913
 51
39.9502559558005501
  0
ARC
  5
C8C2
  8
0
 10
329.1860064075780201
 20
14.7633200667742202
 30
0.0
 40
0.0053584111201308
 50
284.1526908546767913
 51
294.0720845444474207
  0
ARC
  5
C8C3
  8
0
 10
329.1819055666929899
 20
14.7861732119118496
 30
0.0
 40
0.0285660756292739
 50
274.7946092754398251
 51
280.9189849085688024
  0
ARC
  5
C8C4
  8
0
 10
329.1723053569550075
 20
14.8968950298861298
 30
0.0
 40
0.1397032210559585
 50
271.4658114222777954
 51
274.9225822840239744
  0
ARC
  5
C8C5
  8
0
 10
329.1679157457552947
 20
15.0290393317347402
 30
0.0
 40
0.2719184369496319
 50
269.9773281266960225
 51
271.6781785158261187
  0
ARC
  5
C8C6
  8
0
 10
329.1664098465791994
 20
13.8620272528283905
 30
0.0
 40
0.9582082246715264
 50
89.9163889503955005
 51
93.5556095010980471
  0
ARC
  5
C8C7
  8
0
 10
329.1167999560300927
 20
14.6604241499185601
 30
0.0
 40
0.1582715105975382
 50
93.5556095010980471
 51
99.9010686431575436
  0
ARC
  5
C8C8
  8
0
 10
329.1208076585023719
 20
14.6374635786401903
 30
0.0
 40
0.1815792241820003
 50
99.9010686431575436
 51
101.5519943344185947
  0
ARC
  5
C8C9
  8
0
 10
329.0848709963888155
 20
14.8132810933594694
 30
0.0
 40
0.0021266060179482
 50
101.5519943344121003
 51
134.5845079049126127
  0
ARC
  5
C8CA
  8
0
 10
329.0838632582069749
 20
14.8143035542039794
 30
0.0
 40
0.0006910007721679
 50
134.5845079049408923
 51
240.3464600010644858
  0
ARC
  5
C8CB
  8
0
 10
329.0880243295396781
 20
14.8216124534800393
 30
0.0
 40
0.0091013826459878
 50
240.3464600010644006
 51
259.8323015200448936
  0
ARC
  5
C8CC
  8
0
 10
329.1245179808428816
 20
15.0250937801400806
 30
0.0
 40
0.2158293122655049
 50
259.8323015200448936
 51
262.5802075741650015
  0
ARC
  5
C8CD
  8
0
 10
329.1150346793742187
 20
14.9522733645044692
 30
0.0
 40
0.1423939941951817
 50
262.5802075741650015
 51
267.7233344931236161
  0
LINE
  5
C8CE
  8
0
 10
329.108184273450604
 20
14.8184648014754607
 30
0.0
 11
329.1142481421950947
 21
14.7754272146506302
 31
0.0
  0
ARC
  5
C8CF
  8
0
 10
329.1340760081737926
 20
14.7782209023466304
 30
0.0
 40
0.0200237099512299
 50
188.0200129693288886
 51
248.5912506038721972
  0
ARC
  5
C8D0
  8
0
 10
329.1392885045901835
 20
14.7915156491290904
 30
0.0
 40
0.0343037803607636
 50
248.5912506038721972
 51
267.6675770290036098
  0
ARC
  5
C8D1
  8
0
 10
329.1656255794742947
 20
15.0965424095502403
 30
0.0
 40
0.3404336301320336
 50
265.3272687338395031
 51
270.3673339168154257
  0
ARC
  5
C8D2
  8
0
 10
329.1676353973526261
 20
14.4990065940714903
 30
0.0
 40
0.2609944112566529
 50
89.9620762730192638
 51
92.3111760008805078
  0
ARC
  5
C8D3
  8
0
 10
329.1618101835834977
 20
14.6433396612447808
 30
0.0
 40
0.11654384048899
 50
92.3111760008805078
 51
95.428566701450606
  0
ARC
  5
C8D4
  8
0
 10
329.153183889318484
 20
14.7341132401391501
 30
0.0
 40
0.0253613006140798
 50
95.428566701450606
 51
100.8584003166666037
  0
ARC
  5
C8D5
  8
0
 10
329.1492363362149831
 20
14.7546930516100598
 30
0.0
 40
0.0044063056085359
 50
100.8584003166666037
 51
113.1804726438935944
  0
ARC
  5
C8D6
  8
0
 10
329.1476374841063262
 20
14.7584269671403501
 30
0.0
 40
0.0003444768020906
 50
113.1804726438549977
 51
140.0497440442366894
  0
ARC
  5
C8D7
  8
0
 10
329.1474821026648101
 20
14.7585571179334707
 30
0.0
 40
0.000141788318608
 50
140.0497440441994002
 51
245.9279154555524087
  0
ARC
  5
C8D8
  8
0
 10
329.1496098883197874
 20
14.7633200667742202
 30
0.0
 40
0.0053584111201308
 50
245.927915455552494
 51
255.8473091453232087
  0
ARC
  5
C8D9
  8
0
 10
329.1537107292048177
 20
14.7861732119118496
 30
0.0
 40
0.0285660756292739
 50
259.0810150914311976
 51
265.2053907245601749
  0
ARC
  5
C8DA
  8
0
 10
329.1633109389428
 20
14.8968950298861298
 30
0.0
 40
0.1397032210559585
 50
265.0774177159760256
 51
268.5341885777220909
  0
ARC
  5
C8DB
  8
0
 10
329.1677005501425128
 20
15.0290393317347402
 30
0.0
 40
0.2719184369496319
 50
268.3218214841738245
 51
270.0226718733039775
  0
ARC
  5
C8DC
  8
0
 10
329.3110436642882064
 20
13.8344268598669
 30
0.0
 40
0.9582082246715264
 50
86.4443904989019529
 51
90.0836110496045137
  0
ARC
  5
C8DD
  8
0
 10
329.3606535548373131
 20
14.6328237569570607
 30
0.0
 40
0.1582715105975382
 50
80.0989313568424564
 51
86.4443904989019529
  0
ARC
  5
C8DE
  8
0
 10
329.3566458523649203
 20
14.6098631856786998
 30
0.0
 40
0.1815792241820003
 50
78.4480056655813627
 51
80.0989313568424564
  0
ARC
  5
C8DF
  8
0
 10
329.3925825144785904
 20
14.7856807003979807
 30
0.0
 40
0.0021266060179482
 50
45.4154920950874299
 51
78.4480056655878997
  0
ARC
  5
C8E0
  8
0
 10
329.3935902526603741
 20
14.7867031612424906
 30
0.0
 40
0.0006910007721679
 50
299.6535399989355142
 51
45.4154920950590792
  0
ARC
  5
C8E1
  8
0
 10
329.3894291813277277
 20
14.7940120605185506
 30
0.0
 40
0.0091013826459878
 50
280.1676984799551064
 51
299.6535399989355142
  0
ARC
  5
C8E2
  8
0
 10
329.3529355300245243
 20
14.99749338717859
 30
0.0
 40
0.2158293122655049
 50
277.4197924258351122
 51
280.1676984799551064
  0
ARC
  5
C8E3
  8
0
 10
329.3624188314931871
 20
14.9246729715429804
 30
0.0
 40
0.1423939941951817
 50
272.2766655068763839
 51
277.4197924258351122
  0
LINE
  5
C8E4
  8
0
 10
329.3692692374168018
 20
14.7908644085139702
 30
0.0
 11
329.3632053686723111
 21
14.7478268216891308
 31
0.0
  0
ARC
  5
C8E5
  8
0
 10
329.3433775026936132
 20
14.7506205093851399
 30
0.0
 40
0.0200237099512299
 50
291.4087493961278028
 51
351.9799870306712251
  0
ARC
  5
C8E6
  8
0
 10
329.3381650062772223
 20
14.7639152561675999
 30
0.0
 40
0.0343037803607636
 50
272.3324229709965039
 51
291.4087493961278028
  0
ARC
  5
C8E7
  8
0
 10
329.3118279313931112
 20
15.0689420165887409
 30
0.0
 40
0.3404336301320336
 50
269.6326660831845743
 51
274.6727312661604969
  0
ARC
  5
C8E8
  8
0
 10
329.3098181135147797
 20
14.4714062011099998
 30
0.0
 40
0.2609944112566529
 50
87.6888239991195064
 51
90.037923726980722
  0
ARC
  5
C8E9
  8
0
 10
329.3156433272839081
 20
14.6157392682832903
 30
0.0
 40
0.11654384048899
 50
84.571433298549394
 51
87.6888239991195064
  0
ARC
  5
C8EA
  8
0
 10
329.3242696215489218
 20
14.7065128471776596
 30
0.0
 40
0.0253613006140798
 50
79.1415996833333963
 51
84.571433298549394
  0
ARC
  5
C8EB
  8
0
 10
329.3282171746524227
 20
14.7270926586485604
 30
0.0
 40
0.0044063056085359
 50
66.819527356106363
 51
79.1415996833333537
  0
ARC
  5
C8EC
  8
0
 10
329.3298160267610228
 20
14.7308265741788507
 30
0.0
 40
0.0003444768020906
 50
39.9502559557632821
 51
66.8195273561449454
  0
ARC
  5
C8ED
  8
0
 10
329.3299714082027094
 20
14.7309567249719802
 30
0.0
 40
0.000141788318608
 50
294.0720845444475913
 51
39.9502559558005501
  0
ARC
  5
C8EE
  8
0
 10
329.3278436225476185
 20
14.7357196738127296
 30
0.0
 40
0.0053584111201308
 50
284.1526908546767913
 51
294.0720845444474207
  0
ARC
  5
C8EF
  8
0
 10
329.3237427816624745
 20
14.7585728189503609
 30
0.0
 40
0.0285660756292739
 50
274.7946092754398251
 51
280.9189849085688024
  0
ARC
  5
C8F0
  8
0
 10
329.3141425719246058
 20
14.8692946369246393
 30
0.0
 40
0.1397032210559585
 50
271.4658114222777954
 51
274.9225822840239744
  0
ARC
  5
C8F1
  8
0
 10
329.309752960724893
 20
15.0014389387732496
 30
0.0
 40
0.2719184369496319
 50
269.9773281266960225
 51
271.6781785158261187
  0
ARC
  5
C8F2
  8
0
 10
329.3082470615487978
 20
13.8344268598669
 30
0.0
 40
0.9582082246715264
 50
89.9163889503955005
 51
93.5556095010980471
  0
ARC
  5
C8F3
  8
0
 10
329.2586371709998048
 20
14.6328237569570607
 30
0.0
 40
0.1582715105975382
 50
93.5556095010980471
 51
99.9010686431575436
  0
ARC
  5
C8F4
  8
0
 10
329.2626448734720839
 20
14.6098631856786998
 30
0.0
 40
0.1815792241820003
 50
99.9010686431575436
 51
101.5519943344185947
  0
ARC
  5
C8F5
  8
0
 10
329.2267082113585275
 20
14.7856807003979807
 30
0.0
 40
0.0021266060179482
 50
101.5519943344121003
 51
134.5845079049126127
  0
ARC
  5
C8F6
  8
0
 10
329.2257004731765733
 20
14.7867031612424906
 30
0.0
 40
0.0006910007721679
 50
134.5845079049408923
 51
240.3464600010644858
  0
ARC
  5
C8F7
  8
0
 10
329.2298615445092764
 20
14.7940120605185506
 30
0.0
 40
0.0091013826459878
 50
240.3464600010644006
 51
259.8323015200448936
  0
ARC
  5
C8F8
  8
0
 10
329.2663551958124799
 20
14.99749338717859
 30
0.0
 40
0.2158293122655049
 50
259.8323015200448936
 51
262.5802075741650015
  0
ARC
  5
C8F9
  8
0
 10
329.2568718943438171
 20
14.9246729715429804
 30
0.0
 40
0.1423939941951817
 50
262.5802075741650015
 51
267.7233344931236161
  0
LINE
  5
C8FA
  8
0
 10
329.250021488420316
 20
14.7908644085139702
 30
0.0
 11
329.2560853571646931
 21
14.7478268216891308
 31
0.0
  0
ARC
  5
C8FB
  8
0
 10
329.275913223143391
 20
14.7506205093851399
 30
0.0
 40
0.0200237099512299
 50
188.0200129693288886
 51
248.5912506038721972
  0
ARC
  5
C8FC
  8
0
 10
329.2811257195598955
 20
14.7639152561675999
 30
0.0
 40
0.0343037803607636
 50
248.5912506038721972
 51
267.6675770290036098
  0
ARC
  5
C8FD
  8
0
 10
329.307462794443893
 20
15.0689420165887409
 30
0.0
 40
0.3404336301320336
 50
265.3272687338395031
 51
270.3673339168154257
  0
ARC
  5
C8FE
  8
0
 10
329.3094726123222813
 20
14.4714062011099998
 30
0.0
 40
0.2609944112566529
 50
89.9620762730192638
 51
92.3111760008805078
  0
ARC
  5
C8FF
  8
0
 10
329.3036473985532098
 20
14.6157392682832903
 30
0.0
 40
0.11654384048899
 50
92.3111760008805078
 51
95.428566701450606
  0
ARC
  5
C900
  8
0
 10
329.2950211042881961
 20
14.7065128471776596
 30
0.0
 40
0.0253613006140798
 50
95.428566701450606
 51
100.8584003166666037
  0
ARC
  5
C901
  8
0
 10
329.2910735511846951
 20
14.7270926586485604
 30
0.0
 40
0.0044063056085359
 50
100.8584003166666037
 51
113.1804726438935944
  0
ARC
  5
C902
  8
0
 10
329.2894746990759813
 20
14.7308265741788507
 30
0.0
 40
0.0003444768020906
 50
113.1804726438549977
 51
140.0497440442366894
  0
ARC
  5
C903
  8
0
 10
329.2893193176344084
 20
14.7309567249719802
 30
0.0
 40
0.000141788318608
 50
140.0497440441994002
 51
245.9279154555524087
  0
ARC
  5
C904
  8
0
 10
329.2914471032894994
 20
14.7357196738127296
 30
0.0
 40
0.0053584111201308
 50
245.927915455552494
 51
255.8473091453232087
  0
ARC
  5
C905
  8
0
 10
329.2955479441744728
 20
14.7585728189503609
 30
0.0
 40
0.0285660756292739
 50
259.0810150914311976
 51
265.2053907245601749
  0
ARC
  5
C906
  8
0
 10
329.3051481539123984
 20
14.8692946369246393
 30
0.0
 40
0.1397032210559585
 50
265.0774177159760256
 51
268.5341885777220909
  0
ARC
  5
C907
  8
0
 10
329.3095377651121112
 20
15.0014389387732496
 30
0.0
 40
0.2719184369496319
 50
268.3218214841738245
 51
270.0226718733039775
  0
LINE
  5
C908
  8
0
 10
329.3471280006589268
 20
14.7308031121906104
 30
0.0
 11
329.3466192974590854
 21
14.7271926517650193
 31
0.0
  0
ARC
  5
C909
  8
0
 10
329.3267914314803875
 20
14.7299863394610195
 30
0.0
 40
0.0200237099512299
 50
291.4087493961278028
 51
351.9799870306712251
  0
ARC
  5
C90A
  8
0
 10
329.3215789350639966
 20
14.7432810862434795
 30
0.0
 40
0.0343037803607636
 50
272.3324229709965039
 51
291.4087493961278028
  0
ARC
  5
C90B
  8
0
 10
329.2952418601798854
 20
15.0483078466646294
 30
0.0
 40
0.3404336301320336
 50
269.6326660831845743
 51
274.6727312661604969
  0
ARC
  5
C90C
  8
0
 10
329.2932320423016108
 20
14.45077203118589
 30
0.0
 40
0.2609944112566529
 50
87.6888239991195064
 51
90.037923726980722
  0
ARC
  5
C90D
  8
0
 10
329.2990572560706823
 20
14.5951050983591699
 30
0.0
 40
0.11654384048899
 50
84.571433298549394
 51
87.6888239991195064
  0
ARC
  5
C90E
  8
0
 10
329.3076835503358097
 20
14.6858786772535392
 30
0.0
 40
0.0253613006140798
 50
79.1415996833333963
 51
84.571433298549394
  0
ARC
  5
C90F
  8
0
 10
329.311631103439197
 20
14.7064584887244507
 30
0.0
 40
0.0044063056085359
 50
66.819527356106363
 51
79.1415996833333537
  0
ARC
  5
C910
  8
0
 10
329.3132299555479108
 20
14.7101924042547392
 30
0.0
 40
0.0003444768020906
 50
39.9502559557632821
 51
66.8195273561449454
  0
ARC
  5
C911
  8
0
 10
329.3133853369894837
 20
14.7103225550478598
 30
0.0
 40
0.000141788318608
 50
294.0720845444475913
 51
39.9502559558005501
  0
ARC
  5
C912
  8
0
 10
329.3112575513343927
 20
14.7150855038886093
 30
0.0
 40
0.0053584111201308
 50
284.1526908546767913
 51
294.0720845444474207
  0
ARC
  5
C913
  8
0
 10
329.3071567104494193
 20
14.7379386490262405
 30
0.0
 40
0.0285660756292739
 50
274.7946092754398251
 51
280.9189849085688024
  0
ARC
  5
C914
  8
0
 10
329.2975565007114938
 20
14.8486604670005207
 30
0.0
 40
0.1397032210559585
 50
271.4658114222777954
 51
274.9225822840239744
  0
ARC
  5
C915
  8
0
 10
329.2931668895117241
 20
14.9808047688491293
 30
0.0
 40
0.2719184369496319
 50
269.9773281266960225
 51
271.6781785158261187
  0
ARC
  5
C916
  8
0
 10
329.2916609903356857
 20
13.8137926899427796
 30
0.0
 40
0.9582082246715264
 50
92.3248917259755615
 51
93.5556095010980471
  0
ARC
  5
C917
  8
0
 10
329.2420510997866927
 20
14.6121895870329492
 30
0.0
 40
0.1582715105975382
 50
93.5556095010980471
 51
98.2970278296410669
  0
ARC
  5
C918
  8
0
 10
329.2497691245994247
 20
14.9768592172544697
 30
0.0
 40
0.2158293122655049
 50
260.8406814342105235
 51
262.5802075741650015
  0
ARC
  5
C919
  8
0
 10
329.2402858231305913
 20
14.9040388016188707
 30
0.0
 40
0.1423939941951817
 50
262.5802075741650015
 51
267.7233344931236161
  0
LINE
  5
C91A
  8
0
 10
329.2334354172070903
 20
14.7702302385898498
 30
0.0
 11
329.239499285951581
 21
14.7271926517650193
 31
0.0
  0
ARC
  5
C91B
  8
0
 10
329.2593271519302789
 20
14.7299863394610195
 30
0.0
 40
0.0200237099512299
 50
188.0200129693288886
 51
248.5912506038721972
  0
ARC
  5
C91C
  8
0
 10
329.2645396483467266
 20
14.7432810862434795
 30
0.0
 40
0.0343037803607636
 50
248.5912506038721972
 51
267.6675770290036098
  0
ARC
  5
C91D
  8
0
 10
329.2908767232307241
 20
15.0483078466646294
 30
0.0
 40
0.3404336301320336
 50
265.3272687338395031
 51
270.3673339168154257
  0
ARC
  5
C91E
  8
0
 10
329.2928865411091124
 20
14.45077203118589
 30
0.0
 40
0.2609944112566529
 50
89.9620762730192638
 51
92.3111760008805078
  0
ARC
  5
C91F
  8
0
 10
329.287061327339984
 20
14.5951050983591699
 30
0.0
 40
0.11654384048899
 50
92.3111760008805078
 51
95.428566701450606
  0
ARC
  5
C920
  8
0
 10
329.2784350330750271
 20
14.6858786772535392
 30
0.0
 40
0.0253613006140798
 50
95.428566701450606
 51
100.8584003166666037
  0
ARC
  5
C921
  8
0
 10
329.2744874799715262
 20
14.7064584887244507
 30
0.0
 40
0.0044063056085359
 50
100.8584003166666037
 51
113.1804726438935944
  0
ARC
  5
C922
  8
0
 10
329.2728886278628124
 20
14.7101924042547392
 30
0.0
 40
0.0003444768020906
 50
113.1804726438549977
 51
140.0497440442366894
  0
ARC
  5
C923
  8
0
 10
329.2727332464211827
 20
14.7103225550478598
 30
0.0
 40
0.000141788318608
 50
140.0497440441994002
 51
245.9279154555524087
  0
ARC
  5
C924
  8
0
 10
329.2748610320762737
 20
14.7150855038886093
 30
0.0
 40
0.0053584111201308
 50
245.927915455552494
 51
255.8473091453232087
  0
ARC
  5
C925
  8
0
 10
329.2789618729613039
 20
14.7379386490262405
 30
0.0
 40
0.0285660756292739
 50
259.0810150914311976
 51
265.2053907245601749
  0
ARC
  5
C926
  8
0
 10
329.2885620826991726
 20
14.8486604670005207
 30
0.0
 40
0.1397032210559585
 50
265.0774177159760256
 51
268.5341885777220909
  0
ARC
  5
C927
  8
0
 10
329.2929516938989991
 20
14.9808047688491293
 30
0.0
 40
0.2719184369496319
 50
268.3218214841738245
 51
270.0226718733039775
  0
ARC
  5
C928
  8
0
 10
329.6296811870083729
 20
13.8396110916761295
 30
0.0
 40
0.9582082246715264
 50
86.4443904989019529
 51
90.0836110496045137
  0
ARC
  5
C929
  8
0
 10
329.6792910775574228
 20
14.6380079887662902
 30
0.0
 40
0.1582715105975382
 50
80.0989313568424564
 51
86.4443904989019529
  0
ARC
  5
C92A
  8
0
 10
329.6752833750852005
 20
14.6150474174879292
 30
0.0
 40
0.1815792241820003
 50
78.4480056655813627
 51
80.0989313568424564
  0
ARC
  5
C92B
  8
0
 10
329.7112200371988138
 20
14.7908649322072101
 30
0.0
 40
0.0021266060179482
 50
45.4154920950874299
 51
78.4480056655878997
  0
ARC
  5
C92C
  8
0
 10
329.7122277753805974
 20
14.7918873930517094
 30
0.0
 40
0.0006910007721679
 50
299.6535399989355142
 51
45.4154920950590792
  0
ARC
  5
C92D
  8
0
 10
329.7080667040478943
 20
14.79919629232778
 30
0.0
 40
0.0091013826459878
 50
280.1676984799551064
 51
299.6535399989355142
  0
ARC
  5
C92E
  8
0
 10
329.6715730527446908
 20
15.0026776189878195
 30
0.0
 40
0.2158293122655049
 50
277.4197924258351122
 51
280.1676984799551064
  0
ARC
  5
C92F
  8
0
 10
329.6810563542134105
 20
14.9298572033522099
 30
0.0
 40
0.1423939941951817
 50
272.2766655068763839
 51
277.4197924258351122
  0
LINE
  5
C930
  8
0
 10
329.6879067601370252
 20
14.7960486403231908
 30
0.0
 11
329.6818428913924777
 21
14.7530110534983603
 31
0.0
  0
ARC
  5
C931
  8
0
 10
329.6620150254137798
 20
14.7558047411943694
 30
0.0
 40
0.0200237099512299
 50
291.4087493961278028
 51
351.9799870306712251
  0
ARC
  5
C932
  8
0
 10
329.6568025289972752
 20
14.7690994879768205
 30
0.0
 40
0.0343037803607636
 50
272.3324229709965039
 51
291.4087493961278028
  0
ARC
  5
C933
  8
0
 10
329.6304654541132777
 20
15.0741262483979703
 30
0.0
 40
0.3404336301320336
 50
269.6326660831845743
 51
274.6727312661604969
  0
ARC
  5
C934
  8
0
 10
329.6284556362348894
 20
14.4765904329192292
 30
0.0
 40
0.2609944112566529
 50
87.6888239991195064
 51
90.037923726980722
  0
ARC
  5
C935
  8
0
 10
329.6342808500040746
 20
14.6209235000925108
 30
0.0
 40
0.11654384048899
 50
84.571433298549394
 51
87.6888239991195064
  0
ARC
  5
C936
  8
0
 10
329.6429071442690883
 20
14.7116970789868802
 30
0.0
 40
0.0253613006140798
 50
79.1415996833333963
 51
84.571433298549394
  0
ARC
  5
C937
  8
0
 10
329.6468546973724756
 20
14.7322768904577899
 30
0.0
 40
0.0044063056085359
 50
66.819527356106363
 51
79.1415996833333537
  0
ARC
  5
C938
  8
0
 10
329.6484535494811894
 20
14.7360108059880801
 30
0.0
 40
0.0003444768020906
 50
39.9502559557632821
 51
66.8195273561449454
  0
ARC
  5
C939
  8
0
 10
329.6486089309228191
 20
14.7361409567812007
 30
0.0
 40
0.000141788318608
 50
294.0720845444475913
 51
39.9502559558005501
  0
ARC
  5
C93A
  8
0
 10
329.646481145267785
 20
14.7409039056219608
 30
0.0
 40
0.0053584111201308
 50
284.1526908546767913
 51
294.0720845444474207
  0
ARC
  5
C93B
  8
0
 10
329.6423803043828116
 20
14.7637570507595903
 30
0.0
 40
0.0285660756292739
 50
274.7946092754398251
 51
280.9189849085688024
  0
ARC
  5
C93C
  8
0
 10
329.6327800946447724
 20
14.8744788687338598
 30
0.0
 40
0.1397032210559585
 50
271.4658114222777954
 51
274.9225822840239744
  0
ARC
  5
C93D
  8
0
 10
329.6283904834451164
 20
15.0066231705824809
 30
0.0
 40
0.2719184369496319
 50
269.9773281266960225
 51
271.6781785158261187
  0
ARC
  5
C93E
  8
0
 10
329.6268845842690212
 20
13.8396110916761295
 30
0.0
 40
0.9582082246715264
 50
89.9163889503955005
 51
93.5556095010980471
  0
ARC
  5
C93F
  8
0
 10
329.5772746937200282
 20
14.6380079887662902
 30
0.0
 40
0.1582715105975382
 50
93.5556095010980471
 51
99.9010686431575436
  0
ARC
  5
C940
  8
0
 10
329.5812823961921936
 20
14.6150474174879292
 30
0.0
 40
0.1815792241820003
 50
99.9010686431575436
 51
101.5519943344185947
  0
ARC
  5
C941
  8
0
 10
329.5453457340785803
 20
14.7908649322072101
 30
0.0
 40
0.0021266060179482
 50
101.5519943344121003
 51
134.5845079049126127
  0
ARC
  5
C942
  8
0
 10
329.5443379958967967
 20
14.7918873930517094
 30
0.0
 40
0.0006910007721679
 50
134.5845079049408923
 51
240.3464600010644858
  0
ARC
  5
C943
  8
0
 10
329.5484990672294998
 20
14.79919629232778
 30
0.0
 40
0.0091013826459878
 50
240.3464600010644006
 51
259.8323015200448936
  0
ARC
  5
C944
  8
0
 10
329.5849927185327033
 20
15.0026776189878195
 30
0.0
 40
0.2158293122655049
 50
259.8323015200448936
 51
262.5802075741650015
  0
ARC
  5
C945
  8
0
 10
329.5755094170639836
 20
14.9298572033522099
 30
0.0
 40
0.1423939941951817
 50
262.5802075741650015
 51
267.7233344931236161
  0
LINE
  5
C946
  8
0
 10
329.5686590111404257
 20
14.7960486403231908
 30
0.0
 11
329.5747228798849164
 21
14.7530110534983603
 31
0.0
  0
ARC
  5
C947
  8
0
 10
329.5945507458636143
 20
14.7558047411943694
 30
0.0
 40
0.0200237099512299
 50
188.0200129693288886
 51
248.5912506038721972
  0
ARC
  5
C948
  8
0
 10
329.5997632422801189
 20
14.7690994879768205
 30
0.0
 40
0.0343037803607636
 50
248.5912506038721972
 51
267.6675770290036098
  0
ARC
  5
C949
  8
0
 10
329.6261003171641164
 20
15.0741262483979703
 30
0.0
 40
0.3404336301320336
 50
265.3272687338395031
 51
270.3673339168154257
  0
ARC
  5
C94A
  8
0
 10
329.628110135042391
 20
14.4765904329192292
 30
0.0
 40
0.2609944112566529
 50
89.9620762730192638
 51
92.3111760008805078
  0
ARC
  5
C94B
  8
0
 10
329.6222849212733195
 20
14.6209235000925108
 30
0.0
 40
0.11654384048899
 50
92.3111760008805078
 51
95.428566701450606
  0
ARC
  5
C94C
  8
0
 10
329.6136586270083058
 20
14.7116970789868802
 30
0.0
 40
0.0253613006140798
 50
95.428566701450606
 51
100.8584003166666037
  0
ARC
  5
C94D
  8
0
 10
329.6097110739049185
 20
14.7322768904577899
 30
0.0
 40
0.0044063056085359
 50
100.8584003166666037
 51
113.1804726438935944
  0
ARC
  5
C94E
  8
0
 10
329.6081122217962047
 20
14.7360108059880801
 30
0.0
 40
0.0003444768020906
 50
113.1804726438549977
 51
140.0497440442366894
  0
ARC
  5
C94F
  8
0
 10
329.607956840354575
 20
14.7361409567812007
 30
0.0
 40
0.000141788318608
 50
140.0497440441994002
 51
245.9279154555524087
  0
ARC
  5
C950
  8
0
 10
329.6100846260096091
 20
14.7409039056219608
 30
0.0
 40
0.0053584111201308
 50
245.927915455552494
 51
255.8473091453232087
  0
ARC
  5
C951
  8
0
 10
329.6141854668945825
 20
14.7637570507595903
 30
0.0
 40
0.0285660756292739
 50
259.0810150914311976
 51
265.2053907245601749
  0
ARC
  5
C952
  8
0
 10
329.6237856766325081
 20
14.8744788687338598
 30
0.0
 40
0.1397032210559585
 50
265.0774177159760256
 51
268.5341885777220909
  0
ARC
  5
C953
  8
0
 10
329.6281752878322777
 20
15.0066231705824809
 30
0.0
 40
0.2719184369496319
 50
268.3218214841738245
 51
270.0226718733039775
  0
ARC
  5
C954
  8
0
 10
329.7900569008398861
 20
13.8621684720899996
 30
0.0
 40
0.9582082246715264
 50
86.4443904989019529
 51
90.0836110496045137
  0
ARC
  5
C955
  8
0
 10
329.8396667913889928
 20
14.6605653691801603
 30
0.0
 40
0.1582715105975382
 50
80.0989313568424564
 51
86.4443904989019529
  0
ARC
  5
C956
  8
0
 10
329.8356590889167137
 20
14.6376047979017994
 30
0.0
 40
0.1815792241820003
 50
78.4480056655813627
 51
80.0989313568424564
  0
ARC
  5
C957
  8
0
 10
329.8715957510303269
 20
14.8134223126210802
 30
0.0
 40
0.0021266060179482
 50
45.4154920950874299
 51
78.4480056655878997
  0
ARC
  5
C958
  8
0
 10
329.8726034892122243
 20
14.8144447734655902
 30
0.0
 40
0.0006910007721679
 50
299.6535399989355142
 51
45.4154920950590792
  0
ARC
  5
C959
  8
0
 10
329.8684424178795211
 20
14.8217536727416501
 30
0.0
 40
0.0091013826459878
 50
280.1676984799551064
 51
299.6535399989355142
  0
ARC
  5
C95A
  8
0
 10
329.8319487665763177
 20
15.0252349994016896
 30
0.0
 40
0.2158293122655049
 50
277.4197924258351122
 51
280.1676984799551064
  0
ARC
  5
C95B
  8
0
 10
329.8414320680449805
 20
14.95241458376608
 30
0.0
 40
0.1423939941951817
 50
272.2766655068763839
 51
277.4197924258351122
  0
LINE
  5
C95C
  8
0
 10
329.8482824739684816
 20
14.8186060207370591
 30
0.0
 11
329.8422186052241045
 21
14.7755684339122304
 31
0.0
  0
ARC
  5
C95D
  8
0
 10
329.8223907392454066
 20
14.7783621216082395
 30
0.0
 40
0.0200237099512299
 50
291.4087493961278028
 51
351.9799870306712251
  0
ARC
  5
C95E
  8
0
 10
329.8171782428289021
 20
14.7916568683906906
 30
0.0
 40
0.0343037803607636
 50
272.3324229709965039
 51
291.4087493961278028
  0
ARC
  5
C95F
  8
0
 10
329.7908411679447909
 20
15.0966836288118404
 30
0.0
 40
0.3404336301320336
 50
269.6326660831845743
 51
274.6727312661604969
  0
ARC
  5
C960
  8
0
 10
329.7888313500665163
 20
14.4991478133330993
 30
0.0
 40
0.2609944112566529
 50
87.6888239991195064
 51
90.037923726980722
  0
ARC
  5
C961
  8
0
 10
329.7946565638357015
 20
14.6434808805063792
 30
0.0
 40
0.11654384048899
 50
84.571433298549394
 51
87.6888239991195064
  0
ARC
  5
C962
  8
0
 10
329.8032828581006015
 20
14.7342544594007592
 30
0.0
 40
0.0253613006140798
 50
79.1415996833333963
 51
84.571433298549394
  0
ARC
  5
C963
  8
0
 10
329.8072304112041024
 20
14.75483427087166
 30
0.0
 40
0.0044063056085359
 50
66.819527356106363
 51
79.1415996833333537
  0
ARC
  5
C964
  8
0
 10
329.8088292633128162
 20
14.7585681864019502
 30
0.0
 40
0.0003444768020906
 50
39.9502559557632821
 51
66.8195273561449454
  0
ARC
  5
C965
  8
0
 10
329.8089846447543891
 20
14.7586983371950708
 30
0.0
 40
0.000141788318608
 50
294.0720845444475913
 51
39.9502559558005501
  0
ARC
  5
C966
  8
0
 10
329.8068568590994118
 20
14.7634612860358292
 30
0.0
 40
0.0053584111201308
 50
284.1526908546767913
 51
294.0720845444474207
  0
ARC
  5
C967
  8
0
 10
329.8027560182143247
 20
14.7863144311734604
 30
0.0
 40
0.0285660756292739
 50
274.7946092754398251
 51
280.9189849085688024
  0
ARC
  5
C968
  8
0
 10
329.7931558084763992
 20
14.8970362491477299
 30
0.0
 40
0.1397032210559585
 50
271.4658114222777954
 51
274.9225822840239744
  0
ARC
  5
C969
  8
0
 10
329.7887661972765727
 20
15.0291805509963492
 30
0.0
 40
0.2719184369496319
 50
269.9773281266960225
 51
271.6781785158261187
  0
ARC
  5
C96A
  8
0
 10
329.7872602981005912
 20
13.8621684720899996
 30
0.0
 40
0.9582082246715264
 50
89.9163889503955005
 51
93.5556095010980471
  0
ARC
  5
C96B
  8
0
 10
329.7376504075514845
 20
14.6605653691801603
 30
0.0
 40
0.1582715105975382
 50
93.5556095010980471
 51
99.9010686431575436
  0
ARC
  5
C96C
  8
0
 10
329.7416581100238204
 20
14.6376047979017994
 30
0.0
 40
0.1815792241820003
 50
99.9010686431575436
 51
101.5519943344185947
  0
ARC
  5
C96D
  8
0
 10
329.7057214479102072
 20
14.8134223126210802
 30
0.0
 40
0.0021266060179482
 50
101.5519943344121003
 51
134.5845079049126127
  0
ARC
  5
C96E
  8
0
 10
329.7047137097284235
 20
14.8144447734655902
 30
0.0
 40
0.0006910007721679
 50
134.5845079049408923
 51
240.3464600010644858
  0
ARC
  5
C96F
  8
0
 10
329.7088747810611267
 20
14.8217536727416501
 30
0.0
 40
0.0091013826459878
 50
240.3464600010644006
 51
259.8323015200448936
  0
ARC
  5
C970
  8
0
 10
329.7453684323642733
 20
15.0252349994016896
 30
0.0
 40
0.2158293122655049
 50
259.8323015200448936
 51
262.5802075741650015
  0
ARC
  5
C971
  8
0
 10
329.7358851308956105
 20
14.95241458376608
 30
0.0
 40
0.1423939941951817
 50
262.5802075741650015
 51
267.7233344931236161
  0
LINE
  5
C972
  8
0
 10
329.7290347249719957
 20
14.8186060207370591
 30
0.0
 11
329.7350985937164864
 21
14.7755684339122304
 31
0.0
  0
ARC
  5
C973
  8
0
 10
329.7549264596951843
 20
14.7783621216082395
 30
0.0
 40
0.0200237099512299
 50
188.0200129693288886
 51
248.5912506038721972
  0
ARC
  5
C974
  8
0
 10
329.7601389561115752
 20
14.7916568683906906
 30
0.0
 40
0.0343037803607636
 50
248.5912506038721972
 51
267.6675770290036098
  0
ARC
  5
C975
  8
0
 10
329.7864760309956864
 20
15.0966836288118404
 30
0.0
 40
0.3404336301320336
 50
265.3272687338395031
 51
270.3673339168154257
  0
ARC
  5
C976
  8
0
 10
329.7884858488740178
 20
14.4991478133330993
 30
0.0
 40
0.2609944112566529
 50
89.9620762730192638
 51
92.3111760008805078
  0
ARC
  5
C977
  8
0
 10
329.7826606351048895
 20
14.6434808805063792
 30
0.0
 40
0.11654384048899
 50
92.3111760008805078
 51
95.428566701450606
  0
ARC
  5
C978
  8
0
 10
329.7740343408398758
 20
14.7342544594007592
 30
0.0
 40
0.0253613006140798
 50
95.428566701450606
 51
100.8584003166666037
  0
ARC
  5
C979
  8
0
 10
329.7700867877363748
 20
14.75483427087166
 30
0.0
 40
0.0044063056085359
 50
100.8584003166666037
 51
113.1804726438935944
  0
ARC
  5
C97A
  8
0
 10
329.7684879356277179
 20
14.7585681864019502
 30
0.0
 40
0.0003444768020906
 50
113.1804726438549977
 51
140.0497440442366894
  0
ARC
  5
C97B
  8
0
 10
329.7683325541862018
 20
14.7586983371950708
 30
0.0
 40
0.000141788318608
 50
140.0497440441994002
 51
245.9279154555524087
  0
ARC
  5
C97C
  8
0
 10
329.7704603398411791
 20
14.7634612860358292
 30
0.0
 40
0.0053584111201308
 50
245.927915455552494
 51
255.8473091453232087
  0
ARC
  5
C97D
  8
0
 10
329.7745611807262094
 20
14.7863144311734604
 30
0.0
 40
0.0285660756292739
 50
259.0810150914311976
 51
265.2053907245601749
  0
ARC
  5
C97E
  8
0
 10
329.7841613904640781
 20
14.8970362491477299
 30
0.0
 40
0.1397032210559585
 50
265.0774177159760256
 51
268.5341885777220909
  0
ARC
  5
C97F
  8
0
 10
329.7885510016639046
 20
15.0291805509963492
 30
0.0
 40
0.2719184369496319
 50
268.3218214841738245
 51
270.0226718733039775
  0
LINE
  5
C980
  8
0
 10
330.0905108160171721
 20
14.8213952027384792
 30
0.0
 11
330.0888976772673118
 21
14.7820342137730893
 31
0.0
  0
ARC
  5
C981
  8
0
 10
330.0692291488430783
 20
14.7828402927408291
 30
0.0
 40
0.0196850393364465
 50
275.6531498600390933
 51
357.6531497371460091
  0
LINE
  5
C982
  8
0
 10
330.0711682447146131
 20
14.7632509925777704
 30
0.0
 11
330.0033613214336015
 21
14.7565389546846895
 31
0.0
  0
ARC
  5
C983
  8
0
 10
330.0014222255603045
 20
14.7761282548656201
 30
0.0
 40
0.0196850393543982
 50
193.6531496059764095
 51
275.6531498600390933
  0
LINE
  5
C984
  8
0
 10
329.9822934370673124
 20
14.7714817265730893
 30
0.0
 11
329.9730437583335743
 21
14.8095607259863105
 31
0.0
  0
ARC
  5
C985
  8
0
 10
328.7833622822291204
 20
27.2070386957812289
 30
0.0
 40
12.4544290124492107
 50
274.8916609433892972
 51
276.8612438828183144
  0
LINE
  5
C986
  8
0
 10
329.7332003696781157
 20
14.7890408531399693
 30
0.0
 11
329.686435332734618
 21
14.7856053594318393
 31
0.0
  0
LINE
  5
C987
  8
0
 10
329.5712168333627119
 20
14.7778948014767693
 30
0.0
 11
329.3658597652882918
 21
14.7666660858030401
 31
0.0
  0
LINE
  5
C988
  8
0
 10
329.2346842562531037
 20
14.7613667520696605
 30
0.0
 11
329.2109430593891943
 21
14.7605421907074295
 31
0.0
  0
LINE
  5
C989
  8
0
 10
328.837419561667275
 20
14.7566209201730896
 30
0.0
 11
329.1245672157672857
 21
14.7566209201730896
 31
0.0
  0
LINE
  5
C98A
  8
0
 10
329.1245672157672857
 20
14.7566209201730896
 30
0.0
 11
329.1245672157672857
 21
14.7466209201730898
 31
0.0
  0
LINE
  5
C98B
  8
0
 10
329.1315549323264236
 20
14.7580949787725508
 30
0.0
 11
329.0798173992797047
 21
14.7566209201730896
 31
0.0
  0
ENDSEC
  0
EOF
