  0
SECTION
  2
HEADER
  9
$ACADVER
  1
AC1009
  9
$INSBASE
 10
329.3025514537462755
 20
15.5835083709121296
 30
0.0
  9
$EXTMIN
 10
327.6802478030704151
 20
13.9825180749240996
 30
-0.0000000349181948
  9
$EXTMAX
 10
330.9106807513521176
 20
17.184592148992909
 30
0.0000000814935746
  9
$LIMMIN
 10
0.0
 20
0.0
  9
$LIMMAX
 10
11.6929133858000007
 20
8.2677165353999982
  9
$ORTHOMODE
 70
     0
  9
$REGENMODE
 70
     1
  9
$FILLMODE
 70
     1
  9
$QTEXTMODE
 70
     0
  9
$MIRRTEXT
 70
     0
  9
$DRAGMODE
 70
     2
  9
$LTSCALE
 40
0.6431102362
  9
$OSMODE
 70
  4095
  9
$ATTMODE
 70
     1
  9
$TEXTSIZE
 40
0.2
  9
$TRACEWID
 40
0.05
  9
$TEXTSTYLE
  7
STANDARD
  9
$CLAYER
  8
0
  9
$CELTYPE
  6
BYLAYER
  9
$CECOLOR
 62
   256
  9
$DIMSCALE
 40
1.0
  9
$DIMASZ
 40
0.1875
  9
$DIMEXO
 40
0.0625
  9
$DIMDLI
 40
0.4443307087
  9
$DIMRND
 40
0.0
  9
$DIMDLE
 40
0.0
  9
$DIMEXE
 40
0.125
  9
$DIMTP
 40
0.01
  9
$DIMTM
 40
0.01
  9
$DIMTXT
 40
0.15625
  9
$DIMCEN
 40
0.1052362205
  9
$DIMTSZ
 40
0.0
  9
$DIMTOL
 70
     1
  9
$DIMLIM
 70
     0
  9
$DIMTIH
 70
     1
  9
$DIMTOH
 70
     1
  9
$DIMSE1
 70
     0
  9
$DIMSE2
 70
     0
  9
$DIMTAD
 70
     0
  9
$DIMZIN
 70
     0
  9
$DIMBLK
  1

  9
$DIMASO
 70
     1
  9
$DIMSHO
 70
     1
  9
$DIMPOST
  1
\X
  9
$DIMAPOST
  1

  9
$DIMALT
 70
     1
  9
$DIMALTD
 70
     2
  9
$DIMALTF
 40
25.3999999999999986
  9
$DIMLFAC
 40
1.0
  9
$DIMTOFL
 70
     0
  9
$DIMTVP
 40
0.0
  9
$DIMTIX
 70
     0
  9
$DIMSOXD
 70
     0
  9
$DIMSAH
 70
     0
  9
$DIMBLK1
  1

  9
$DIMBLK2
  1

  9
$DIMSTYLE
  2
STANDARD
  9
$DIMCLRD
 70
     0
  9
$DIMCLRE
 70
     0
  9
$DIMCLRT
 70
     0
  9
$DIMTFAC
 40
1.0
  9
$DIMGAP
 40
0.09
  9
$LUNITS
 70
     2
  9
$LUPREC
 70
     4
  9
$SKETCHINC
 40
0.1
  9
$FILLETRAD
 40
0.0
  9
$AUNITS
 70
     0
  9
$AUPREC
 70
     0
  9
$MENU
  1
.
  9
$ELEVATION
 40
0.0
  9
$PELEVATION
 40
0.0
  9
$THICKNESS
 40
0.0
  9
$LIMCHECK
 70
     0
  9
$BLIPMODE
 70
     0
  9
$CHAMFERA
 40
0.0
  9
$CHAMFERB
 40
0.0
  9
$SKPOLY
 70
     0
  9
$TDCREATE
 40
2458018.639108797069639
  9
$TDUPDATE
 40
2460201.742048610933125
  9
$TDINDWG
 40
0.4607865741
  9
$TDUSRTIMER
 40
0.4607865741
  9
$USRTIMER
 70
     1
  9
$ANGBASE
 50
0.0
  9
$ANGDIR
 70
     0
  9
$PDMODE
 70
     0
  9
$PDSIZE
 40
0.3125
  9
$PLINEWID
 40
0.0
  9
$COORDS
 70
     1
  9
$SPLFRAME
 70
     0
  9
$SPLINETYPE
 70
     6
  9
$SPLINESEGS
 70
     8
  9
$ATTDIA
 70
     1
  9
$ATTREQ
 70
     1
  9
$HANDLING
 70
     1
  9
$HANDSEED
  5
C05D
  9
$SURFTAB1
 70
     6
  9
$SURFTAB2
 70
     6
  9
$SURFTYPE
 70
     6
  9
$SURFU
 70
     6
  9
$SURFV
 70
     6
  9
$UCSNAME
  2

  9
$UCSORG
 10
0.0
 20
0.0
 30
0.0
  9
$UCSXDIR
 10
1.0
 20
0.0
 30
0.0
  9
$UCSYDIR
 10
0.0
 20
1.0
 30
0.0
  9
$PUCSNAME
  2

  9
$PUCSORG
 10
0.0
 20
0.0
 30
0.0
  9
$PUCSXDIR
 10
1.0
 20
0.0
 30
0.0
  9
$PUCSYDIR
 10
0.0
 20
1.0
 30
0.0
  9
$USERI1
 70
     0
  9
$USERI2
 70
     0
  9
$USERI3
 70
     0
  9
$USERI4
 70
     0
  9
$USERI5
 70
     0
  9
$USERR1
 40
0.0
  9
$USERR2
 40
0.0
  9
$USERR3
 40
0.0
  9
$USERR4
 40
0.0
  9
$USERR5
 40
0.0
  9
$WORLDVIEW
 70
     1
  9
$SHADEDGE
 70
     3
  9
$SHADEDIF
 70
    70
  9
$TILEMODE
 70
     1
  9
$MAXACTVP
 70
    64
  9
$PLIMCHECK
 70
     0
  9
$PEXTMIN
 10
1.0000000000000000E+20
 20
1.0000000000000000E+20
 30
1.0000000000000000E+20
  9
$PEXTMAX
 10
-1.0000000000000000E+20
 20
-1.0000000000000000E+20
 30
-1.0000000000000000E+20
  9
$PLIMMIN
 10
0.0
 20
0.0
  9
$PLIMMAX
 10
12.0
 20
9.0
  9
$UNITMODE
 70
     0
  9
$VISRETAIN
 70
     1
  9
$PLINEGEN
 70
     0
  9
$PSLTSCALE
 70
     1
  0
ENDSEC
  0
SECTION
  2
TABLES
  0
TABLE
  2
VPORT
 70
     1
  0
VPORT
  2
*ACTIVE
 70
     0
 10
0.0
 20
0.0
 11
1.0
 21
1.0
 12
233.9712032794735137
 22
8.5472231007356676
 13
0.0
 23
0.0
 14
1.0
 24
1.0
 15
0.0
 25
0.0
 16
-0.0000000000000142
 26
0.0
 36
39.3282560748450578
 17
95.3242609977377526
 27
7.0363320112228394
 37
0.0
 40
3.2274537893190249
 41
2.5251322751322749
 42
50.0
 43
0.0
 44
0.0
 50
0.0
 51
0.0
 71
     0
 72
   100
 73
     1
 74
     1
 75
     0
 76
     0
 77
     0
 78
     0
  0
ENDTAB
  0
TABLE
  2
LTYPE
 70
     2
  0
LTYPE
  2
CONTINUOUS
 70
     0
  3
Solid line
 72
    65
 73
     0
 40
0.0
  0
LTYPE
  2
PHANTOM2
 70
     0
  3
___ _ _ ___ _ _ ___ _ _ ___ _ _
 72
    65
 73
     6
 40
1.25
 49
0.625
 49
-0.125
 49
0.125
 49
-0.125
 49
0.125
 49
-0.125
  0
ENDTAB
  0
TABLE
  2
LAYER
 70
     2
  0
LAYER
  2
0
 70
     0
 62
   255
  6
CONTINUOUS
  0
LAYER
  2
DEFPOINTS
 70
     0
 62
     7
  6
CONTINUOUS
  0
ENDTAB
  0
TABLE
  2
STYLE
 70
     1
  0
STYLE
  2
STANDARD
 70
     0
 40
0.0
 41
0.8
 50
0.0
 71
     0
 42
0.2
  3
txt
  4

  0
ENDTAB
  0
TABLE
  2
VIEW
 70
     0
  0
ENDTAB
  0
TABLE
  2
UCS
 70
     0
  0
ENDTAB
  0
TABLE
  2
APPID
 70
    10
  0
APPID
  2
ACAD
 70
     0
  0
APPID
  2
ACAD_MLEADERVER
 70
     0
  0
APPID
  2
ACAD_DSTYLE_DIMJAG
 70
     0
  0
APPID
  2
ACAD_DSTYLE_DIMTALN
 70
     0
  0
APPID
  2
ACAD_NAV_VCDISPLAY
 70
     0
  0
APPID
  2
ACAD_EXEMPT_FROM_CAD_STANDARDS
 70
     0
  0
APPID
  2
ACAECLAYERSTANDARD
 70
     0
  0
APPID
  2
ACCMTRANSPARENCY
 70
     0
  0
APPID
  2
DCO15
 70
     0
  0
APPID
  2
ACDBATTR
 70
     0
  0
ENDTAB
  0
TABLE
  2
DIMSTYLE
 70
     1
  0
DIMSTYLE
  2
STANDARD
 70
     0
  3

  4

  5

  6

  7

 40
1.0
 41
0.1875
 42
0.0625
 43
0.38
 44
0.125
 45
0.0
 46
0.0
 47
0.01
 48
0.01
140
0.15625
141
0.09
142
0.0
143
25.3999999999999986
144
1.0
145
0.0
146
1.0
147
0.09
 71
     1
 72
     0
 73
     1
 74
     1
 75
     0
 76
     0
 77
     0
 78
     4
170
     0
171
     2
172
     0
173
     0
174
     0
175
     0
176
     0
177
     0
178
     0
  0
ENDTAB
  0
ENDSEC
  0
SECTION
  2
BLOCKS
  0
BLOCK
  8
0
  2
$MODEL_SPACE
 70
     0
 10
0.0
 20
0.0
 30
0.0
  3
$MODEL_SPACE
  1

  0
ENDBLK
  5
21
  8
0
  0
BLOCK
 67
     1
  8
0
  2
$PAPER_SPACE
 70
     0
 10
0.0
 20
0.0
 30
0.0
  3
$PAPER_SPACE
  1

  0
ENDBLK
  5
1D
 67
     1
  8
0
  0
BLOCK
  8
0
  2
_FILLED
 70
     0
 10
0.0
 20
0.0
 30
0.0
  3
_FILLED
  1

  0
SOLID
  5
A58D
  8
0
  6
BYBLOCK
 62
     0
 10
0.0
 20
0.0
 30
0.0
 11
-1.0
 21
0.1666666667
 31
0.0
 12
-1.0
 22
-0.1666666667
 32
0.0
 13
-1.0
 23
-0.1666666667
 33
0.0
  0
ENDBLK
  5
A58E
  8
0
  6
BYBLOCK
 62
     0
  0
ENDSEC
  0
SECTION
  2
ENTITIES
  0
ATTDEF
  5
7A6E
  8
DEFPOINTS
 10
329.3006042393287771
 20
15.5884004351047594
 30
0.0
 40
0.001
  1
P80261-00
  3

  2
MODELNUMBER
 70
     0
1001
ACDBATTR
1070
     0
1070
     1
  0
ATTDEF
  5
7A6F
  8
DEFPOINTS
 10
329.3006042393287771
 20
15.5867337684380995
 30
0.0
 40
0.001
  1

  3

  2
TRADENAME
 70
     0
1001
ACDBATTR
1070
     0
1070
     1
  0
ATTDEF
  5
7A70
  8
DEFPOINTS
 10
329.3006042393287771
 20
15.5850671017714308
 30
0.0
 40
0.001
  1
BODY SPRAY
  3

  2
PRODUCT
 70
     0
1001
ACDBATTR
1070
     0
1070
     1
  0
CIRCLE
  5
BE21
  8
0
 10
329.3025514537462755
 20
15.5835083709121296
 30
0.0
 40
0.4119999999999999
  0
CIRCLE
  5
BE22
  8
0
 10
329.3025514537462755
 20
15.5835083709121296
 30
0.0
 40
1.4916670233279521
  0
CIRCLE
  5
BE23
  8
0
 10
329.3025514537462755
 20
15.5835083709121296
 30
0.0
 40
1.552999999999999
  0
CIRCLE
  5
BE24
  8
0
 10
329.3025514537462755
 20
15.5835083709121296
 30
0.0
 40
1.599999999999999
  0
CIRCLE
  5
BE25
  8
0
 10
328.771879520117011
 20
16.3097362957565792
 30
0.0
 40
0.0343785024192031
  0
CIRCLE
  5
BE26
  8
0
 10
328.771879520117011
 20
16.3097362957565792
 30
0.0
 40
0.0213942482988889
  0
ARC
  5
BE27
  8
0
 10
328.7784947532384763
 20
16.3044476929636701
 30
0.0
 40
0.0213942482988889
 50
62.7754242357226886
 51
219.9428218673151036
  0
CIRCLE
  5
BE28
  8
0
 10
328.771879520117011
 20
16.3097362957565792
 30
0.0
 40
0.073555920427525
  0
CIRCLE
  5
BE29
  8
0
 10
328.771879520117011
 20
16.3097362957565792
 30
0.0
 40
0.0811506019246869
  0
LINE
  5
BE2A
  8
0
 10
328.8173594502180777
 20
16.2425276939951218
 30
0.0
 11
328.8131030975179101
 21
16.2488175786311189
 31
0.0
  0
LINE
  5
BE2B
  8
0
 10
328.7306559427161119
 20
16.3706550128820396
 30
0.0
 11
328.7263995900157738
 21
16.3769448975180403
 31
0.0
  0
CIRCLE
  5
BE2C
  8
0
 10
329.3025514537462755
 20
16.1219488391477412
 30
0.0
 40
0.0343785024192031
  0
CIRCLE
  5
BE2D
  8
0
 10
329.3025514537462755
 20
16.1219488391477412
 30
0.0
 40
0.0213942482988889
  0
ARC
  5
BE2E
  8
0
 10
329.3091666868677976
 20
16.1166602363548286
 30
0.0
 40
0.0213942482988889
 50
62.7754242357226886
 51
219.9428218673151036
  0
CIRCLE
  5
BE2F
  8
0
 10
329.3025514537462755
 20
16.1219488391477412
 30
0.0
 40
0.073555920427525
  0
CIRCLE
  5
BE30
  8
0
 10
329.3025514537462755
 20
16.1219488391477412
 30
0.0
 40
0.0811506019246869
  0
LINE
  5
BE31
  8
0
 10
329.3480313838476263
 20
16.0547402373862909
 30
0.0
 11
329.3437750311472882
 21
16.0610301220222809
 31
0.0
  0
LINE
  5
BE32
  8
0
 10
329.2613278763453764
 20
16.1828675562732087
 30
0.0
 11
329.2570715236450951
 21
16.1891574409091987
 31
0.0
  0
CIRCLE
  5
BE33
  8
0
 10
329.3025799956462834
 20
16.481571425412131
 30
0.0
 40
0.0343785024192031
  0
CIRCLE
  5
BE34
  8
0
 10
329.3025799956462834
 20
16.481571425412131
 30
0.0
 40
0.0213942482988889
  0
ARC
  5
BE35
  8
0
 10
329.3091952287678055
 20
16.4762828226192184
 30
0.0
 40
0.0213942482988889
 50
62.7754242357226886
 51
219.9428218673151036
  0
CIRCLE
  5
BE36
  8
0
 10
329.3025799956462834
 20
16.481571425412131
 30
0.0
 40
0.073555920427525
  0
CIRCLE
  5
BE37
  8
0
 10
329.3025799956462834
 20
16.481571425412131
 30
0.0
 40
0.0811506019246869
  0
LINE
  5
BE38
  8
0
 10
329.3480599257475205
 20
16.41436282365067
 30
0.0
 11
329.3438035730471825
 21
16.42065270828666
 31
0.0
  0
LINE
  5
BE39
  8
0
 10
329.2613564182453842
 20
16.5424901425375914
 30
0.0
 11
329.2571000655452167
 21
16.5487800271735885
 31
0.0
  0
CIRCLE
  5
BE3A
  8
0
 10
328.9158854090417208
 20
16.7735543899893287
 30
0.0
 40
0.0343785024192031
  0
CIRCLE
  5
BE3B
  8
0
 10
328.9158854090417208
 20
16.7735543899893287
 30
0.0
 40
0.0213942482988889
  0
ARC
  5
BE3C
  8
0
 10
328.9225006421632997
 20
16.7682657871964196
 30
0.0
 40
0.0213942482988889
 50
62.7754242357226886
 51
219.9428218673151036
  0
CIRCLE
  5
BE3D
  8
0
 10
328.9158854090417208
 20
16.7735543899893287
 30
0.0
 40
0.073555920427525
  0
CIRCLE
  5
BE3E
  8
0
 10
328.9158854090417208
 20
16.7735543899893287
 30
0.0
 40
0.0811506019246869
  0
LINE
  5
BE3F
  8
0
 10
328.9613653391429011
 20
16.7063457882278783
 30
0.0
 11
328.9571089864426199
 21
16.7126356728638683
 31
0.0
  0
LINE
  5
BE40
  8
0
 10
328.8746618316408217
 20
16.8344731071147891
 30
0.0
 11
328.8704054789404836
 21
16.8407629917507897
 31
0.0
  0
CIRCLE
  5
BE41
  8
0
 10
328.2886298365183961
 20
16.320167122912121
 30
0.0
 40
0.0343785024192031
  0
CIRCLE
  5
BE42
  8
0
 10
328.2886298365183961
 20
16.320167122912121
 30
0.0
 40
0.0213942482988889
  0
ARC
  5
BE43
  8
0
 10
328.2952450696399183
 20
16.3148785201192084
 30
0.0
 40
0.0213942482988889
 50
62.7754242357226886
 51
219.9428218673151036
  0
CIRCLE
  5
BE44
  8
0
 10
328.2886298365183961
 20
16.320167122912121
 30
0.0
 40
0.073555920427525
  0
CIRCLE
  5
BE45
  8
0
 10
328.2886298365183961
 20
16.320167122912121
 30
0.0
 40
0.0811506019246869
  0
LINE
  5
BE46
  8
0
 10
328.3341097666195196
 20
16.25295852115066
 30
0.0
 11
328.3298534139191815
 21
16.25924840578665
 31
0.0
  0
LINE
  5
BE47
  8
0
 10
328.247406259117497
 20
16.3810858400375814
 30
0.0
 11
328.2431499064172158
 21
16.3873757246735714
 31
0.0
  0
CIRCLE
  5
BE48
  8
0
 10
328.4492795596103747
 20
15.8628543038837009
 30
0.0
 40
0.0343785024192031
  0
CIRCLE
  5
BE49
  8
0
 10
328.4492795596103747
 20
15.8628543038837009
 30
0.0
 40
0.0213942482988889
  0
ARC
  5
BE4A
  8
0
 10
328.4558947927318968
 20
15.85756570109079
 30
0.0
 40
0.0213942482988889
 50
62.7754242357226886
 51
219.9428218673151036
  0
CIRCLE
  5
BE4B
  8
0
 10
328.4492795596103747
 20
15.8628543038837009
 30
0.0
 40
0.073555920427525
  0
CIRCLE
  5
BE4C
  8
0
 10
328.4492795596103747
 20
15.8628543038837009
 30
0.0
 40
0.0811506019246869
  0
LINE
  5
BE4D
  8
0
 10
328.4947594897114982
 20
15.7956457021222398
 30
0.0
 11
328.4905031370112738
 21
15.8019355867582405
 31
0.0
  0
LINE
  5
BE4E
  8
0
 10
328.4080559822094756
 20
15.9237730210091595
 30
0.0
 11
328.4037996295091943
 21
15.9300629056451601
 31
0.0
  0
CIRCLE
  5
BE4F
  8
0
 10
328.7904644206462876
 20
15.7498847477121302
 30
0.0
 40
0.0343785024192031
  0
CIRCLE
  5
BE50
  8
0
 10
328.7904644206462876
 20
15.7498847477121302
 30
0.0
 40
0.0213942482988889
  0
ARC
  5
BE51
  8
0
 10
328.7970796537678098
 20
15.7445961449192193
 30
0.0
 40
0.0213942482988889
 50
62.7754242357226886
 51
219.9428218673151036
  0
CIRCLE
  5
BE52
  8
0
 10
328.7904644206462876
 20
15.7498847477121302
 30
0.0
 40
0.073555920427525
  0
CIRCLE
  5
BE53
  8
0
 10
328.7904644206462876
 20
15.7498847477121302
 30
0.0
 40
0.0811506019246869
  0
LINE
  5
BE54
  8
0
 10
328.8359443507475248
 20
15.6826761459506692
 30
0.0
 11
328.8316879980471867
 21
15.6889660305866698
 31
0.0
  0
LINE
  5
BE55
  8
0
 10
328.7492408432453885
 20
15.8108034648375906
 30
0.0
 11
328.744984490545221
 21
15.8170933494735806
 31
0.0
  0
CIRCLE
  5
BE56
  8
0
 10
328.049274484046407
 20
15.5835083709121296
 30
0.0
 40
0.0343785024192031
  0
CIRCLE
  5
BE57
  8
0
 10
328.049274484046407
 20
15.5835083709121296
 30
0.0
 40
0.0213942482988889
  0
ARC
  5
BE58
  8
0
 10
328.0558897171678723
 20
15.5782197681192205
 30
0.0
 40
0.0213942482988889
 50
62.7754242357226886
 51
219.9428218673151036
  0
CIRCLE
  5
BE59
  8
0
 10
328.049274484046407
 20
15.5835083709121296
 30
0.0
 40
0.073555920427525
  0
CIRCLE
  5
BE5A
  8
0
 10
328.049274484046407
 20
15.5835083709121296
 30
0.0
 40
0.0811506019246869
  0
LINE
  5
BE5B
  8
0
 10
328.0947544141474737
 20
15.5162997691506703
 30
0.0
 11
328.0904980614473061
 21
15.5225896537866692
 31
0.0
  0
LINE
  5
BE5C
  8
0
 10
328.0080509066455079
 20
15.64442708803759
 30
0.0
 11
328.0037945539452267
 21
15.6507169726735906
 31
0.0
  0
CIRCLE
  5
BE5D
  8
0
 10
328.4517498753673976
 20
15.30976969321447
 30
0.0
 40
0.0343785024192031
  0
CIRCLE
  5
BE5E
  8
0
 10
328.4517498753673976
 20
15.30976969321447
 30
0.0
 40
0.0213942482988889
  0
ARC
  5
BE5F
  8
0
 10
328.4583651084889766
 20
15.3044810904215591
 30
0.0
 40
0.0213942482988889
 50
62.7754242357226886
 51
219.9428218673151036
  0
CIRCLE
  5
BE60
  8
0
 10
328.4517498753673976
 20
15.30976969321447
 30
0.0
 40
0.073555920427525
  0
CIRCLE
  5
BE61
  8
0
 10
328.4517498753673976
 20
15.30976969321447
 30
0.0
 40
0.0811506019246869
  0
LINE
  5
BE62
  8
0
 10
328.497229805468578
 20
15.2425610914530107
 30
0.0
 11
328.4929734527682967
 21
15.2488509760890096
 31
0.0
  0
LINE
  5
BE63
  8
0
 10
328.4105262979664985
 20
15.3706884103399304
 30
0.0
 11
328.4062699452662741
 21
15.3769782949759293
 31
0.0
  0
CIRCLE
  5
BE64
  8
0
 10
328.2902382822887262
 20
14.8480206412100895
 30
0.0
 40
0.0343785024192031
  0
CIRCLE
  5
BE65
  8
0
 10
328.2902382822887262
 20
14.8480206412100895
 30
0.0
 40
0.0213942482988889
  0
ARC
  5
BE66
  8
0
 10
328.2968535154101914
 20
14.8427320384171804
 30
0.0
 40
0.0213942482988889
 50
62.7754242357226886
 51
219.9428218673151036
  0
CIRCLE
  5
BE67
  8
0
 10
328.2902382822887262
 20
14.8480206412100895
 30
0.0
 40
0.073555920427525
  0
CIRCLE
  5
BE68
  8
0
 10
328.2902382822887262
 20
14.8480206412100895
 30
0.0
 40
0.0811506019246869
  0
LINE
  5
BE69
  8
0
 10
328.3357182123899065
 20
14.7808120394486302
 30
0.0
 11
328.3314618596896253
 21
14.7871019240846309
 31
0.0
  0
LINE
  5
BE6A
  8
0
 10
328.2490147048878271
 20
14.9089393583355498
 30
0.0
 11
328.244758352187489
 21
14.9152292429715505
 31
0.0
  0
CIRCLE
  5
BE6B
  8
0
 10
328.7796219007315131
 20
14.8767551703085008
 30
0.0
 40
0.0343785024192031
  0
CIRCLE
  5
BE6C
  8
0
 10
328.7796219007315131
 20
14.8767551703085008
 30
0.0
 40
0.0213942482988889
  0
ARC
  5
BE6D
  8
0
 10
328.7862371338529783
 20
14.8714665675155899
 30
0.0
 40
0.0213942482988889
 50
62.7754242357226886
 51
219.9428218673151036
  0
CIRCLE
  5
BE6E
  8
0
 10
328.7796219007315131
 20
14.8767551703085008
 30
0.0
 40
0.073555920427525
  0
CIRCLE
  5
BE6F
  8
0
 10
328.7796219007315131
 20
14.8767551703085008
 30
0.0
 40
0.0811506019246869
  0
LINE
  5
BE70
  8
0
 10
328.8251018308326934
 20
14.8095465685470504
 30
0.0
 11
328.8208454781325258
 21
14.8158364531830404
 31
0.0
  0
LINE
  5
BE71
  8
0
 10
328.7383983233306139
 20
14.9376738874339594
 30
0.0
 11
328.7341419706303896
 21
14.9439637720699601
 31
0.0
  0
CIRCLE
  5
BE72
  8
0
 10
328.986057922146415
 20
15.1479098478121301
 30
0.0
 40
0.0343785024192031
  0
CIRCLE
  5
BE73
  8
0
 10
328.986057922146415
 20
15.1479098478121301
 30
0.0
 40
0.0213942482988889
  0
ARC
  5
BE74
  8
0
 10
328.9926731552678802
 20
15.1426212450192192
 30
0.0
 40
0.0213942482988889
 50
62.7754242357226886
 51
219.9428218673151036
  0
CIRCLE
  5
BE75
  8
0
 10
328.986057922146415
 20
15.1479098478121301
 30
0.0
 40
0.073555920427525
  0
CIRCLE
  5
BE76
  8
0
 10
328.986057922146415
 20
15.1479098478121301
 30
0.0
 40
0.0811506019246869
  0
LINE
  5
BE77
  8
0
 10
329.0315378522474816
 20
15.0807012460506709
 30
0.0
 11
329.0272814995473141
 21
15.0869911306866697
 31
0.0
  0
LINE
  5
BE78
  8
0
 10
328.9448343447455159
 20
15.2088285649375905
 30
0.0
 11
328.9405779920451778
 21
15.2151184495735894
 31
0.0
  0
CIRCLE
  5
BE79
  8
0
 10
328.9123308134015815
 20
14.4076936416700097
 30
0.0
 40
0.0343785024192031
  0
CIRCLE
  5
BE7A
  8
0
 10
328.9123308134015815
 20
14.4076936416700097
 30
0.0
 40
0.0213942482988889
  0
ARC
  5
BE7B
  8
0
 10
328.9189460465232173
 20
14.4024050388771006
 30
0.0
 40
0.0213942482988889
 50
62.7754242357226886
 51
219.9428218673151036
  0
CIRCLE
  5
BE7C
  8
0
 10
328.9123308134015815
 20
14.4076936416700097
 30
0.0
 40
0.073555920427525
  0
CIRCLE
  5
BE7D
  8
0
 10
328.9123308134015815
 20
14.4076936416700097
 30
0.0
 40
0.0811506019246869
  0
LINE
  5
BE7E
  8
0
 10
328.9578107435028187
 20
14.3404850399085504
 30
0.0
 11
328.9535543908025943
 21
14.3467749245445493
 31
0.0
  0
LINE
  5
BE7F
  8
0
 10
328.8711072360006824
 20
14.46861235879547
 30
0.0
 11
328.8668508833004012
 21
14.4749022434314707
 31
0.0
  0
CIRCLE
  5
BE80
  8
0
 10
329.3025746740464115
 20
14.6920995481121306
 30
0.0
 40
0.0343785024192031
  0
CIRCLE
  5
BE81
  8
0
 10
329.3025746740464115
 20
14.6920995481121306
 30
0.0
 40
0.0213942482988889
  0
ARC
  5
BE82
  8
0
 10
329.3091899071678768
 20
14.6868109453192197
 30
0.0
 40
0.0213942482988889
 50
62.7754242357226886
 51
219.9428218673151036
  0
CIRCLE
  5
BE83
  8
0
 10
329.3025746740464115
 20
14.6920995481121306
 30
0.0
 40
0.073555920427525
  0
CIRCLE
  5
BE84
  8
0
 10
329.3025746740464115
 20
14.6920995481121306
 30
0.0
 40
0.0811506019246869
  0
LINE
  5
BE85
  8
0
 10
329.3480546041474781
 20
14.6248909463506696
 30
0.0
 11
329.3437982514471969
 21
14.6311808309866702
 31
0.0
  0
LINE
  5
BE86
  8
0
 10
329.2613510966455124
 20
14.7530182652375892
 30
0.0
 11
329.2570947439451743
 21
14.7593081498735899
 31
0.0
  0
CIRCLE
  5
BE87
  8
0
 10
329.6874079717463815
 20
14.3990451379121307
 30
0.0
 40
0.0343785024192031
  0
CIRCLE
  5
BE88
  8
0
 10
329.6874079717463815
 20
14.3990451379121307
 30
0.0
 40
0.0213942482988889
  0
ARC
  5
BE89
  8
0
 10
329.6940232048679036
 20
14.3937565351192198
 30
0.0
 40
0.0213942482988889
 50
62.7754242357226886
 51
219.9428218673151036
  0
CIRCLE
  5
BE8A
  8
0
 10
329.6874079717463815
 20
14.3990451379121307
 30
0.0
 40
0.073555920427525
  0
CIRCLE
  5
BE8B
  8
0
 10
329.6874079717463815
 20
14.3990451379121307
 30
0.0
 40
0.0811506019246869
  0
LINE
  5
BE8C
  8
0
 10
329.7328879018476187
 20
14.3318365361506697
 30
0.0
 11
329.7286315491472806
 21
14.3381264207866703
 31
0.0
  0
LINE
  5
BE8D
  8
0
 10
329.6461843943454255
 20
14.4599638550375893
 30
0.0
 11
329.6419280416452011
 21
14.46625373967359
 31
0.0
  0
CIRCLE
  5
BE8E
  8
0
 10
329.6165868780462915
 20
15.1513866801121306
 30
0.0
 40
0.0343785024192031
  0
CIRCLE
  5
BE8F
  8
0
 10
329.6165868780462915
 20
15.1513866801121306
 30
0.0
 40
0.0213942482988889
  0
ARC
  5
BE90
  8
0
 10
329.6232021111679273
 20
15.1460980773192198
 30
0.0
 40
0.0213942482988889
 50
62.7754242357226886
 51
219.9428218673151036
  0
CIRCLE
  5
BE91
  8
0
 10
329.6165868780462915
 20
15.1513866801121306
 30
0.0
 40
0.073555920427525
  0
CIRCLE
  5
BE92
  8
0
 10
329.6165868780462915
 20
15.1513866801121306
 30
0.0
 40
0.0811506019246869
  0
LINE
  5
BE93
  8
0
 10
329.6620668081474719
 20
15.0841780783506696
 30
0.0
 11
329.6578104554471906
 21
15.0904679629866703
 31
0.0
  0
LINE
  5
BE94
  8
0
 10
329.5753633006455061
 20
15.2123053972375892
 30
0.0
 11
329.5711069479452249
 21
15.2185952818735792
 31
0.0
  0
CIRCLE
  5
BE95
  8
0
 10
329.8291338981783269
 20
14.8652229442736203
 30
0.0
 40
0.0343785024192031
  0
CIRCLE
  5
BE96
  8
0
 10
329.8291338981783269
 20
14.8652229442736203
 30
0.0
 40
0.0213942482988889
  0
ARC
  5
BE97
  8
0
 10
329.8357491312997922
 20
14.8599343414807095
 30
0.0
 40
0.0213942482988889
 50
62.7754242357226886
 51
219.9428218673151036
  0
CIRCLE
  5
BE98
  8
0
 10
329.8291338981783269
 20
14.8652229442736203
 30
0.0
 40
0.073555920427525
  0
CIRCLE
  5
BE99
  8
0
 10
329.8291338981783269
 20
14.8652229442736203
 30
0.0
 40
0.0811506019246869
  0
LINE
  5
BE9A
  8
0
 10
329.8746138282795073
 20
14.7980143425121593
 30
0.0
 11
329.870357475579226
 21
14.80430422714816
 31
0.0
  0
LINE
  5
BE9B
  8
0
 10
329.7879103207774278
 20
14.9261416613990807
 30
0.0
 11
329.7836539680770898
 21
14.9324315460350707
 31
0.0
  0
CIRCLE
  5
BE9C
  8
0
 10
330.3125857689462919
 20
14.8498444375121306
 30
0.0
 40
0.0343785024192031
  0
CIRCLE
  5
BE9D
  8
0
 10
330.3125857689462919
 20
14.8498444375121306
 30
0.0
 40
0.0213942482988889
  0
ARC
  5
BE9E
  8
0
 10
330.3192010020679277
 20
14.8445558347192197
 30
0.0
 40
0.0213942482988889
 50
62.7754242357226886
 51
219.9428218673151036
  0
CIRCLE
  5
BE9F
  8
0
 10
330.3125857689462919
 20
14.8498444375121306
 30
0.0
 40
0.073555920427525
  0
CIRCLE
  5
BEA0
  8
0
 10
330.3125857689462919
 20
14.8498444375121306
 30
0.0
 40
0.0811506019246869
  0
LINE
  5
BEA1
  8
0
 10
330.3580656990474722
 20
14.7826358357506695
 30
0.0
 11
330.3538093463473047
 21
14.7889257203866702
 31
0.0
  0
LINE
  5
BEA2
  8
0
 10
330.2713621915453928
 20
14.9107631546375892
 30
0.0
 11
330.2671058388451115
 21
14.9170530392735898
 31
0.0
  0
CIRCLE
  5
BEA3
  8
0
 10
330.1503244540464266
 20
15.3080258043121304
 30
0.0
 40
0.0343785024192031
  0
CIRCLE
  5
BEA4
  8
0
 10
330.1503244540464266
 20
15.3080258043121304
 30
0.0
 40
0.0213942482988889
  0
ARC
  5
BEA5
  8
0
 10
330.1569396871678919
 20
15.3027372015192196
 30
0.0
 40
0.0213942482988889
 50
62.7754242357226886
 51
219.9428218673151036
  0
CIRCLE
  5
BEA6
  8
0
 10
330.1503244540464266
 20
15.3080258043121304
 30
0.0
 40
0.073555920427525
  0
CIRCLE
  5
BEA7
  8
0
 10
330.1503244540464266
 20
15.3080258043121304
 30
0.0
 40
0.0811506019246869
  0
LINE
  5
BEA8
  8
0
 10
330.1958043841476069
 20
15.2408172025506694
 30
0.0
 11
330.1915480314473257
 21
15.2471070871866701
 31
0.0
  0
LINE
  5
BEA9
  8
0
 10
330.1091008766455275
 20
15.3689445214375908
 30
0.0
 11
330.1048445239451894
 21
15.3752344060735808
 31
0.0
  0
CIRCLE
  5
BEAA
  8
0
 10
330.5485277631441932
 20
15.5835106849312499
 30
0.0
 40
0.0343785024192031
  0
CIRCLE
  5
BEAB
  8
0
 10
330.5485277631441932
 20
15.5835106849312499
 30
0.0
 40
0.0213942482988889
  0
ARC
  5
BEAC
  8
0
 10
330.5551429962657153
 20
15.5782220821383408
 30
0.0
 40
0.0213942482988889
 50
62.7754242357226886
 51
219.9428218673151036
  0
CIRCLE
  5
BEAD
  8
0
 10
330.5485277631441932
 20
15.5835106849312499
 30
0.0
 40
0.073555920427525
  0
CIRCLE
  5
BEAE
  8
0
 10
330.5485277631441932
 20
15.5835106849312499
 30
0.0
 40
0.0811506019246869
  0
LINE
  5
BEAF
  8
0
 10
330.5940076932453735
 20
15.5163020831697906
 30
0.0
 11
330.5897513405450923
 21
15.5225919678057807
 31
0.0
  0
LINE
  5
BEB0
  8
0
 10
330.5073041857432941
 20
15.6444294020567103
 30
0.0
 11
330.5030478330430128
 21
15.6507192866927003
 31
0.0
  0
CIRCLE
  5
BEB1
  8
0
 10
329.7951796524870929
 20
15.74355225237829
 30
0.0
 40
0.0343785024192031
  0
CIRCLE
  5
BEB2
  8
0
 10
329.7951796524870929
 20
15.74355225237829
 30
0.0
 40
0.0213942482988889
  0
ARC
  5
BEB3
  8
0
 10
329.801794885608615
 20
15.7382636495853792
 30
0.0
 40
0.0213942482988889
 50
62.7754242357226886
 51
219.9428218673151036
  0
CIRCLE
  5
BEB4
  8
0
 10
329.7951796524870929
 20
15.74355225237829
 30
0.0
 40
0.073555920427525
  0
CIRCLE
  5
BEB5
  8
0
 10
329.7951796524870929
 20
15.74355225237829
 30
0.0
 40
0.0811506019246869
  0
LINE
  5
BEB6
  8
0
 10
329.8406595825882732
 20
15.6763436506168397
 30
0.0
 11
329.8364032298881057
 21
15.6826335352528297
 31
0.0
  0
LINE
  5
BEB7
  8
0
 10
329.7539560750861938
 20
15.8044709695037593
 30
0.0
 11
329.7496997223859125
 21
15.8107608541397493
 31
0.0
  0
CIRCLE
  5
BEB8
  8
0
 10
330.1697782225620017
 20
15.8653162226351601
 30
0.0
 40
0.0343785024192031
  0
CIRCLE
  5
BEB9
  8
0
 10
330.1697782225620017
 20
15.8653162226351601
 30
0.0
 40
0.0213942482988889
  0
ARC
  5
BEBA
  8
0
 10
330.1763934556835238
 20
15.8600276198422403
 30
0.0
 40
0.0213942482988889
 50
62.7754242357226886
 51
219.9428218673151036
  0
CIRCLE
  5
BEBB
  8
0
 10
330.1697782225620017
 20
15.8653162226351601
 30
0.0
 40
0.073555920427525
  0
CIRCLE
  5
BEBC
  8
0
 10
330.1697782225620017
 20
15.8653162226351601
 30
0.0
 40
0.0811506019246869
  0
LINE
  5
BEBD
  8
0
 10
330.215258152663182
 20
15.7981076208737008
 30
0.0
 11
330.2110017999629008
 21
15.8043975055096908
 31
0.0
  0
LINE
  5
BEBE
  8
0
 10
330.1285546451611026
 20
15.9262349397606204
 30
0.0
 11
330.1242982924608214
 21
15.9325248243966104
 31
0.0
  0
CIRCLE
  5
BEBF
  8
0
 10
329.8304427612463883
 20
16.3100398674121294
 30
0.0
 40
0.0343785024192031
  0
CIRCLE
  5
BEC0
  8
0
 10
329.8304427612463883
 20
16.3100398674121294
 30
0.0
 40
0.0213942482988889
  0
ARC
  5
BEC1
  8
0
 10
329.8370579943679104
 20
16.3047512646192203
 30
0.0
 40
0.0213942482988889
 50
62.7754242357226886
 51
219.9428218673151036
  0
CIRCLE
  5
BEC2
  8
0
 10
329.8304427612463883
 20
16.3100398674121294
 30
0.0
 40
0.073555920427525
  0
CIRCLE
  5
BEC3
  8
0
 10
329.8304427612463883
 20
16.3100398674121294
 30
0.0
 40
0.0811506019246869
  0
LINE
  5
BEC4
  8
0
 10
329.8759226913476255
 20
16.2428312656506684
 30
0.0
 11
329.8716663386472874
 21
16.249121150286669
 31
0.0
  0
LINE
  5
BEC5
  8
0
 10
329.7892191838453755
 20
16.3709585845375898
 30
0.0
 11
329.7849628311452079
 21
16.3772484691735905
 31
0.0
  0
CIRCLE
  5
BEC6
  8
0
 10
330.3035681595463871
 20
16.3107895790121304
 30
0.0
 40
0.0343785024192031
  0
CIRCLE
  5
BEC7
  8
0
 10
330.3035681595463871
 20
16.3107895790121304
 30
0.0
 40
0.0213942482988889
  0
ARC
  5
BEC8
  8
0
 10
330.3101833926679092
 20
16.3055009762192213
 30
0.0
 40
0.0213942482988889
 50
62.7754242357226886
 51
219.9428218673151036
  0
CIRCLE
  5
BEC9
  8
0
 10
330.3035681595463871
 20
16.3107895790121304
 30
0.0
 40
0.073555920427525
  0
CIRCLE
  5
BECA
  8
0
 10
330.3035681595463871
 20
16.3107895790121304
 30
0.0
 40
0.0811506019246869
  0
LINE
  5
BECB
  8
0
 10
330.3490480896476242
 20
16.2435809772506694
 30
0.0
 11
330.3447917369472862
 21
16.2498708618866701
 31
0.0
  0
LINE
  5
BECC
  8
0
 10
330.2623445821453743
 20
16.3717082961375908
 30
0.0
 11
330.2580882294452067
 21
16.3779981807735915
 31
0.0
  0
CIRCLE
  5
BECD
  8
0
 10
329.6900814573157277
 20
16.7761675374119292
 30
0.0
 40
0.0343785024192031
  0
CIRCLE
  5
BECE
  8
0
 10
329.6900814573157277
 20
16.7761675374119292
 30
0.0
 40
0.0213942482988889
  0
ARC
  5
BECF
  8
0
 10
329.696696690437193
 20
16.7708789346190308
 30
0.0
 40
0.0213942482988889
 50
62.7754242357226886
 51
219.9428218673151036
  0
CIRCLE
  5
BED0
  8
0
 10
329.6900814573157277
 20
16.7761675374119292
 30
0.0
 40
0.073555920427525
  0
CIRCLE
  5
BED1
  8
0
 10
329.6900814573157277
 20
16.7761675374119292
 30
0.0
 40
0.0811506019246869
  0
LINE
  5
BED2
  8
0
 10
329.7355613874167943
 20
16.7089589356504788
 30
0.0
 11
329.7313050347166268
 21
16.7152488202864689
 31
0.0
  0
LINE
  5
BED3
  8
0
 10
329.6488578799147717
 20
16.8370862545373896
 30
0.0
 11
329.6446015272144905
 21
16.8433761391733903
 31
0.0
  0
ENDSEC
  0
EOF
