  0
SECTION
  2
HEADER
  9
$ACADVER
  1
AC1009
  9
$INSBASE
 10
6258.8368285533451854
 20
177.6070724762344923
 30
0.0
  9
$EXTMIN
 10
6256.9639142066444037
 20
174.2800724762344942
 30
0.0
  9
$EXTMAX
 10
6260.7097429000450575
 20
177.6120283430587961
 30
0.0
  9
$LIMMIN
 10
0.0
 20
0.0
  9
$LIMMAX
 10
11.6929133858000007
 20
8.2677165353999982
  9
$ORTHOMODE
 70
     0
  9
$REGENMODE
 70
     1
  9
$FILLMODE
 70
     1
  9
$QTEXTMODE
 70
     0
  9
$MIRRTEXT
 70
     0
  9
$DRAGMODE
 70
     2
  9
$LTSCALE
 40
0.6431102362
  9
$OSMODE
 70
  4095
  9
$ATTMODE
 70
     1
  9
$TEXTSIZE
 40
0.2
  9
$TRACEWID
 40
0.05
  9
$TEXTSTYLE
  7
STANDARD
  9
$CLAYER
  8
0
  9
$CELTYPE
  6
BYLAYER
  9
$CECOLOR
 62
   256
  9
$DIMSCALE
 40
1.0
  9
$DIMASZ
 40
0.1875
  9
$DIMEXO
 40
0.0625
  9
$DIMDLI
 40
0.4443307087
  9
$DIMRND
 40
0.0
  9
$DIMDLE
 40
0.0
  9
$DIMEXE
 40
0.125
  9
$DIMTP
 40
0.01
  9
$DIMTM
 40
0.01
  9
$DIMTXT
 40
2.0
  9
$DIMCEN
 40
0.1052362205
  9
$DIMTSZ
 40
0.0
  9
$DIMTOL
 70
     1
  9
$DIMLIM
 70
     0
  9
$DIMTIH
 70
     1
  9
$DIMTOH
 70
     1
  9
$DIMSE1
 70
     0
  9
$DIMSE2
 70
     0
  9
$DIMTAD
 70
     0
  9
$DIMZIN
 70
     0
  9
$DIMBLK
  1

  9
$DIMASO
 70
     1
  9
$DIMSHO
 70
     1
  9
$DIMPOST
  1
\X
  9
$DIMAPOST
  1

  9
$DIMALT
 70
     1
  9
$DIMALTD
 70
     2
  9
$DIMALTF
 40
25.3999999999999986
  9
$DIMLFAC
 40
1.0
  9
$DIMTOFL
 70
     0
  9
$DIMTVP
 40
0.0
  9
$DIMTIX
 70
     0
  9
$DIMSOXD
 70
     0
  9
$DIMSAH
 70
     0
  9
$DIMBLK1
  1

  9
$DIMBLK2
  1

  9
$DIMSTYLE
  2
STANDARD
  9
$DIMCLRD
 70
     0
  9
$DIMCLRE
 70
     0
  9
$DIMCLRT
 70
     0
  9
$DIMTFAC
 40
1.0
  9
$DIMGAP
 40
0.09
  9
$LUNITS
 70
     2
  9
$LUPREC
 70
     4
  9
$SKETCHINC
 40
0.1
  9
$FILLETRAD
 40
0.0
  9
$AUNITS
 70
     0
  9
$AUPREC
 70
     0
  9
$MENU
  1
.
  9
$ELEVATION
 40
0.0
  9
$PELEVATION
 40
0.0
  9
$THICKNESS
 40
0.0
  9
$LIMCHECK
 70
     0
  9
$BLIPMODE
 70
     0
  9
$CHAMFERA
 40
0.0
  9
$CHAMFERB
 40
0.0
  9
$SKPOLY
 70
     0
  9
$TDCREATE
 40
2458060.468368056230247
  9
$TDUPDATE
 40
2460228.7584143518470228
  9
$TDINDWG
 40
0.7253195602
  9
$TDUSRTIMER
 40
0.7253195602
  9
$USRTIMER
 70
     1
  9
$ANGBASE
 50
0.0
  9
$ANGDIR
 70
     0
  9
$PDMODE
 70
     0
  9
$PDSIZE
 40
0.3125
  9
$PLINEWID
 40
0.0
  9
$COORDS
 70
     1
  9
$SPLFRAME
 70
     0
  9
$SPLINETYPE
 70
     6
  9
$SPLINESEGS
 70
     8
  9
$ATTDIA
 70
     1
  9
$ATTREQ
 70
     1
  9
$HANDLING
 70
     1
  9
$HANDSEED
  5
2B4BD
  9
$SURFTAB1
 70
     6
  9
$SURFTAB2
 70
     6
  9
$SURFTYPE
 70
     6
  9
$SURFU
 70
     6
  9
$SURFV
 70
     6
  9
$UCSNAME
  2

  9
$UCSORG
 10
0.0
 20
0.0
 30
0.0
  9
$UCSXDIR
 10
1.0
 20
0.0
 30
0.0
  9
$UCSYDIR
 10
0.0
 20
1.0
 30
0.0
  9
$PUCSNAME
  2

  9
$PUCSORG
 10
0.0
 20
0.0
 30
0.0
  9
$PUCSXDIR
 10
1.0
 20
0.0
 30
0.0
  9
$PUCSYDIR
 10
0.0
 20
1.0
 30
0.0
  9
$USERI1
 70
     0
  9
$USERI2
 70
     0
  9
$USERI3
 70
     0
  9
$USERI4
 70
     0
  9
$USERI5
 70
     0
  9
$USERR1
 40
0.0
  9
$USERR2
 40
0.0
  9
$USERR3
 40
0.0
  9
$USERR4
 40
0.0
  9
$USERR5
 40
0.0
  9
$WORLDVIEW
 70
     1
  9
$SHADEDGE
 70
     3
  9
$SHADEDIF
 70
    70
  9
$TILEMODE
 70
     1
  9
$MAXACTVP
 70
    64
  9
$PLIMCHECK
 70
     0
  9
$PEXTMIN
 10
1.0000000000000000E+20
 20
1.0000000000000000E+20
 30
1.0000000000000000E+20
  9
$PEXTMAX
 10
-1.0000000000000000E+20
 20
-1.0000000000000000E+20
 30
-1.0000000000000000E+20
  9
$PLIMMIN
 10
0.0
 20
0.0
  9
$PLIMMAX
 10
12.0
 20
9.0
  9
$UNITMODE
 70
     0
  9
$VISRETAIN
 70
     1
  9
$PLINEGEN
 70
     0
  9
$PSLTSCALE
 70
     1
  0
ENDSEC
  0
SECTION
  2
TABLES
  0
TABLE
  2
VPORT
 70
     1
  0
VPORT
  2
*ACTIVE
 70
     0
 10
0.0
 20
0.0
 11
1.0
 21
1.0
 12
2347.4714721080317759
 22
43.3664453071076323
 13
0.0
 23
0.0
 14
1.0
 24
1.0
 15
0.0
 25
0.0
 16
0.0
 26
0.0
 36
60.4960186965801583
 17
3911.3653564453120453
 27
132.5796051025390057
 37
0.0
 40
3.3617942775720162
 41
2.8325859491778771
 42
50.0
 43
0.0
 44
0.0
 50
0.0
 51
0.0
 71
     0
 72
   100
 73
     1
 74
     1
 75
     0
 76
     0
 77
     0
 78
     0
  0
ENDTAB
  0
TABLE
  2
LTYPE
 70
     2
  0
LTYPE
  2
CONTINUOUS
 70
     0
  3
Solid line
 72
    65
 73
     0
 40
0.0
  0
LTYPE
  2
PHANTOM2
 70
     0
  3
___ _ _ ___ _ _ ___ _ _ ___ _ _
 72
    65
 73
     6
 40
1.25
 49
0.625
 49
-0.125
 49
0.125
 49
-0.125
 49
0.125
 49
-0.125
  0
ENDTAB
  0
TABLE
  2
LAYER
 70
     2
  0
LAYER
  2
0
 70
     0
 62
   255
  6
CONTINUOUS
  0
LAYER
  2
DEFPOINTS
 70
     0
 62
     7
  6
CONTINUOUS
  0
ENDTAB
  0
TABLE
  2
STYLE
 70
     1
  0
STYLE
  2
STANDARD
 70
     0
 40
0.0
 41
0.8
 50
0.0
 71
     0
 42
0.2
  3
txt
  4

  0
ENDTAB
  0
TABLE
  2
VIEW
 70
     0
  0
ENDTAB
  0
TABLE
  2
UCS
 70
     0
  0
ENDTAB
  0
TABLE
  2
APPID
 70
    11
  0
APPID
  2
ACAD
 70
     0
  0
APPID
  2
ACAD_MLEADERVER
 70
     0
  0
APPID
  2
ACAD_EXEMPT_FROM_CAD_STANDARDS
 70
     0
  0
APPID
  2
ACAD_NAV_VCDISPLAY
 70
     0
  0
APPID
  2
ACAECLAYERSTANDARD
 70
     0
  0
APPID
  2
ACCMTRANSPARENCY
 70
     0
  0
APPID
  2
ACAD_DSTYLE_DIMJAG
 70
     0
  0
APPID
  2
ACAD_DSTYLE_DIMTALN
 70
     0
  0
APPID
  2
ACDBATTR
 70
     0
  0
APPID
  2
ACADANNOTATIVE
 70
     0
  0
APPID
  2
DCO15
 70
     0
  0
ENDTAB
  0
TABLE
  2
DIMSTYLE
 70
     1
  0
DIMSTYLE
  2
STANDARD
 70
     0
  3

  4

  5

  6

  7

 40
1.0
 41
0.1875
 42
0.0625
 43
0.38
 44
0.125
 45
0.0
 46
0.0
 47
0.01
 48
0.01
140
0.15625
141
0.09
142
0.0
143
25.3999999999999986
144
1.0
145
0.0
146
1.0
147
0.09
 71
     1
 72
     0
 73
     1
 74
     1
 75
     0
 76
     0
 77
     0
 78
     4
170
     0
171
     2
172
     0
173
     0
174
     0
175
     0
176
     0
177
     0
178
     0
  0
ENDTAB
  0
ENDSEC
  0
SECTION
  2
BLOCKS
  0
BLOCK
  8
0
  2
$MODEL_SPACE
 70
     0
 10
0.0
 20
0.0
 30
0.0
  3
$MODEL_SPACE
  1

  0
ENDBLK
  5
21
  8
0
  0
BLOCK
 67
     1
  8
0
  2
$PAPER_SPACE
 70
     0
 10
0.0
 20
0.0
 30
0.0
  3
$PAPER_SPACE
  1

  0
ENDBLK
  5
1D
 67
     1
  8
0
  0
BLOCK
  8
0
  2
_FILLED
 70
     0
 10
0.0
 20
0.0
 30
0.0
  3
_FILLED
  1

  0
SOLID
  5
257AF
  8
0
  6
BYBLOCK
 62
     0
 10
0.0
 20
0.0
 30
0.0
 11
-1.0
 21
0.1666666667
 31
0.0
 12
-1.0
 22
-0.1666666667
 32
0.0
 13
-1.0
 23
-0.1666666667
 33
0.0
  0
ENDBLK
  5
257B0
  8
0
  6
BYBLOCK
 62
     0
  0
ENDSEC
  0
SECTION
  2
ENTITIES
  0
ATTDEF
  5
256E4
  8
DEFPOINTS
 10
6258.826845265510201
 20
177.611028343058706
 30
0.0
 40
0.001
  1
P80257-LV
  3

  2
MODELNUMBER
 70
     0
1001
ACDBATTR
1070
     0
1070
     1
  0
ATTDEF
  5
256E5
  8
DEFPOINTS
 10
6258.8267194558538904
 20
177.6093615026796044
 30
0.0
 40
0.001
  1
VIR STIL
  3

  2
TRADENAME
 70
     0
1001
ACDBATTR
1070
     0
1070
     1
  0
ATTDEF
  5
256E6
  8
DEFPOINTS
 10
6258.826845265510201
 20
177.6076950097254041
 30
0.0
 40
0.001
  1
VALVE TRIM
  3

  2
PRODUCT
 70
     0
1001
ACDBATTR
1070
     0
1070
     1
  0
LINE
  5
2B09B
  8
0
 10
6256.9639142066462227
 20
176.9820724762340092
 30
0.0
 11
6256.9639142066462227
 21
177.6070724762344923
 31
0.0
  0
LINE
  5
2B09C
  8
0
 10
6257.0889142066453132
 20
176.9020724762345083
 30
0.0
 11
6257.0889142066453132
 21
176.9670724762339944
 31
0.0
  0
LINE
  5
2B09D
  8
0
 10
6257.2034142066449931
 20
176.8220724762344958
 30
0.0
 11
6257.2034142066449931
 21
176.8870724762344935
 31
0.0
  0
LINE
  5
2B09E
  8
0
 10
6257.8389142066453132
 20
175.6820724762345094
 30
0.0
 11
6257.8389142066453132
 21
176.8070724762345094
 31
0.0
  0
LINE
  5
2B09F
  8
0
 10
6257.9589142066452041
 20
175.632072476234498
 30
0.0
 11
6257.9589142066452041
 21
175.6670724762344946
 31
0.0
  0
LINE
  5
2B0A0
  8
0
 10
6258.0139142066445856
 20
175.5820724762344867
 30
0.0
 11
6258.0139142066445856
 21
175.6170724762345117
 31
0.0
  0
LINE
  5
2B0A1
  8
0
 10
6258.2289142066447312
 20
175.0840724762344962
 30
0.0
 11
6258.2289142066447312
 21
175.5670724762345003
 31
0.0
  0
LINE
  5
2B0A2
  8
0
 10
6258.2789142066449131
 20
175.021072476234508
 30
0.0
 11
6258.2789142066449131
 21
175.0690724762345098
 31
0.0
  0
LINE
  5
2B0A3
  8
0
 10
6258.3079142066444547
 20
174.4279868229345141
 30
0.0
 11
6258.3079142066444547
 21
174.8321581295344913
 31
0.0
  0
LINE
  5
2B0A4
  8
0
 10
6258.4489142066449858
 20
174.375072476234493
 30
0.0
 11
6258.4489142066449858
 21
174.4000724762344987
 31
0.0
  0
LINE
  5
2B0A5
  8
0
 10
6258.4954142066444547
 20
174.2800724762344942
 30
0.0
 11
6258.4954142066444547
 21
174.3500724762344873
 31
0.0
  0
LINE
  5
2B0A6
  8
0
 10
6256.9639142066462227
 20
177.6070724762344923
 30
0.0
 11
6260.7097429000450575
 21
177.6070724762344923
 31
0.0
  0
LINE
  5
2B0A7
  8
0
 10
6256.9789142066438217
 20
176.9670724762339091
 30
0.0
 11
6260.69474290004473
 21
176.9670724762349892
 31
0.0
  0
LINE
  5
2B0A8
  8
0
 10
6257.1039142066447312
 20
176.8870724762344935
 30
0.0
 11
6260.56974290004473
 21
176.8870724762344935
 31
0.0
  0
LINE
  5
2B0A9
  8
0
 10
6257.218414206644411
 20
176.8070724762345094
 30
0.0
 11
6260.4552429000450502
 21
176.8070724762345094
 31
0.0
  0
ARC
  5
2B0AA
  8
0
 10
6256.9789142066438217
 20
176.9820724762340092
 30
0.0
 40
0.015
 50
180.0
 51
270.0
  0
ARC
  5
2B0AB
  8
0
 10
6257.1039142066447312
 20
176.9020724762345083
 30
0.0
 40
0.015
 50
180.0000000000065086
 51
270.0
  0
ARC
  5
2B0AC
  8
0
 10
6257.2184142066453205
 20
176.8220724762344958
 30
0.0
 40
0.015
 50
180.0000000000065086
 51
270.0
  0
LINE
  5
2B0AD
  8
0
 10
6257.8539142066447312
 20
175.6670724762344946
 30
0.0
 11
6259.81974290004473
 21
175.6670724762344946
 31
0.0
  0
LINE
  5
2B0AE
  8
0
 10
6257.973914206644622
 20
175.6170724762345117
 30
0.0
 11
6259.6997429000448392
 21
175.6170724762345117
 31
0.0
  0
LINE
  5
2B0AF
  8
0
 10
6258.0289142066440036
 20
175.5670724762345003
 30
0.0
 11
6259.6447429000445482
 21
175.5670724762345003
 31
0.0
  0
ARC
  5
2B0B0
  8
0
 10
6257.8539142066447312
 20
175.6820724762345094
 30
0.0
 40
0.015
 50
180.0
 51
270.0
  0
ARC
  5
2B0B1
  8
0
 10
6257.973914206644622
 20
175.632072476234498
 30
0.0
 40
0.015
 50
180.0
 51
270.0
  0
ARC
  5
2B0B2
  8
0
 10
6258.0289142066440036
 20
175.5820724762344867
 30
0.0
 40
0.015
 50
180.0000000000065086
 51
270.0
  0
LINE
  5
2B0B3
  8
0
 10
6258.2439142066450586
 20
175.0690724762345098
 30
0.0
 11
6259.4297429000462216
 21
175.0690724762345098
 31
0.0
  0
LINE
  5
2B0B4
  8
0
 10
6258.2939142066452405
 20
175.0060724762344933
 30
0.0
 11
6259.3797429000451302
 21
175.0060724762344933
 31
0.0
  0
LINE
  5
2B0B5
  8
0
 10
6258.3668285533449307
 20
174.9430724762345051
 30
0.0
 11
6259.30682855334544
 21
174.9430724762345051
 31
0.0
  0
ARC
  5
2B0B6
  8
0
 10
6258.2439142066450586
 20
175.0840724762344962
 30
0.0
 40
0.015
 50
180.0000000000098055
 51
270.0
  0
ARC
  5
2B0B7
  8
0
 10
6258.2939142066452405
 20
175.021072476234508
 30
0.0
 40
0.015
 50
180.0000000000032117
 51
270.0
  0
LINE
  5
2B0B8
  8
0
 10
6258.3358328946305846
 20
174.8600724762345067
 30
0.0
 11
6259.3378242120588766
 21
174.8600724762345067
 31
0.0
  0
LINE
  5
2B0B9
  8
0
 10
6258.3518285533446033
 20
174.9580724762344914
 30
0.0
 11
6258.3518285533446033
 21
175.0060724762344933
 31
0.0
  0
ARC
  5
2B0BA
  8
0
 10
6258.3668285533449307
 20
174.9580724762344914
 30
0.0
 40
0.015
 50
180.0000000000032117
 51
270.0
  0
LINE
  5
2B0BB
  8
0
 10
6258.3683285533452363
 20
174.9080724762345085
 30
0.0
 11
6258.3683285533452363
 21
174.8600724762345067
 31
0.0
  0
LINE
  5
2B0BC
  8
0
 10
6258.3833285533446542
 20
174.9230724762344948
 30
0.0
 11
6259.290328553344807
 21
174.9230724762344948
 31
0.0
  0
LINE
  5
2B0BD
  8
0
 10
6258.3683285533452363
 20
174.9080724762345085
 30
0.0
 11
6258.3833285533446542
 21
174.9230724762344948
 31
0.0
  0
LINE
  5
2B0BE
  8
0
 10
6258.4368285533446397
 20
174.9430724762345051
 30
0.0
 11
6258.4368285533446397
 21
174.9230724762344948
 31
0.0
  0
LINE
  5
2B0BF
  8
0
 10
6258.3358328946305846
 20
174.8600724762345067
 30
0.0
 11
6258.3079142066444547
 21
174.8321581295344913
 31
0.0
  0
LINE
  5
2B0C0
  8
0
 10
6258.4618343533220468
 20
174.3600724762345067
 30
0.0
 11
6259.2118227533683239
 21
174.3600724762345067
 31
0.0
  0
LINE
  5
2B0C1
  8
0
 10
6258.4489142066449858
 20
174.375072476234493
 30
0.0
 11
6259.2247429000453849
 21
174.375072476234493
 31
0.0
  0
LINE
  5
2B0C2
  8
0
 10
6258.4618343533220468
 20
174.3600724762345067
 30
0.0
 11
6258.4489142066449858
 21
174.375072476234493
 31
0.0
  0
LINE
  5
2B0C3
  8
0
 10
6258.3358328946305846
 20
174.4000724762344987
 30
0.0
 11
6259.3378242120588766
 21
174.4000724762344987
 31
0.0
  0
LINE
  5
2B0C4
  8
0
 10
6258.3079142066444547
 20
174.4279868229345141
 30
0.0
 11
6258.3358328946305846
 21
174.4000724762344987
 31
0.0
  0
LINE
  5
2B0C5
  8
0
 10
6258.4954142066444547
 20
174.2800724762344942
 30
0.0
 11
6259.1782429000450065
 21
174.2800724762344942
 31
0.0
  0
LINE
  5
2B0C6
  8
0
 10
6258.4954142066444547
 20
174.3500724762344873
 30
0.0
 11
6259.1782429000450065
 21
174.3500724762344873
 31
0.0
  0
LINE
  5
2B0C7
  8
0
 10
6258.5493285533448216
 20
174.3500724762344873
 30
0.0
 11
6258.5493285533448216
 21
174.3600724762345067
 31
0.0
  0
LINE
  5
2B0C8
  8
0
 10
6258.3683285533452363
 20
174.9080724762345085
 30
0.0
 11
6259.3053285533451344
 21
174.9080724762345085
 31
0.0
  0
LINE
  5
2B0C9
  8
0
 10
6258.3079142066444547
 20
174.8321581295344913
 30
0.0
 11
6259.3657429000450065
 21
174.8321581295344913
 31
0.0
  0
LINE
  5
2B0CA
  8
0
 10
6258.3079142066444547
 20
174.4279868229345141
 30
0.0
 11
6259.3657429000450065
 21
174.4279868229345141
 31
0.0
  0
LINE
  5
2B0CB
  8
0
 10
6260.7097429000450575
 20
176.9820724762340092
 30
0.0
 11
6260.7097429000450575
 21
177.6070724762344923
 31
0.0
  0
LINE
  5
2B0CC
  8
0
 10
6260.584742900045967
 20
176.9020724762345083
 30
0.0
 11
6260.584742900045967
 21
176.9670724762339944
 31
0.0
  0
LINE
  5
2B0CD
  8
0
 10
6260.4702429000435586
 20
176.8220724762344958
 30
0.0
 11
6260.4702429000435586
 21
176.8870724762344935
 31
0.0
  0
LINE
  5
2B0CE
  8
0
 10
6259.834742900045967
 20
175.6820724762345094
 30
0.0
 11
6259.834742900045967
 21
176.8070724762345094
 31
0.0
  0
LINE
  5
2B0CF
  8
0
 10
6259.7147429000451666
 20
175.632072476234498
 30
0.0
 11
6259.7147429000451666
 21
175.6670724762344946
 31
0.0
  0
LINE
  5
2B0D0
  8
0
 10
6259.6597429000439661
 20
175.5820724762344867
 30
0.0
 11
6259.6597429000439661
 21
175.6170724762345117
 31
0.0
  0
LINE
  5
2B0D1
  8
0
 10
6259.4447429000438206
 20
175.0840724762344962
 30
0.0
 11
6259.4447429000438206
 21
175.5670724762345003
 31
0.0
  0
LINE
  5
2B0D2
  8
0
 10
6259.3947429000436387
 20
175.021072476234508
 30
0.0
 11
6259.3947429000436387
 21
175.0690724762345098
 31
0.0
  0
LINE
  5
2B0D3
  8
0
 10
6259.3657429000450065
 20
174.4279868229345141
 30
0.0
 11
6259.3657429000450065
 21
174.8321581295344913
 31
0.0
  0
LINE
  5
2B0D4
  8
0
 10
6259.2247429000453849
 20
174.375072476234493
 30
0.0
 11
6259.2247429000453849
 21
174.4000724762344987
 31
0.0
  0
LINE
  5
2B0D5
  8
0
 10
6259.1782429000450065
 20
174.2800724762344942
 30
0.0
 11
6259.1782429000450065
 21
174.3500724762344873
 31
0.0
  0
ARC
  5
2B0D6
  8
0
 10
6260.69474290004473
 20
176.9820724762340092
 30
0.0
 40
0.015
 50
270.0
 51
0.0
  0
ARC
  5
2B0D7
  8
0
 10
6260.56974290004473
 20
176.9020724762345083
 30
0.0
 40
0.015
 50
270.0
 51
359.9999999999935199
  0
ARC
  5
2B0D8
  8
0
 10
6260.4552429000450502
 20
176.8220724762344958
 30
0.0
 40
0.015
 50
270.0
 51
359.9999999999935199
  0
ARC
  5
2B0D9
  8
0
 10
6259.81974290004473
 20
175.6820724762345094
 30
0.0
 40
0.015
 50
270.0
 51
0.0
  0
ARC
  5
2B0DA
  8
0
 10
6259.6997429000448392
 20
175.632072476234498
 30
0.0
 40
0.015
 50
270.0
 51
0.0
  0
ARC
  5
2B0DB
  8
0
 10
6259.6447429000445482
 20
175.5820724762344867
 30
0.0
 40
0.015
 50
270.0
 51
359.9999999999935199
  0
ARC
  5
2B0DC
  8
0
 10
6259.4297429000462216
 20
175.0840724762344962
 30
0.0
 40
0.015
 50
270.0
 51
359.9999999999902229
  0
ARC
  5
2B0DD
  8
0
 10
6259.3797429000451302
 20
175.021072476234508
 30
0.0
 40
0.015
 50
270.0
 51
359.9999999999968168
  0
LINE
  5
2B0DE
  8
0
 10
6259.3218285533448579
 20
174.9580724762344914
 30
0.0
 11
6259.3218285533448579
 21
175.0060724762344933
 31
0.0
  0
ARC
  5
2B0DF
  8
0
 10
6259.30682855334544
 20
174.9580724762344914
 30
0.0
 40
0.015
 50
270.0
 51
359.9999999999968168
  0
LINE
  5
2B0E0
  8
0
 10
6259.3053285533451344
 20
174.9080724762345085
 30
0.0
 11
6259.3053285533451344
 21
174.8600724762345067
 31
0.0
  0
LINE
  5
2B0E1
  8
0
 10
6259.3053285533451344
 20
174.9080724762345085
 30
0.0
 11
6259.290328553344807
 21
174.9230724762344948
 31
0.0
  0
LINE
  5
2B0E2
  8
0
 10
6259.2368285533439121
 20
174.9430724762345051
 30
0.0
 11
6259.2368285533439121
 21
174.9230724762344948
 31
0.0
  0
LINE
  5
2B0E3
  8
0
 10
6259.3378242120588766
 20
174.8600724762345067
 30
0.0
 11
6259.3657429000450065
 21
174.8321581295344913
 31
0.0
  0
LINE
  5
2B0E4
  8
0
 10
6259.2118227533683239
 20
174.3600724762345067
 30
0.0
 11
6259.2247429000453849
 21
174.375072476234493
 31
0.0
  0
LINE
  5
2B0E5
  8
0
 10
6259.3657429000450065
 20
174.4279868229345141
 30
0.0
 11
6259.3378242120588766
 21
174.4000724762344987
 31
0.0
  0
LINE
  5
2B0E6
  8
0
 10
6259.1243285533437302
 20
174.3500724762344873
 30
0.0
 11
6259.1243285533437302
 21
174.3600724762345067
 31
0.0
  0
ENDSEC
  0
EOF
