  0
SECTION
  2
HEADER
  9
$ACADVER
  1
AC1009
  9
$INSBASE
 10
1029.1238458125469606
 20
140.5485985846204926
 30
0.0
  9
$EXTMIN
 10
1025.7792906625340947
 20
137.6625747630571936
 30
-0.0015258207003583
  9
$EXTMAX
 10
1029.1749682617451072
 20
142.4317271267165097
 30
0.0000000349246037
  9
$LIMMIN
 10
0.0
 20
0.0
  9
$LIMMAX
 10
11.6929133858000007
 20
8.2677165353999982
  9
$ORTHOMODE
 70
     0
  9
$REGENMODE
 70
     1
  9
$FILLMODE
 70
     1
  9
$QTEXTMODE
 70
     0
  9
$MIRRTEXT
 70
     0
  9
$DRAGMODE
 70
     2
  9
$LTSCALE
 40
0.6431102362
  9
$OSMODE
 70
  3999
  9
$ATTMODE
 70
     1
  9
$TEXTSIZE
 40
0.2
  9
$TRACEWID
 40
0.05
  9
$TEXTSTYLE
  7
STANDARD
  9
$CLAYER
  8
0
  9
$CELTYPE
  6
BYLAYER
  9
$CECOLOR
 62
   256
  9
$DIMSCALE
 40
1.0
  9
$DIMASZ
 40
0.1875
  9
$DIMEXO
 40
0.0625
  9
$DIMDLI
 40
0.4443307087
  9
$DIMRND
 40
0.0
  9
$DIMDLE
 40
0.0
  9
$DIMEXE
 40
0.125
  9
$DIMTP
 40
0.01
  9
$DIMTM
 40
0.01
  9
$DIMTXT
 40
1.0
  9
$DIMCEN
 40
0.1052362205
  9
$DIMTSZ
 40
0.0
  9
$DIMTOL
 70
     1
  9
$DIMLIM
 70
     0
  9
$DIMTIH
 70
     0
  9
$DIMTOH
 70
     1
  9
$DIMSE1
 70
     0
  9
$DIMSE2
 70
     0
  9
$DIMTAD
 70
     0
  9
$DIMZIN
 70
     0
  9
$DIMBLK
  1

  9
$DIMASO
 70
     1
  9
$DIMSHO
 70
     1
  9
$DIMPOST
  1
\X
  9
$DIMAPOST
  1

  9
$DIMALT
 70
     1
  9
$DIMALTD
 70
     2
  9
$DIMALTF
 40
25.3999999999999986
  9
$DIMLFAC
 40
1.0
  9
$DIMTOFL
 70
     0
  9
$DIMTVP
 40
0.0
  9
$DIMTIX
 70
     0
  9
$DIMSOXD
 70
     0
  9
$DIMSAH
 70
     0
  9
$DIMBLK1
  1

  9
$DIMBLK2
  1

  9
$DIMSTYLE
  2
STANDARD
  9
$DIMCLRD
 70
     0
  9
$DIMCLRE
 70
     0
  9
$DIMCLRT
 70
     0
  9
$DIMTFAC
 40
1.0
  9
$DIMGAP
 40
0.09
  9
$LUNITS
 70
     2
  9
$LUPREC
 70
     4
  9
$SKETCHINC
 40
0.1
  9
$FILLETRAD
 40
0.0
  9
$AUNITS
 70
     0
  9
$AUPREC
 70
     0
  9
$MENU
  1
.
  9
$ELEVATION
 40
0.0
  9
$PELEVATION
 40
0.0
  9
$THICKNESS
 40
0.0
  9
$LIMCHECK
 70
     0
  9
$BLIPMODE
 70
     0
  9
$CHAMFERA
 40
0.0
  9
$CHAMFERB
 40
0.0
  9
$SKPOLY
 70
     0
  9
$TDCREATE
 40
2458172.5207638889551163
  9
$TDUPDATE
 40
2460194.5653703701682389
  9
$TDINDWG
 40
0.4864127546
  9
$TDUSRTIMER
 40
0.4864127546
  9
$USRTIMER
 70
     1
  9
$ANGBASE
 50
0.0
  9
$ANGDIR
 70
     0
  9
$PDMODE
 70
     0
  9
$PDSIZE
 40
0.3125
  9
$PLINEWID
 40
0.0
  9
$COORDS
 70
     1
  9
$SPLFRAME
 70
     0
  9
$SPLINETYPE
 70
     6
  9
$SPLINESEGS
 70
     8
  9
$ATTDIA
 70
     1
  9
$ATTREQ
 70
     1
  9
$HANDLING
 70
     1
  9
$HANDSEED
  5
DC6F
  9
$SURFTAB1
 70
     6
  9
$SURFTAB2
 70
     6
  9
$SURFTYPE
 70
     6
  9
$SURFU
 70
     6
  9
$SURFV
 70
     6
  9
$UCSNAME
  2

  9
$UCSORG
 10
0.0
 20
0.0
 30
0.0
  9
$UCSXDIR
 10
1.0
 20
0.0
 30
0.0
  9
$UCSYDIR
 10
0.0
 20
1.0
 30
0.0
  9
$PUCSNAME
  2

  9
$PUCSORG
 10
0.0
 20
0.0
 30
0.0
  9
$PUCSXDIR
 10
1.0
 20
0.0
 30
0.0
  9
$PUCSYDIR
 10
0.0
 20
1.0
 30
0.0
  9
$USERI1
 70
     0
  9
$USERI2
 70
     0
  9
$USERI3
 70
     0
  9
$USERI4
 70
     0
  9
$USERI5
 70
     0
  9
$USERR1
 40
0.0
  9
$USERR2
 40
0.0
  9
$USERR3
 40
0.0
  9
$USERR4
 40
0.0
  9
$USERR5
 40
0.0
  9
$WORLDVIEW
 70
     1
  9
$SHADEDGE
 70
     3
  9
$SHADEDIF
 70
    70
  9
$TILEMODE
 70
     1
  9
$MAXACTVP
 70
    64
  9
$PLIMCHECK
 70
     0
  9
$PEXTMIN
 10
1.0000000000000000E+20
 20
1.0000000000000000E+20
 30
1.0000000000000000E+20
  9
$PEXTMAX
 10
-1.0000000000000000E+20
 20
-1.0000000000000000E+20
 30
-1.0000000000000000E+20
  9
$PLIMMIN
 10
0.0
 20
0.0
  9
$PLIMMAX
 10
12.0
 20
9.0
  9
$UNITMODE
 70
     0
  9
$VISRETAIN
 70
     1
  9
$PLINEGEN
 70
     0
  9
$PSLTSCALE
 70
     1
  0
ENDSEC
  0
SECTION
  2
TABLES
  0
TABLE
  2
VPORT
 70
     1
  0
VPORT
  2
*ACTIVE
 70
     0
 10
0.0
 20
0.0
 11
1.0
 21
1.0
 12
560.7349277543098651
 22
50.9140038249570921
 13
0.0
 23
0.0
 14
1.0
 24
1.0
 15
0.0
 25
0.0
 16
0.0
 26
0.0
 36
24.1179433675886514
 17
466.74220170783002
 27
89.133147119929788
 37
0.0
 40
4.8018551227244606
 41
2.1842105263157889
 42
50.0
 43
0.0
 44
0.0
 50
0.0
 51
0.0
 71
     0
 72
   100
 73
     1
 74
     1
 75
     0
 76
     0
 77
     0
 78
     0
  0
ENDTAB
  0
TABLE
  2
LTYPE
 70
     2
  0
LTYPE
  2
CONTINUOUS
 70
     0
  3
Solid line
 72
    65
 73
     0
 40
0.0
  0
LTYPE
  2
PHANTOM2
 70
     0
  3
___ _ _ ___ _ _ ___ _ _ ___ _ _
 72
    65
 73
     6
 40
1.25
 49
0.625
 49
-0.125
 49
0.125
 49
-0.125
 49
0.125
 49
-0.125
  0
ENDTAB
  0
TABLE
  2
LAYER
 70
     2
  0
LAYER
  2
0
 70
     0
 62
   255
  6
CONTINUOUS
  0
LAYER
  2
DEFPOINTS
 70
     0
 62
     7
  6
CONTINUOUS
  0
ENDTAB
  0
TABLE
  2
STYLE
 70
     1
  0
STYLE
  2
STANDARD
 70
     0
 40
0.0
 41
0.8
 50
0.0
 71
     0
 42
0.2
  3
txt
  4

  0
ENDTAB
  0
TABLE
  2
VIEW
 70
     0
  0
ENDTAB
  0
TABLE
  2
UCS
 70
     0
  0
ENDTAB
  0
TABLE
  2
APPID
 70
    11
  0
APPID
  2
ACAD
 70
     0
  0
APPID
  2
ACAD_MLEADERVER
 70
     0
  0
APPID
  2
ACAD_EXEMPT_FROM_CAD_STANDARDS
 70
     0
  0
APPID
  2
ACAD_DSTYLE_DIMJAG
 70
     0
  0
APPID
  2
ACAD_DSTYLE_DIMTALN
 70
     0
  0
APPID
  2
ACAD_NAV_VCDISPLAY
 70
     0
  0
APPID
  2
ACAECLAYERSTANDARD
 70
     0
  0
APPID
  2
ACCMTRANSPARENCY
 70
     0
  0
APPID
  2
DCO15
 70
     0
  0
APPID
  2
ACDBATTR
 70
     0
  0
APPID
  2
ACADANNOTATIVE
 70
     0
  0
ENDTAB
  0
TABLE
  2
DIMSTYLE
 70
     1
  0
DIMSTYLE
  2
STANDARD
 70
     0
  3

  4

  5

  6

  7

 40
1.0
 41
0.1875
 42
0.0625
 43
0.38
 44
0.125
 45
0.0
 46
0.0
 47
0.01
 48
0.01
140
0.15625
141
0.09
142
0.0
143
25.3999999999999986
144
1.0
145
0.0
146
1.0
147
0.09
 71
     1
 72
     0
 73
     1
 74
     1
 75
     0
 76
     0
 77
     0
 78
     4
170
     0
171
     2
172
     0
173
     0
174
     0
175
     0
176
     0
177
     0
178
     0
  0
ENDTAB
  0
ENDSEC
  0
SECTION
  2
BLOCKS
  0
BLOCK
  8
0
  2
$MODEL_SPACE
 70
     0
 10
0.0
 20
0.0
 30
0.0
  3
$MODEL_SPACE
  1

  0
ENDBLK
  5
21
  8
0
  0
BLOCK
 67
     1
  8
0
  2
$PAPER_SPACE
 70
     0
 10
0.0
 20
0.0
 30
0.0
  3
$PAPER_SPACE
  1

  0
ENDBLK
  5
1D
 67
     1
  8
0
  0
BLOCK
  8
0
  2
_FILLED
 70
     0
 10
0.0
 20
0.0
 30
0.0
  3
_FILLED
  1

  0
SOLID
  5
D985
  8
0
  6
BYBLOCK
 62
     0
 10
0.0
 20
0.0
 30
0.0
 11
-1.0
 21
0.1666666667
 31
0.0
 12
-1.0
 22
-0.1666666667
 32
0.0
 13
-1.0
 23
-0.1666666667
 33
0.0
  0
ENDBLK
  5
D986
  8
0
  6
BYBLOCK
 62
     0
  0
ENDSEC
  0
SECTION
  2
ENTITIES
  0
LINE
  5
DA55
  8
0
 10
1029.1238458125469606
 20
142.421760885820504
 30
0.0
 11
1029.1238458125469606
 21
138.675932192420504
 31
0.0
  0
LINE
  5
DA56
  8
0
 10
1028.4962577392570893
 20
142.421760885820504
 30
0.0
 11
1029.1238458125469606
 21
142.421760885820504
 31
0.0
  0
LINE
  5
DA57
  8
0
 10
1028.4838458125470879
 20
138.686760884297513
 30
0.0
 11
1028.4838458125470879
 21
142.4067608858204892
 31
0.0
  0
LINE
  5
DA58
  8
0
 10
1026.4398458125469915
 20
141.0002608858204951
 30
0.0
 11
1026.4398458125469915
 21
137.6867608858204903
 31
0.0
  0
LINE
  5
DA59
  8
0
 10
1026.4248458125468915
 20
141.0152608858203962
 30
0.0
 11
1026.3768458125468896
 21
141.0152608858203962
 31
0.0
  0
LINE
  5
DA5A
  8
0
 10
1025.9468458125470534
 20
141.0777608858205099
 30
0.0
 11
1026.3468458125469169
 21
141.0777608858205099
 31
0.0
  0
LINE
  5
DA5B
  8
0
 10
1025.9168458125470806
 20
141.0477608858203951
 30
0.0
 11
1025.9168458125470806
 21
137.7017608858205051
 31
0.0
  0
LINE
  5
DA5C
  8
0
 10
1025.8768458125468896
 20
140.921760885820504
 30
0.0
 11
1025.8768458125468896
 21
137.8267608858205051
 31
0.0
  0
LINE
  5
DA5D
  8
0
 10
1025.8668458125468987
 20
140.8902608858205099
 30
0.0
 11
1025.8668458125468987
 21
140.2032608858204981
 31
0.0
  0
LINE
  5
DA5E
  8
0
 10
1025.8668458125468987
 20
140.8902608858205099
 30
0.0
 11
1025.7968458125469624
 21
140.8902608858205099
 31
0.0
  0
LINE
  5
DA5F
  8
0
 10
1025.7968458125469624
 20
140.8902608858205099
 30
0.0
 11
1025.7968458125469624
 21
140.2032608858204981
 31
0.0
  0
LINE
  5
DA60
  8
0
 10
1025.8918458125469897
 20
140.9367608858204903
 30
0.0
 11
1025.9168458125470806
 21
140.9367608858204903
 31
0.0
  0
LINE
  5
DA61
  8
0
 10
1025.8918458125469897
 20
140.9367608858204903
 30
0.0
 11
1025.8768458125468896
 21
140.921760885820504
 31
0.0
  0
LINE
  5
DA62
  8
0
 10
1025.8918458125469897
 20
140.9367608858204903
 30
0.0
 11
1025.8918458125469897
 21
137.8117608858204903
 31
0.0
  0
LINE
  5
DA63
  8
0
 10
1025.9168458125470806
 20
141.0477608858203951
 30
0.0
 11
1025.9468458125470534
 21
141.0777608858205099
 31
0.0
  0
LINE
  5
DA64
  8
0
 10
1026.3768458125468896
 20
141.0477608858203951
 30
0.0
 11
1026.3468458125469169
 21
141.0777608858205099
 31
0.0
  0
LINE
  5
DA65
  8
0
 10
1026.3768458125468896
 20
141.0477608858203951
 30
0.0
 11
1026.3768458125468896
 21
137.671760885820504
 31
0.0
  0
LINE
  5
DA66
  8
0
 10
1026.4248458125468915
 20
141.0152608858203962
 30
0.0
 11
1026.4398458125469915
 21
141.0002608858204951
 31
0.0
  0
ARC
  5
DA67
  8
0
 10
1028.499328687661091
 20
142.4065845958976126
 30
0.0
 40
0.0154838787105181
 50
101.4394349941785975
 51
179.347651387999008
  0
LINE
  5
DA68
  8
0
 10
1025.8668458125468987
 20
140.8376680141373924
 30
0.0
 11
1025.8768458125468896
 21
140.8376680141373924
 31
0.0
  0
LINE
  5
DA69
  8
0
 10
1028.4962577392570893
 20
138.671760885820504
 30
0.0
 11
1029.0738458125470061
 21
138.671760885820504
 31
0.0
  0
LINE
  5
DA6A
  8
0
 10
1025.8668458125468987
 20
140.2032608858204981
 30
0.0
 11
1025.7968458125469624
 21
140.2032608858204981
 31
0.0
  0
ARC
  5
DA6B
  8
0
 10
1028.4993286877120227
 20
138.6869371758035925
 30
0.0
 40
0.0154838787796787
 50
180.6523544678726125
 51
258.5605648645582733
  0
LINE
  5
DA6C
  8
0
 10
1025.8668458125468987
 20
140.2592608858205097
 30
0.0
 11
1025.8768458125468896
 21
140.2592608858205097
 31
0.0
  0
LINE
  5
DA6D
  8
0
 10
1025.9468458125470534
 20
137.671760885820504
 30
0.0
 11
1026.4248458125468915
 21
137.671760885820504
 31
0.0
  0
LINE
  5
DA6E
  8
0
 10
1025.8918458125469897
 20
137.8117608858204903
 30
0.0
 11
1025.9168458125470806
 21
137.8117608858204903
 31
0.0
  0
LINE
  5
DA6F
  8
0
 10
1025.8918458125469897
 20
137.8117608858204903
 30
0.0
 11
1025.8768458125468896
 21
137.8267608858205051
 31
0.0
  0
LINE
  5
DA70
  8
0
 10
1025.9168458125470806
 20
137.7017608858205051
 30
0.0
 11
1025.9468458125470534
 21
137.6717608858203903
 31
0.0
  0
LINE
  5
DA71
  8
0
 10
1026.4398458125469915
 20
137.6867608858204903
 30
0.0
 11
1026.4248458125468915
 21
137.6717608858203903
 31
0.0
  0
LINE
  5
DA72
  8
0
 10
1025.9468458125470534
 20
141.0777608858205099
 30
0.0
 11
1025.9468458125470534
 21
137.671760885820504
 31
0.0
  0
LINE
  5
DA73
  8
0
 10
1026.3468458125469169
 20
141.0777608858205099
 30
0.0
 11
1026.3468458125469169
 21
137.671760885820504
 31
0.0
  0
LINE
  5
DA74
  8
0
 10
1026.4248458125468915
 20
137.6717608858203903
 30
0.0
 11
1026.4248458125468915
 21
141.0152608858203962
 31
0.0
  0
LINE
  5
DAB9
  8
0
 10
1029.0738458125470061
 20
138.671760885820504
 30
0.0
 11
1029.0738458125470061
 21
138.675932192420504
 31
0.0
  0
LINE
  5
DABA
  8
0
 10
1029.0738458125470061
 20
138.675932192420504
 30
0.0
 11
1029.1238458125469606
 21
138.675932192420504
 31
0.0
  0
LINE
  5
DABB
  8
0
 10
1028.4838458125470879
 20
138.796760885820504
 30
0.0
 11
1028.4188458125470333
 21
138.796760885820504
 31
0.0
  0
ARC
  5
DABC
  8
0
 10
1028.4188458125470333
 20
138.8117608858204903
 30
0.0
 40
0.0150000000000006
 50
180.0000050458021121
 51
270.0
  0
LINE
  5
DABD
  8
0
 10
1028.4038458125469333
 20
138.8117608844995061
 30
0.0
 11
1028.4038455069589872
 21
142.2817608858204892
 31
0.0
  0
ARC
  5
DABE
  8
0
 10
1028.4188455056410021
 20
142.2817608871415018
 30
0.0
 40
0.0149999986821659
 50
89.9988277040431939
 51
180.0000050458054091
  0
LINE
  5
DABF
  8
0
 10
1028.4188458125470333
 20
142.296760885820504
 30
0.0
 11
1028.4838458125339002
 21
142.2967595558928906
 31
0.0
  0
LINE
  5
DAC0
  8
0
 10
1028.4038455157210592
 20
142.1822608858205115
 30
0.0
 11
1028.3388458125471061
 21
142.1822608858205115
 31
0.0
  0
ARC
  5
DAC1
  8
0
 10
1028.3388458125471061
 20
142.1672608858204967
 30
0.0
 40
0.0150000000000024
 50
90.0
 51
179.9999999999934914
  0
LINE
  5
DAC2
  8
0
 10
1028.3238458125470061
 20
142.1672608858204967
 30
0.0
 11
1028.3238458125470061
 21
138.9262608858205112
 31
0.0
  0
ARC
  5
DAC3
  8
0
 10
1028.3388458125471061
 20
138.9262608858205112
 30
0.0
 40
0.0149999999999988
 50
179.9999999999917861
 51
270.000000001472074
  0
LINE
  5
DAC4
  8
0
 10
1028.3388458125471061
 20
138.9112608858204965
 30
0.0
 11
1028.4038458125469333
 21
138.9112608858220881
 31
0.0
  0
LINE
  5
DAC5
  8
0
 10
1025.9468458125470534
 20
140.187821810820509
 30
0.0
 11
1026.3468458125469169
 21
140.187821810820509
 31
0.0
  0
LINE
  5
DAC6
  8
0
 10
1026.3768458125468896
 20
140.1977107461204923
 30
0.0
 11
1026.4248458125039178
 21
140.1977107461869139
 31
0.0
  0
LINE
  5
DAC7
  8
0
 10
1026.4248458125039178
 20
140.1977107461869139
 30
0.0
 11
1026.4398458125469915
 21
140.2044802992174937
 31
0.0
  0
LINE
  5
DAC8
  8
0
 10
1026.4398458125469915
 20
140.1467608858204983
 30
0.0
 11
1026.4598458125469733
 21
140.1467608858204983
 31
0.0
  0
LINE
  5
DAC9
  8
0
 10
1026.4598458125469733
 20
140.0767608858205051
 30
0.0
 11
1026.4598458125469733
 21
141.0167608852204921
 31
0.0
  0
ARC
  5
DACA
  8
0
 10
1026.4748458131471125
 20
141.0167608852204921
 30
0.0
 40
0.0150000006000006
 50
90.0000022918329847
 51
180.0000000000032117
  0
LINE
  5
DACB
  8
0
 10
1026.4748458125470734
 20
141.0317608858204892
 30
0.0
 11
1026.5228458125470752
 21
141.0317608877404894
 31
0.0
  0
LINE
  5
DACC
  8
0
 10
1026.5858458125469497
 20
141.1067608858205062
 30
0.0
 11
1026.5378458125469479
 21
141.1067608858205062
 31
0.0
  0
ARC
  5
DACD
  8
0
 10
1026.5378458125469479
 20
141.0917608858204915
 30
0.0
 40
0.0150000000000015
 50
90.0
 51
180.0000240642220035
  0
LINE
  5
DACE
  8
0
 10
1026.5228458125470752
 20
141.0917608795205069
 30
0.0
 11
1026.5228462703469177
 21
140.0017608858206017
 31
0.0
  0
ARC
  5
DACF
  8
0
 10
1026.5378462766550456
 20
140.0017608921205863
 30
0.0
 40
0.0150000063072766
 50
180.0000240642268921
 51
269.9982272419018159
  0
LINE
  5
DAD0
  8
0
 10
1026.5378458125469479
 20
139.9867608858205017
 30
0.0
 11
1026.5858458125239849
 21
139.9867594006780962
 31
0.0
  0
LINE
  5
DAD1
  8
0
 10
1026.5228458125470752
 20
140.0617608858204903
 30
0.0
 11
1026.4748458125470734
 21
140.0617608858204903
 31
0.0
  0
ARC
  5
DAD2
  8
0
 10
1026.4748458125470734
 20
140.0767608858205051
 30
0.0
 40
0.0150000000000006
 50
180.0000000000032117
 51
270.0
  0
LINE
  5
DAD3
  8
0
 10
1026.5858458125469497
 20
139.9517608861204963
 30
0.0
 11
1026.5858458125469497
 21
141.1417608855205117
 31
0.0
  0
ARC
  5
DAD4
  8
0
 10
1026.6021047328661098
 20
141.1412394237821104
 30
0.0
 40
0.0162672804205017
 50
94.438542553322506
 51
178.1630195518968094
  0
LINE
  5
DAD5
  8
0
 10
1026.6008458125470497
 20
141.1574579172975064
 30
0.0
 11
1027.083845812546997
 21
141.1574579172975064
 31
0.0
  0
LINE
  5
DAD6
  8
0
 10
1028.3238458125470061
 20
141.5486002731875033
 30
0.0
 11
1027.1988458125470061
 21
141.5486002731875033
 31
0.0
  0
ARC
  5
DAD7
  8
0
 10
1027.1988458125470061
 20
141.5336002731874885
 30
0.0
 40
0.0150000000000015
 50
89.9999999999934914
 51
179.9999999999934914
  0
LINE
  5
DAD8
  8
0
 10
1027.183845812546906
 20
141.5336002731874885
 30
0.0
 11
1027.183845812546906
 21
139.5617608852201954
 31
0.0
  0
ARC
  5
DAD9
  8
0
 10
1027.1988458119469669
 20
139.5617608852201954
 30
0.0
 40
0.0149999993996914
 50
179.9999999999967031
 51
270.0000022938979214
  0
LINE
  5
DADA
  8
0
 10
1027.1988458125470061
 20
139.546760885820504
 30
0.0
 11
1028.3238458125470061
 21
139.5467609308610974
 31
0.0
  0
LINE
  5
DADB
  8
0
 10
1027.183845812546906
 20
139.6667608858205085
 30
0.0
 11
1027.1488458125470515
 21
139.6667608858205085
 31
0.0
  0
ARC
  5
DADC
  8
0
 10
1027.1488458125470515
 20
139.6817608858204949
 30
0.0
 40
0.015000000000001
 50
180.0000012078039049
 51
270.0
  0
LINE
  5
DADD
  8
0
 10
1027.1338458125469515
 20
139.6817608855043034
 30
0.0
 11
1027.1338457760789424
 21
141.4117608858203994
 31
0.0
  0
ARC
  5
DADE
  8
0
 10
1027.1488457757620836
 20
141.4117608861367046
 30
0.0
 40
0.0149999996838428
 50
89.9998594923803807
 51
180.0000012078039049
  0
LINE
  5
DADF
  8
0
 10
1027.1488458125470515
 20
141.4267608858204994
 30
0.0
 11
1027.183845812546906
 21
141.4267607999892107
 31
0.0
  0
LINE
  5
DAE0
  8
0
 10
1027.1338458125469515
 20
141.3717608858204926
 30
0.0
 11
1027.098845812547097
 21
141.3717608858204926
 31
0.0
  0
ARC
  5
DAE1
  8
0
 10
1027.098845812547097
 20
141.3567608858205062
 30
0.0
 40
0.0150000000000006
 50
90.0
 51
179.9999999999934914
  0
LINE
  5
DAE2
  8
0
 10
1027.083845812546997
 20
141.3567608858205062
 30
0.0
 11
1027.083845812546997
 21
139.7367608848163911
 31
0.0
  0
ARC
  5
DAE3
  8
0
 10
1027.0988458115430149
 20
139.7367608848163911
 30
0.0
 40
0.0149999989958936
 50
179.9999999999917861
 51
270.0000038361384895
  0
LINE
  5
DAE4
  8
0
 10
1027.098845812547097
 20
139.7217608858204869
 30
0.0
 11
1027.1338458117040773
 21
139.7217608881638
 31
0.0
  0
LINE
  5
DAE5
  8
0
 10
1027.083845812546997
 20
139.9367608858204903
 30
0.0
 11
1026.6008458125470497
 21
139.9367608858204903
 31
0.0
  0
ARC
  5
DAE6
  8
0
 10
1026.6008458125470497
 20
139.9517608858205051
 30
0.0
 40
0.0149999999999997
 50
179.9999988540834863
 51
269.9999999999935199
  0
LINE
  5
DAE7
  8
0
 10
1026.4598458125469733
 20
140.946760885820396
 30
0.0
 11
1026.4398458125469915
 21
140.946760885820396
 31
0.0
  0
ATTDEF
  5
DB1D
  8
DEFPOINTS
 10
1029.1123464873830926
 20
140.5456560266771078
 30
0.0
 40
0.001
  1
P80256-LV
  3

  2
MODELNUMBER
 70
     0
1001
ACDBATTR
1070
     0
1070
     1
  0
ATTDEF
  5
DB1E
  8
DEFPOINTS
 10
1029.1123464873830926
 20
140.5439893600104142
 30
0.0
 40
0.001
  1
VIR STIL
  3

  2
TRADENAME
 70
     0
1001
ACDBATTR
1070
     0
1070
     1
  0
ATTDEF
  5
DB1F
  8
DEFPOINTS
 10
1029.1123464873830926
 20
140.5423226933438059
 30
0.0
 40
0.001
  1
VALVE TRIM
  3

  2
PRODUCT
 70
     0
1001
ACDBATTR
1070
     0
1070
     1
  0
ENDSEC
  0
EOF
