  0
SECTION
  2
HEADER
  9
$ACADVER
  1
AC1009
  9
$INSBASE
 10
5909.4792843553113926
 20
287.9760432240648242
 30
0.0
  9
$EXTMIN
 10
5906.13228435531164
 20
284.6653809228648129
 30
0.0
  9
$EXTMAX
 10
5909.4908340191177558
 20
291.2867055252647788
 30
0.0
  9
$LIMMIN
 10
0.0
 20
0.0
  9
$LIMMAX
 10
11.6929133858000007
 20
8.2677165353999982
  9
$ORTHOMODE
 70
     0
  9
$REGENMODE
 70
     1
  9
$FILLMODE
 70
     1
  9
$QTEXTMODE
 70
     0
  9
$MIRRTEXT
 70
     0
  9
$DRAGMODE
 70
     2
  9
$LTSCALE
 40
0.6431102362
  9
$OSMODE
 70
  4095
  9
$ATTMODE
 70
     1
  9
$TEXTSIZE
 40
0.2
  9
$TRACEWID
 40
0.05
  9
$TEXTSTYLE
  7
STANDARD
  9
$CLAYER
  8
0
  9
$CELTYPE
  6
BYLAYER
  9
$CECOLOR
 62
   256
  9
$DIMSCALE
 40
1.0
  9
$DIMASZ
 40
0.1875
  9
$DIMEXO
 40
0.0625
  9
$DIMDLI
 40
0.4443307087
  9
$DIMRND
 40
0.0
  9
$DIMDLE
 40
0.0
  9
$DIMEXE
 40
0.125
  9
$DIMTP
 40
0.01
  9
$DIMTM
 40
0.01
  9
$DIMTXT
 40
2.0
  9
$DIMCEN
 40
0.1052362205
  9
$DIMTSZ
 40
0.0
  9
$DIMTOL
 70
     1
  9
$DIMLIM
 70
     0
  9
$DIMTIH
 70
     1
  9
$DIMTOH
 70
     1
  9
$DIMSE1
 70
     0
  9
$DIMSE2
 70
     0
  9
$DIMTAD
 70
     0
  9
$DIMZIN
 70
     0
  9
$DIMBLK
  1

  9
$DIMASO
 70
     1
  9
$DIMSHO
 70
     1
  9
$DIMPOST
  1
\X
  9
$DIMAPOST
  1

  9
$DIMALT
 70
     1
  9
$DIMALTD
 70
     2
  9
$DIMALTF
 40
25.3999999999999986
  9
$DIMLFAC
 40
1.0
  9
$DIMTOFL
 70
     0
  9
$DIMTVP
 40
0.0
  9
$DIMTIX
 70
     0
  9
$DIMSOXD
 70
     0
  9
$DIMSAH
 70
     0
  9
$DIMBLK1
  1

  9
$DIMBLK2
  1

  9
$DIMSTYLE
  2
STANDARD
  9
$DIMCLRD
 70
     0
  9
$DIMCLRE
 70
     0
  9
$DIMCLRT
 70
     0
  9
$DIMTFAC
 40
1.0
  9
$DIMGAP
 40
0.09
  9
$LUNITS
 70
     2
  9
$LUPREC
 70
     4
  9
$SKETCHINC
 40
0.1
  9
$FILLETRAD
 40
0.0
  9
$AUNITS
 70
     0
  9
$AUPREC
 70
     0
  9
$MENU
  1
.
  9
$ELEVATION
 40
0.0
  9
$PELEVATION
 40
0.0
  9
$THICKNESS
 40
0.0
  9
$LIMCHECK
 70
     0
  9
$BLIPMODE
 70
     0
  9
$CHAMFERA
 40
0.0
  9
$CHAMFERB
 40
0.0
  9
$SKPOLY
 70
     0
  9
$TDCREATE
 40
2458060.468368056230247
  9
$TDUPDATE
 40
2460234.786145833786577
  9
$TDINDWG
 40
0.7352038194
  9
$TDUSRTIMER
 40
0.7352038194
  9
$USRTIMER
 70
     1
  9
$ANGBASE
 50
0.0
  9
$ANGDIR
 70
     0
  9
$PDMODE
 70
     0
  9
$PDSIZE
 40
0.3125
  9
$PLINEWID
 40
0.0
  9
$COORDS
 70
     1
  9
$SPLFRAME
 70
     0
  9
$SPLINETYPE
 70
     6
  9
$SPLINESEGS
 70
     8
  9
$ATTDIA
 70
     1
  9
$ATTREQ
 70
     1
  9
$HANDLING
 70
     1
  9
$HANDSEED
  5
2CB6C
  9
$SURFTAB1
 70
     6
  9
$SURFTAB2
 70
     6
  9
$SURFTYPE
 70
     6
  9
$SURFU
 70
     6
  9
$SURFV
 70
     6
  9
$UCSNAME
  2

  9
$UCSORG
 10
0.0
 20
0.0
 30
0.0
  9
$UCSXDIR
 10
1.0
 20
0.0
 30
0.0
  9
$UCSYDIR
 10
0.0
 20
1.0
 30
0.0
  9
$PUCSNAME
  2

  9
$PUCSORG
 10
0.0
 20
0.0
 30
0.0
  9
$PUCSXDIR
 10
1.0
 20
0.0
 30
0.0
  9
$PUCSYDIR
 10
0.0
 20
1.0
 30
0.0
  9
$USERI1
 70
     0
  9
$USERI2
 70
     0
  9
$USERI3
 70
     0
  9
$USERI4
 70
     0
  9
$USERI5
 70
     0
  9
$USERR1
 40
0.0
  9
$USERR2
 40
0.0
  9
$USERR3
 40
0.0
  9
$USERR4
 40
0.0
  9
$USERR5
 40
0.0
  9
$WORLDVIEW
 70
     1
  9
$SHADEDGE
 70
     3
  9
$SHADEDIF
 70
    70
  9
$TILEMODE
 70
     1
  9
$MAXACTVP
 70
    64
  9
$PLIMCHECK
 70
     0
  9
$PEXTMIN
 10
1.0000000000000000E+20
 20
1.0000000000000000E+20
 30
1.0000000000000000E+20
  9
$PEXTMAX
 10
-1.0000000000000000E+20
 20
-1.0000000000000000E+20
 30
-1.0000000000000000E+20
  9
$PLIMMIN
 10
0.0
 20
0.0
  9
$PLIMMAX
 10
12.0
 20
9.0
  9
$UNITMODE
 70
     0
  9
$VISRETAIN
 70
     1
  9
$PLINEGEN
 70
     0
  9
$PSLTSCALE
 70
     1
  0
ENDSEC
  0
SECTION
  2
TABLES
  0
TABLE
  2
VPORT
 70
     1
  0
VPORT
  2
*ACTIVE
 70
     0
 10
0.0
 20
0.0
 11
1.0
 21
1.0
 12
1996.4462027419019705
 22
155.3964381215257049
 13
0.0
 23
0.0
 14
1.0
 24
1.0
 15
0.0
 25
0.0
 16
0.0
 26
0.0
 36
60.4960186965801583
 17
3911.3653564453120453
 27
132.5796051025390057
 37
0.0
 40
6.677160017028954
 41
2.498684210526315
 42
50.0
 43
0.0
 44
0.0
 50
0.0
 51
0.0
 71
     0
 72
   100
 73
     1
 74
     1
 75
     0
 76
     0
 77
     0
 78
     0
  0
ENDTAB
  0
TABLE
  2
LTYPE
 70
     2
  0
LTYPE
  2
CONTINUOUS
 70
     0
  3
Solid line
 72
    65
 73
     0
 40
0.0
  0
LTYPE
  2
PHANTOM2
 70
     0
  3
___ _ _ ___ _ _ ___ _ _ ___ _ _
 72
    65
 73
     6
 40
1.25
 49
0.625
 49
-0.125
 49
0.125
 49
-0.125
 49
0.125
 49
-0.125
  0
ENDTAB
  0
TABLE
  2
LAYER
 70
     2
  0
LAYER
  2
0
 70
     0
 62
   255
  6
CONTINUOUS
  0
LAYER
  2
DEFPOINTS
 70
     0
 62
     7
  6
CONTINUOUS
  0
ENDTAB
  0
TABLE
  2
STYLE
 70
     1
  0
STYLE
  2
STANDARD
 70
     0
 40
0.0
 41
0.8
 50
0.0
 71
     0
 42
0.2
  3
txt
  4

  0
ENDTAB
  0
TABLE
  2
VIEW
 70
     0
  0
ENDTAB
  0
TABLE
  2
UCS
 70
     0
  0
ENDTAB
  0
TABLE
  2
APPID
 70
    11
  0
APPID
  2
ACAD
 70
     0
  0
APPID
  2
ACAD_MLEADERVER
 70
     0
  0
APPID
  2
ACAD_EXEMPT_FROM_CAD_STANDARDS
 70
     0
  0
APPID
  2
ACAD_NAV_VCDISPLAY
 70
     0
  0
APPID
  2
ACAECLAYERSTANDARD
 70
     0
  0
APPID
  2
ACCMTRANSPARENCY
 70
     0
  0
APPID
  2
ACAD_DSTYLE_DIMJAG
 70
     0
  0
APPID
  2
ACAD_DSTYLE_DIMTALN
 70
     0
  0
APPID
  2
ACDBATTR
 70
     0
  0
APPID
  2
ACADANNOTATIVE
 70
     0
  0
APPID
  2
DCO15
 70
     0
  0
ENDTAB
  0
TABLE
  2
DIMSTYLE
 70
     1
  0
DIMSTYLE
  2
STANDARD
 70
     0
  3

  4

  5

  6

  7

 40
1.0
 41
0.1875
 42
0.0625
 43
0.38
 44
0.125
 45
0.0
 46
0.0
 47
0.01
 48
0.01
140
0.15625
141
0.09
142
0.0
143
25.3999999999999986
144
1.0
145
0.0
146
1.0
147
0.09
 71
     1
 72
     0
 73
     1
 74
     1
 75
     0
 76
     0
 77
     0
 78
     4
170
     0
171
     2
172
     0
173
     0
174
     0
175
     0
176
     0
177
     0
178
     0
  0
ENDTAB
  0
ENDSEC
  0
SECTION
  2
BLOCKS
  0
BLOCK
  8
0
  2
$MODEL_SPACE
 70
     0
 10
0.0
 20
0.0
 30
0.0
  3
$MODEL_SPACE
  1

  0
ENDBLK
  5
21
  8
0
  0
BLOCK
 67
     1
  8
0
  2
$PAPER_SPACE
 70
     0
 10
0.0
 20
0.0
 30
0.0
  3
$PAPER_SPACE
  1

  0
ENDBLK
  5
1D
 67
     1
  8
0
  0
ENDSEC
  0
SECTION
  2
ENTITIES
  0
ATTDEF
  5
26A5B
  8
DEFPOINTS
 10
5909.4801673524489161
 20
287.9764273184650278
 30
0.0
 40
0.001
  1
P80255-LV
  3

  2
MODELNUMBER
 70
     0
1001
ACDBATTR
1070
     0
1070
     1
  0
ATTDEF
  5
26A5C
  8
DEFPOINTS
 10
5909.480041542791696
 20
287.9747604780857841
 30
0.0
 40
0.001
  1
VIR STIL
  3

  2
TRADENAME
 70
     0
1001
ACDBATTR
1070
     0
1070
     1
  0
ATTDEF
  5
26A5D
  8
DEFPOINTS
 10
5909.4801673524489161
 20
287.9730939851316975
 30
0.0
 40
0.001
  1
VALVE TRIM
  3

  2
PRODUCT
 70
     0
1001
ACDBATTR
1070
     0
1070
     1
  0
LINE
  5
2CA0E
  8
0
 10
5909.4792843553113926
 20
291.2867055252647788
 30
0.0
 11
5909.4792843553113926
 21
284.6653809228648129
 31
0.0
  0
LINE
  5
2CA0F
  8
0
 10
5908.6792843553112107
 20
291.2867055252647788
 30
0.0
 11
5909.4792843553113926
 21
291.2867055252647788
 31
0.0
  0
LINE
  5
2CA10
  8
0
 10
5908.6592843553116836
 20
284.6853809228647947
 30
0.0
 11
5908.6592843553116836
 21
291.266705525264797
 31
0.0
  0
LINE
  5
2CA11
  8
0
 10
5908.5592843553122293
 20
284.9128809228648151
 30
0.0
 11
5908.5592843553122293
 21
291.0392055252647765
 31
0.0
  0
LINE
  5
2CA12
  8
0
 10
5908.5792843553117564
 20
291.0592055252648152
 30
0.0
 11
5908.6392843553121565
 21
291.0592055252648152
 31
0.0
  0
LINE
  5
2CA13
  8
0
 10
5908.4592843553118655
 20
290.9302055252647961
 30
0.0
 11
5908.4592843553118655
 21
285.0218809228647956
 31
0.0
  0
LINE
  5
2CA14
  8
0
 10
5908.4792843553123021
 20
290.9502055252647779
 30
0.0
 11
5908.5392843553108833
 21
290.9502055252647779
 31
0.0
  0
ARC
  5
2CA15
  8
0
 10
5908.4792843553123021
 20
290.9302055252647961
 30
0.0
 40
0.02
 50
90.0
 51
179.9999999999967031
  0
ARC
  5
2CA16
  8
0
 10
5908.5392843553108833
 20
290.9702055252648165
 30
0.0
 40
0.02
 50
270.0
 51
359.9999999999968168
  0
ARC
  5
2CA17
  8
0
 10
5908.5792843553117564
 20
291.0392055252647765
 30
0.0
 40
0.02
 50
90.0
 51
180.0
  0
ARC
  5
2CA18
  8
0
 10
5908.6392843553121565
 20
291.079205525264797
 30
0.0
 40
0.02
 50
270.0
 51
359.9999999999935199
  0
ARC
  5
2CA19
  8
0
 10
5908.6792843553112107
 20
291.266705525264797
 30
0.0
 40
0.02
 50
90.0
 51
180.0
  0
LINE
  5
2CA1A
  8
0
 10
5908.6792843553112107
 20
284.6653809228648129
 30
0.0
 11
5909.4792843553113926
 21
284.6653809228648129
 31
0.0
  0
LINE
  5
2CA1B
  8
0
 10
5908.5792843553117564
 20
284.8928809228647765
 30
0.0
 11
5908.6392843553121565
 21
284.8928809228647765
 31
0.0
  0
LINE
  5
2CA1C
  8
0
 10
5908.4792843553123021
 20
285.0018809228648138
 30
0.0
 11
5908.5392843553108833
 21
285.0018809228648138
 31
0.0
  0
ARC
  5
2CA1D
  8
0
 10
5908.4792843553123021
 20
285.0218809228647956
 30
0.0
 40
0.02
 50
180.0000000000032117
 51
270.0
  0
ARC
  5
2CA1E
  8
0
 10
5908.5392843553108833
 20
284.9818809228648888
 30
0.0
 40
0.02
 50
0.0000000000032569
 51
90.0
  0
ARC
  5
2CA1F
  8
0
 10
5908.5792843553117564
 20
284.9128809228648151
 30
0.0
 40
0.02
 50
180.0
 51
270.0
  0
ARC
  5
2CA20
  8
0
 10
5908.6392843553121565
 20
284.8728809228647947
 30
0.0
 40
0.02
 50
0.0000000000065138
 51
90.0
  0
ARC
  5
2CA21
  8
0
 10
5908.6792843553112107
 20
284.6853809228647947
 30
0.0
 40
0.02
 50
180.0
 51
270.0
  0
LINE
  5
2CA23
  8
0
 10
5906.7752843553116691
 20
288.4277055252647983
 30
0.0
 11
5906.7752843553116691
 21
285.114205525264822
 31
0.0
  0
LINE
  5
2CA24
  8
0
 10
5906.7602843553122511
 20
288.4427055252647847
 30
0.0
 11
5906.7122843553106577
 21
288.4427055252647847
 31
0.0
  0
LINE
  5
2CA25
  8
0
 10
5906.2822843553121857
 20
288.5052055252647847
 30
0.0
 11
5906.6822843553118219
 21
288.5052055252647847
 31
0.0
  0
LINE
  5
2CA26
  8
0
 10
5906.2522843553124403
 20
288.475205525264812
 30
0.0
 11
5906.2522843553124403
 21
285.1292055252648083
 31
0.0
  0
LINE
  5
2CA27
  8
0
 10
5906.2122843553115672
 20
288.3492055252648925
 30
0.0
 11
5906.2122843553115672
 21
285.2542055252648083
 31
0.0
  0
LINE
  5
2CA28
  8
0
 10
5906.2022843553131679
 20
288.3177055252647847
 30
0.0
 11
5906.2022843553131679
 21
287.6307055252647729
 31
0.0
  0
LINE
  5
2CA29
  8
0
 10
5906.2022843553131679
 20
288.3177055252647847
 30
0.0
 11
5906.13228435531164
 21
288.3177055252647847
 31
0.0
  0
LINE
  5
2CA2A
  8
0
 10
5906.13228435531164
 20
288.3177055252647847
 30
0.0
 11
5906.13228435531164
 21
287.6307055252647729
 31
0.0
  0
LINE
  5
2CA2B
  8
0
 10
5906.2272843553118946
 20
288.364205525264822
 30
0.0
 11
5906.2522843553124403
 21
288.364205525264822
 31
0.0
  0
LINE
  5
2CA2C
  8
0
 10
5906.2272843553118946
 20
288.364205525264822
 30
0.0
 11
5906.2122843553115672
 21
288.3492055252648925
 31
0.0
  0
LINE
  5
2CA2D
  8
0
 10
5906.2272843553118946
 20
288.364205525264822
 30
0.0
 11
5906.2272843553118946
 21
285.239205525264822
 31
0.0
  0
LINE
  5
2CA2E
  8
0
 10
5906.2522843553124403
 20
288.475205525264812
 30
0.0
 11
5906.2822843553121857
 21
288.5052055252647847
 31
0.0
  0
LINE
  5
2CA2F
  8
0
 10
5906.7122843553106577
 20
288.475205525264812
 30
0.0
 11
5906.6822843553118219
 21
288.5052055252647847
 31
0.0
  0
LINE
  5
2CA30
  8
0
 10
5906.7122843553106577
 20
288.475205525264812
 30
0.0
 11
5906.7122843553106577
 21
285.0992055252647788
 31
0.0
  0
LINE
  5
2CA31
  8
0
 10
5906.7602843553122511
 20
288.4427055252647847
 30
0.0
 11
5906.7752843553116691
 21
288.4277055252647983
 31
0.0
  0
LINE
  5
2CA32
  8
0
 10
5906.2022843553131679
 20
288.2651126535816957
 30
0.0
 11
5906.2122843553115672
 21
288.2651126535816957
 31
0.0
  0
LINE
  5
2CA33
  8
0
 10
5906.2022843553131679
 20
287.6307055252647729
 30
0.0
 11
5906.13228435531164
 21
287.6307055252647729
 31
0.0
  0
LINE
  5
2CA34
  8
0
 10
5906.2022843553131679
 20
287.6867055252648129
 30
0.0
 11
5906.2122843553115672
 21
287.6867055252648129
 31
0.0
  0
LINE
  5
2CA35
  8
0
 10
5906.2822843553121857
 20
285.0992055252647788
 30
0.0
 11
5906.7602843553122511
 21
285.0992055252647788
 31
0.0
  0
LINE
  5
2CA36
  8
0
 10
5906.2272843553118946
 20
285.239205525264822
 30
0.0
 11
5906.2522843553124403
 21
285.239205525264822
 31
0.0
  0
LINE
  5
2CA37
  8
0
 10
5906.2272843553118946
 20
285.239205525264822
 30
0.0
 11
5906.2122843553115672
 21
285.2542055252648083
 31
0.0
  0
LINE
  5
2CA38
  8
0
 10
5906.2522843553124403
 20
285.1292055252648083
 30
0.0
 11
5906.2822843553121857
 21
285.0992055252647788
 31
0.0
  0
LINE
  5
2CA39
  8
0
 10
5906.7752843553116691
 20
285.114205525264822
 30
0.0
 11
5906.7602843553122511
 21
285.0992055252647788
 31
0.0
  0
LINE
  5
2CA3A
  8
0
 10
5906.2822843553121857
 20
288.5052055252647847
 30
0.0
 11
5906.2822843553121857
 21
285.0992055252647788
 31
0.0
  0
LINE
  5
2CA3B
  8
0
 10
5906.6822843553118219
 20
288.5052055252647847
 30
0.0
 11
5906.6822843553118219
 21
285.0992055252647788
 31
0.0
  0
LINE
  5
2CA3C
  8
0
 10
5906.7602843553122511
 20
285.0992055252647788
 30
0.0
 11
5906.7602843553122511
 21
288.4427055252647847
 31
0.0
  0
LINE
  5
2CA3D
  8
0
 10
5906.2822843553121857
 20
287.6152664502648122
 30
0.0
 11
5906.6822843553118219
 21
287.6152664502648122
 31
0.0
  0
LINE
  5
2CA3E
  8
0
 10
5906.7122843553106577
 20
287.625155385564824
 30
0.0
 11
5906.7602843552676859
 21
287.6251553856312739
 31
0.0
  0
LINE
  5
2CA3F
  8
0
 10
5906.7602843552676859
 20
287.6251553856312739
 30
0.0
 11
5906.7752843553116691
 21
287.6319249386618822
 31
0.0
  0
LINE
  5
2CA40
  8
0
 10
5906.7752843553116691
 20
287.5742055252648015
 30
0.0
 11
5906.7952843553121056
 21
287.5742055252648015
 31
0.0
  0
LINE
  5
2CA41
  8
0
 10
5906.7952843553121056
 20
287.5042055252648083
 30
0.0
 11
5906.7952843553121056
 21
288.4442055246648238
 31
0.0
  0
ARC
  5
2CA42
  8
0
 10
5906.81028435591179
 20
288.4442055246648238
 30
0.0
 40
0.0150000006000006
 50
90.0000022918069362
 51
180.0000000000032117
  0
LINE
  5
2CA43
  8
0
 10
5906.810284355310614
 20
288.4592055252647924
 30
0.0
 11
5906.8582843553122075
 21
288.4592055271847926
 31
0.0
  0
LINE
  5
2CA44
  8
0
 10
5906.9212843553123093
 20
288.534205525264781
 30
0.0
 11
5906.8732843553107159
 21
288.534205525264781
 31
0.0
  0
ARC
  5
2CA45
  8
0
 10
5906.8732843553107159
 20
288.5192055252647947
 30
0.0
 40
0.0150000000000015
 50
90.0
 51
180.0000240642237088
  0
LINE
  5
2CA46
  8
0
 10
5906.8582843553122075
 20
288.5192055189647817
 30
0.0
 11
5906.8582848131118226
 21
287.4292055252648765
 31
0.0
  0
ARC
  5
2CA47
  8
0
 10
5906.8732848194176768
 20
287.4292055315648895
 30
0.0
 40
0.0150000063072766
 50
180.0000240642268921
 51
269.9982272418887987
  0
LINE
  5
2CA48
  8
0
 10
5906.8732843553107159
 20
287.4142055252647765
 30
0.0
 11
5906.9212843552886625
 21
287.4142040401223994
 31
0.0
  0
LINE
  5
2CA49
  8
0
 10
5906.8582843553122075
 20
287.489205525264822
 30
0.0
 11
5906.810284355310614
 21
287.489205525264822
 31
0.0
  0
ARC
  5
2CA4A
  8
0
 10
5906.810284355310614
 20
287.5042055252648083
 30
0.0
 40
0.0150000000000006
 50
180.0000000000032117
 51
270.0
  0
LINE
  5
2CA4B
  8
0
 10
5906.9212843553123093
 20
287.3792055255648279
 30
0.0
 11
5906.9212843553123093
 21
288.5692055249647865
 31
0.0
  0
ARC
  5
2CA4C
  8
0
 10
5906.9375432756305599
 20
288.5686840632263852
 30
0.0
 40
0.0162672804205017
 50
94.4385425533160401
 51
178.1630195518974062
  0
LINE
  5
2CA4D
  8
0
 10
5906.9362843553108178
 20
288.5849025567418948
 30
0.0
 11
5907.4192843553119019
 21
288.5849025567418948
 31
0.0
  0
LINE
  5
2CA4E
  8
0
 10
5908.4592843553118655
 20
288.9760449126317781
 30
0.0
 11
5907.5342843553107741
 21
288.9760449126317781
 31
0.0
  0
ARC
  5
2CA4F
  8
0
 10
5907.5342843553107741
 20
288.9610449126319054
 30
0.0
 40
0.0150000000000015
 50
90.0
 51
179.9999999999934914
  0
LINE
  5
2CA50
  8
0
 10
5907.5192843553131752
 20
288.9610449126319054
 30
0.0
 11
5907.5192843553113562
 21
286.9892055246644986
 31
0.0
  0
ARC
  5
2CA51
  8
0
 10
5907.5342843547114171
 20
286.9892055246644986
 30
0.0
 40
0.0149999993996914
 50
179.9999999999967031
 51
270.0000022938913276
  0
LINE
  5
2CA52
  8
0
 10
5907.5342843553107741
 20
286.9742055252647788
 30
0.0
 11
5908.4592843553118655
 21
286.9742055622982093
 31
0.0
  0
LINE
  5
2CA53
  8
0
 10
5907.5192843553131752
 20
287.094205525264897
 30
0.0
 11
5907.4842843553105922
 21
287.094205525264897
 31
0.0
  0
ARC
  5
2CA54
  8
0
 10
5907.4842843553105922
 20
287.1092055252648265
 30
0.0
 40
0.015000000000001
 50
180.0000012078039049
 51
270.0
  0
LINE
  5
2CA55
  8
0
 10
5907.4692843553120838
 20
287.1092055249486066
 30
0.0
 11
5907.4692843188422557
 21
288.8392055252647879
 31
0.0
  0
ARC
  5
2CA56
  8
0
 10
5907.484284318527898
 20
288.8392055255810078
 30
0.0
 40
0.0149999996838428
 50
89.9998594923803807
 51
180.0000012078039049
  0
LINE
  5
2CA57
  8
0
 10
5907.4842843553105922
 20
288.8542055252647742
 30
0.0
 11
5907.5192843553113562
 21
288.8542054394335992
 31
0.0
  0
LINE
  5
2CA58
  8
0
 10
5907.4692843553120838
 20
288.7992055252648242
 30
0.0
 11
5907.4342843553122293
 21
288.7992055252648242
 31
0.0
  0
ARC
  5
2CA59
  8
0
 10
5907.4342843553122293
 20
288.784205525264781
 30
0.0
 40
0.0150000000000006
 50
90.0
 51
179.9999999999934914
  0
LINE
  5
2CA5A
  8
0
 10
5907.4192843553119019
 20
288.784205525264781
 30
0.0
 11
5907.4192843553119019
 21
287.1642055242606943
 31
0.0
  0
ARC
  5
2CA5B
  8
0
 10
5907.4342843543072377
 20
287.1642055242606943
 30
0.0
 40
0.0149999989958936
 50
179.9999999999901945
 51
270.0000038361450834
  0
LINE
  5
2CA5C
  8
0
 10
5907.4342843553122293
 20
287.1492055252647901
 30
0.0
 11
5907.4692843544689822
 21
287.1492055276082169
 31
0.0
  0
LINE
  5
2CA5D
  8
0
 10
5907.4192843553119019
 20
287.364205525264822
 30
0.0
 11
5906.9362843553108178
 21
287.364205525264822
 31
0.0
  0
ARC
  5
2CA5E
  8
0
 10
5906.9362843553108178
 20
287.3792055252648083
 30
0.0
 40
0.0149999999999997
 50
179.9999988540834863
 51
270.0
  0
LINE
  5
2CA5F
  8
0
 10
5906.7952843553121056
 20
288.3742055252648129
 30
0.0
 11
5906.7752843553116691
 21
288.3742055252648129
 31
0.0
  0
ENDSEC
  0
EOF
