  0
SECTION
  2
HEADER
  9
$ACADVER
  1
AC1009
  9
$INSBASE
 10
1013.6002754128800234
 20
141.3495919975001129
 30
0.0
  9
$EXTMIN
 10
1010.5484498188800444
 20
138.0389296963001016
 30
0.0
  9
$EXTMAX
 10
1013.6122197887790435
 20
144.6602542987000959
 30
0.0
  9
$LIMMIN
 10
0.0
 20
0.0
  9
$LIMMAX
 10
11.6929133858000007
 20
8.2677165353999982
  9
$ORTHOMODE
 70
     0
  9
$REGENMODE
 70
     1
  9
$FILLMODE
 70
     1
  9
$QTEXTMODE
 70
     0
  9
$MIRRTEXT
 70
     0
  9
$DRAGMODE
 70
     2
  9
$LTSCALE
 40
0.6431102362
  9
$OSMODE
 70
  4095
  9
$ATTMODE
 70
     1
  9
$TEXTSIZE
 40
0.2
  9
$TRACEWID
 40
0.05
  9
$TEXTSTYLE
  7
STANDARD
  9
$CLAYER
  8
0
  9
$CELTYPE
  6
BYLAYER
  9
$CECOLOR
 62
   256
  9
$DIMSCALE
 40
1.0
  9
$DIMASZ
 40
0.1875
  9
$DIMEXO
 40
0.0625
  9
$DIMDLI
 40
0.4443307087
  9
$DIMRND
 40
0.0
  9
$DIMDLE
 40
0.0
  9
$DIMEXE
 40
0.125
  9
$DIMTP
 40
0.01
  9
$DIMTM
 40
0.01
  9
$DIMTXT
 40
1.0
  9
$DIMCEN
 40
0.1052362205
  9
$DIMTSZ
 40
0.0
  9
$DIMTOL
 70
     1
  9
$DIMLIM
 70
     0
  9
$DIMTIH
 70
     0
  9
$DIMTOH
 70
     1
  9
$DIMSE1
 70
     0
  9
$DIMSE2
 70
     0
  9
$DIMTAD
 70
     0
  9
$DIMZIN
 70
     0
  9
$DIMBLK
  1

  9
$DIMASO
 70
     1
  9
$DIMSHO
 70
     1
  9
$DIMPOST
  1
\X
  9
$DIMAPOST
  1

  9
$DIMALT
 70
     1
  9
$DIMALTD
 70
     2
  9
$DIMALTF
 40
25.3999999999999986
  9
$DIMLFAC
 40
1.0
  9
$DIMTOFL
 70
     0
  9
$DIMTVP
 40
0.0
  9
$DIMTIX
 70
     0
  9
$DIMSOXD
 70
     0
  9
$DIMSAH
 70
     0
  9
$DIMBLK1
  1

  9
$DIMBLK2
  1

  9
$DIMSTYLE
  2
STANDARD
  9
$DIMCLRD
 70
     0
  9
$DIMCLRE
 70
     0
  9
$DIMCLRT
 70
     0
  9
$DIMTFAC
 40
1.0
  9
$DIMGAP
 40
0.09
  9
$LUNITS
 70
     2
  9
$LUPREC
 70
     4
  9
$SKETCHINC
 40
0.1
  9
$FILLETRAD
 40
0.0
  9
$AUNITS
 70
     0
  9
$AUPREC
 70
     0
  9
$MENU
  1
.
  9
$ELEVATION
 40
0.0
  9
$PELEVATION
 40
0.0
  9
$THICKNESS
 40
0.0
  9
$LIMCHECK
 70
     0
  9
$BLIPMODE
 70
     0
  9
$CHAMFERA
 40
0.0
  9
$CHAMFERB
 40
0.0
  9
$SKPOLY
 70
     0
  9
$TDCREATE
 40
2458172.5207638889551163
  9
$TDUPDATE
 40
2460192.6611342588439584
  9
$TDINDWG
 40
0.4862391435
  9
$TDUSRTIMER
 40
0.4862391435
  9
$USRTIMER
 70
     1
  9
$ANGBASE
 50
0.0
  9
$ANGDIR
 70
     0
  9
$PDMODE
 70
     0
  9
$PDSIZE
 40
0.3125
  9
$PLINEWID
 40
0.0
  9
$COORDS
 70
     1
  9
$SPLFRAME
 70
     0
  9
$SPLINETYPE
 70
     6
  9
$SPLINESEGS
 70
     8
  9
$ATTDIA
 70
     1
  9
$ATTREQ
 70
     1
  9
$HANDLING
 70
     1
  9
$HANDSEED
  5
D92C
  9
$SURFTAB1
 70
     6
  9
$SURFTAB2
 70
     6
  9
$SURFTYPE
 70
     6
  9
$SURFU
 70
     6
  9
$SURFV
 70
     6
  9
$UCSNAME
  2

  9
$UCSORG
 10
0.0
 20
0.0
 30
0.0
  9
$UCSXDIR
 10
1.0
 20
0.0
 30
0.0
  9
$UCSYDIR
 10
0.0
 20
1.0
 30
0.0
  9
$PUCSNAME
  2

  9
$PUCSORG
 10
0.0
 20
0.0
 30
0.0
  9
$PUCSXDIR
 10
1.0
 20
0.0
 30
0.0
  9
$PUCSYDIR
 10
0.0
 20
1.0
 30
0.0
  9
$USERI1
 70
     0
  9
$USERI2
 70
     0
  9
$USERI3
 70
     0
  9
$USERI4
 70
     0
  9
$USERI5
 70
     0
  9
$USERR1
 40
0.0
  9
$USERR2
 40
0.0
  9
$USERR3
 40
0.0
  9
$USERR4
 40
0.0
  9
$USERR5
 40
0.0
  9
$WORLDVIEW
 70
     1
  9
$SHADEDGE
 70
     3
  9
$SHADEDIF
 70
    70
  9
$TILEMODE
 70
     1
  9
$MAXACTVP
 70
    64
  9
$PLIMCHECK
 70
     0
  9
$PEXTMIN
 10
1.0000000000000000E+20
 20
1.0000000000000000E+20
 30
1.0000000000000000E+20
  9
$PEXTMAX
 10
-1.0000000000000000E+20
 20
-1.0000000000000000E+20
 30
-1.0000000000000000E+20
  9
$PLIMMIN
 10
0.0
 20
0.0
  9
$PLIMMAX
 10
12.0
 20
9.0
  9
$UNITMODE
 70
     0
  9
$VISRETAIN
 70
     1
  9
$PLINEGEN
 70
     0
  9
$PSLTSCALE
 70
     1
  0
ENDSEC
  0
SECTION
  2
TABLES
  0
TABLE
  2
VPORT
 70
     1
  0
VPORT
  2
*ACTIVE
 70
     0
 10
0.0
 20
0.0
 11
1.0
 21
1.0
 12
545.3645852913067529
 22
52.2152070260123367
 13
0.0
 23
0.0
 14
1.0
 24
1.0
 15
0.0
 25
0.0
 16
0.0
 26
0.0
 36
24.1179433675886514
 17
466.74220170783002
 27
89.133147119929788
 37
0.0
 40
6.6814356067900462
 41
1.4761904761904761
 42
50.0
 43
0.0
 44
0.0
 50
0.0
 51
0.0
 71
     0
 72
   100
 73
     1
 74
     1
 75
     0
 76
     0
 77
     0
 78
     0
  0
ENDTAB
  0
TABLE
  2
LTYPE
 70
     2
  0
LTYPE
  2
CONTINUOUS
 70
     0
  3
Solid line
 72
    65
 73
     0
 40
0.0
  0
LTYPE
  2
PHANTOM2
 70
     0
  3
___ _ _ ___ _ _ ___ _ _ ___ _ _
 72
    65
 73
     6
 40
1.25
 49
0.625
 49
-0.125
 49
0.125
 49
-0.125
 49
0.125
 49
-0.125
  0
ENDTAB
  0
TABLE
  2
LAYER
 70
     2
  0
LAYER
  2
0
 70
     0
 62
   255
  6
CONTINUOUS
  0
LAYER
  2
DEFPOINTS
 70
     0
 62
     7
  6
CONTINUOUS
  0
ENDTAB
  0
TABLE
  2
STYLE
 70
     1
  0
STYLE
  2
STANDARD
 70
     0
 40
0.0
 41
0.8
 50
0.0
 71
     0
 42
0.2
  3
txt
  4

  0
ENDTAB
  0
TABLE
  2
VIEW
 70
     0
  0
ENDTAB
  0
TABLE
  2
UCS
 70
     0
  0
ENDTAB
  0
TABLE
  2
APPID
 70
    11
  0
APPID
  2
ACAD
 70
     0
  0
APPID
  2
ACAD_MLEADERVER
 70
     0
  0
APPID
  2
ACAD_EXEMPT_FROM_CAD_STANDARDS
 70
     0
  0
APPID
  2
ACAD_DSTYLE_DIMJAG
 70
     0
  0
APPID
  2
ACAD_DSTYLE_DIMTALN
 70
     0
  0
APPID
  2
ACAD_NAV_VCDISPLAY
 70
     0
  0
APPID
  2
ACAECLAYERSTANDARD
 70
     0
  0
APPID
  2
ACCMTRANSPARENCY
 70
     0
  0
APPID
  2
DCO15
 70
     0
  0
APPID
  2
ACDBATTR
 70
     0
  0
APPID
  2
ACADANNOTATIVE
 70
     0
  0
ENDTAB
  0
TABLE
  2
DIMSTYLE
 70
     1
  0
DIMSTYLE
  2
STANDARD
 70
     0
  3

  4

  5

  6

  7

 40
1.0
 41
0.1875
 42
0.0625
 43
0.38
 44
0.125
 45
0.0
 46
0.0
 47
0.01
 48
0.01
140
0.15625
141
0.09
142
0.0
143
25.3999999999999986
144
1.0
145
0.0
146
1.0
147
0.09
 71
     1
 72
     0
 73
     1
 74
     1
 75
     0
 76
     0
 77
     0
 78
     4
170
     0
171
     2
172
     0
173
     0
174
     0
175
     0
176
     0
177
     0
178
     0
  0
ENDTAB
  0
ENDSEC
  0
SECTION
  2
BLOCKS
  0
BLOCK
  8
0
  2
$MODEL_SPACE
 70
     0
 10
0.0
 20
0.0
 30
0.0
  3
$MODEL_SPACE
  1

  0
ENDBLK
  5
21
  8
0
  0
BLOCK
 67
     1
  8
0
  2
$PAPER_SPACE
 70
     0
 10
0.0
 20
0.0
 30
0.0
  3
$PAPER_SPACE
  1

  0
ENDBLK
  5
1D
 67
     1
  8
0
  0
ENDSEC
  0
SECTION
  2
ENTITIES
  0
ATTDEF
  5
D43E
  8
DEFPOINTS
 10
1013.6015531221120227
 20
141.3507293503799076
 30
0.0
 40
0.001
  1
P80254-LV
  3

  2
MODELNUMBER
 70
     0
1001
ACDBATTR
1070
     0
1070
     1
  0
ATTDEF
  5
D43F
  8
DEFPOINTS
 10
1013.6015531221120227
 20
141.349062683713214
 30
0.0
 40
0.001
  1
VIR STIL
  3

  2
TRADENAME
 70
     0
1001
ACDBATTR
1070
     0
1070
     1
  0
ATTDEF
  5
D440
  8
DEFPOINTS
 10
1013.6015531221120227
 20
141.3473960170466057
 30
0.0
 40
0.001
  1
VALVE TRIM
  3

  2
PRODUCT
 70
     0
1001
ACDBATTR
1070
     0
1070
     1
  0
LINE
  5
D853
  8
0
 10
1013.6002754128800234
 20
144.6602542987000959
 30
0.0
 11
1013.6002754128800234
 21
138.0389296963001016
 31
0.0
  0
LINE
  5
D854
  8
0
 10
1012.8002754128799552
 20
144.6602542987000959
 30
0.0
 11
1013.6002754128800234
 21
144.6602542987000959
 31
0.0
  0
LINE
  5
D855
  8
0
 10
1012.7802754128799734
 20
138.0589296963001118
 30
0.0
 11
1012.7802754128799734
 21
144.6402542987001141
 31
0.0
  0
LINE
  5
D856
  8
0
 10
1012.6802754128799506
 20
138.2864296963001038
 30
0.0
 11
1012.6802754128799506
 21
144.4127542987000936
 31
0.0
  0
LINE
  5
D857
  8
0
 10
1012.7002754128800461
 20
144.4327542987001038
 30
0.0
 11
1012.7602754128799916
 21
144.4327542987001038
 31
0.0
  0
LINE
  5
D858
  8
0
 10
1012.5802754128800416
 20
144.3037542987001132
 30
0.0
 11
1012.5802754128800416
 21
138.3954296963001127
 31
0.0
  0
LINE
  5
D859
  8
0
 10
1012.6002754128800234
 20
144.323754298700095
 30
0.0
 11
1012.6602754128799688
 21
144.323754298700095
 31
0.0
  0
LINE
  5
D85A
  8
0
 10
1012.1474498188799771
 20
142.2777542987001027
 30
0.0
 11
1012.5802754128800416
 21
142.2777542987001027
 31
0.0
  0
LINE
  5
D85B
  8
0
 10
1012.1274498188799953
 20
142.2577542987000925
 30
0.0
 11
1012.1274498188799953
 21
140.441429696300105
 31
0.0
  0
LINE
  5
D85C
  8
0
 10
1012.0774498188800408
 20
142.1327542987000925
 30
0.0
 11
1012.0774498188800408
 21
140.566429696300105
 31
0.0
  0
LINE
  5
D85D
  8
0
 10
1012.0274498188799726
 20
142.0702542987000925
 30
0.0
 11
1012.0274498188799726
 21
140.628929696300105
 31
0.0
  0
LINE
  5
D85E
  8
0
 10
1011.3564498188800371
 20
141.9727542987000959
 30
0.0
 11
1012.0274498188799726
 21
141.9727542987000959
 31
0.0
  0
LINE
  5
D85F
  8
0
 10
1011.3364498188800553
 20
140.7464296963001118
 30
0.0
 11
1011.3364498188800553
 21
141.9527542987001141
 31
0.0
  0
LINE
  5
D860
  8
0
 10
1011.2744498188800435
 20
140.8929296963000866
 30
0.0
 11
1011.2744498188800435
 21
141.8062542987001109
 31
0.0
  0
LINE
  5
D861
  8
0
 10
1011.1914498188799598
 20
141.801254298700087
 30
0.0
 11
1011.1914498188799598
 21
138.4877542987001107
 31
0.0
  0
LINE
  5
D862
  8
0
 10
1011.254449818879948
 20
141.752754298700097
 30
0.0
 11
1011.1914498188799598
 21
141.752754298700097
 31
0.0
  0
LINE
  5
D863
  8
0
 10
1011.1764498188799735
 20
141.8162542987001018
 30
0.0
 11
1011.1284498188799716
 21
141.8162542987001018
 31
0.0
  0
LINE
  5
D864
  8
0
 10
1010.6984498188800217
 20
141.8787542987001018
 30
0.0
 11
1011.0984498188799989
 21
141.8787542987001018
 31
0.0
  0
LINE
  5
D865
  8
0
 10
1010.668449818880049
 20
141.8487542987001007
 30
0.0
 11
1010.668449818880049
 21
138.502754298700097
 31
0.0
  0
LINE
  5
D866
  8
0
 10
1010.6284498188799716
 20
141.7227542987000959
 30
0.0
 11
1010.6284498188799716
 21
138.627754298700097
 31
0.0
  0
LINE
  5
D867
  8
0
 10
1010.6184498188799807
 20
141.6912542987001018
 30
0.0
 11
1010.6184498188799807
 21
141.00425429870009
 31
0.0
  0
LINE
  5
D868
  8
0
 10
1010.6184498188799807
 20
141.6912542987001018
 30
0.0
 11
1010.5484498188800444
 21
141.6912542987001018
 31
0.0
  0
LINE
  5
D869
  8
0
 10
1010.5484498188800444
 20
141.6912542987001018
 30
0.0
 11
1010.5484498188800444
 21
141.00425429870009
 31
0.0
  0
LINE
  5
D86A
  8
0
 10
1010.643449818879958
 20
141.7377542987001107
 30
0.0
 11
1010.668449818880049
 21
141.7377542987001107
 31
0.0
  0
LINE
  5
D86B
  8
0
 10
1010.643449818879958
 20
141.7377542987001107
 30
0.0
 11
1010.6284498188799716
 21
141.7227542987000959
 31
0.0
  0
LINE
  5
D86C
  8
0
 10
1010.643449818879958
 20
141.7377542987001107
 30
0.0
 11
1010.643449818879958
 21
138.6127542987001107
 31
0.0
  0
LINE
  5
D86D
  8
0
 10
1010.668449818880049
 20
141.8487542987001007
 30
0.0
 11
1010.6984498188800217
 21
141.8787542987001018
 31
0.0
  0
LINE
  5
D86E
  8
0
 10
1011.1284498188799716
 20
141.8487542987001007
 30
0.0
 11
1011.0984498188799989
 21
141.8787542987001018
 31
0.0
  0
LINE
  5
D86F
  8
0
 10
1011.1284498188799716
 20
141.8487542987001007
 30
0.0
 11
1011.1284498188799716
 21
138.4727542987000959
 31
0.0
  0
LINE
  5
D870
  8
0
 10
1011.1764498188799735
 20
141.8162542987001018
 30
0.0
 11
1011.1914498188799598
 21
141.801254298700087
 31
0.0
  0
ARC
  5
D871
  8
0
 10
1011.254449818879948
 20
141.7727542987001073
 30
0.0
 40
0.02
 50
269.9999999999869829
 51
0.0
  0
LINE
  5
D872
  8
0
 10
1011.2944498188800253
 20
141.8262542987000927
 30
0.0
 11
1011.3164498188799598
 21
141.8262542987000927
 31
0.0
  0
ARC
  5
D873
  8
0
 10
1011.2944498188800253
 20
141.8062542987001109
 30
0.0
 40
0.02
 50
90.0
 51
179.9999999999967031
  0
ARC
  5
D874
  8
0
 10
1011.3164498188799598
 20
141.8462542987001029
 30
0.0
 40
0.02
 50
269.9999999999869829
 51
0.0000000000032569
  0
ARC
  5
D875
  8
0
 10
1011.3564498188800371
 20
141.9527542987001141
 30
0.0
 40
0.02
 50
90.0
 51
179.9999999999967031
  0
LINE
  5
D876
  8
0
 10
1012.0474498188799544
 20
142.0902542987001027
 30
0.0
 11
1012.0574498188799453
 21
142.0902542987001027
 31
0.0
  0
LINE
  5
D877
  8
0
 10
1012.0974498188800226
 20
142.1527542987001027
 30
0.0
 11
1012.1074498188800135
 21
142.1527542987001027
 31
0.0
  0
ARC
  5
D878
  8
0
 10
1012.1474498188799771
 20
142.2577542987000925
 30
0.0
 40
0.02
 50
90.0
 51
179.9999999999917861
  0
ARC
  5
D879
  8
0
 10
1012.6002754128800234
 20
144.3037542987001132
 30
0.0
 40
0.02
 50
90.0000000000065086
 51
179.9999999999967031
  0
ARC
  5
D87A
  8
0
 10
1012.6602754128799688
 20
144.3437542987001052
 30
0.0
 40
0.02
 50
270.0
 51
359.9999999999968168
  0
ARC
  5
D87B
  8
0
 10
1012.7002754128800461
 20
144.4127542987000936
 30
0.0
 40
0.02
 50
89.9999999999934914
 51
180.0
  0
ARC
  5
D87C
  8
0
 10
1012.7602754128799916
 20
144.4527542987001141
 30
0.0
 40
0.02
 50
270.0000000000130171
 51
359.9999999999951115
  0
ARC
  5
D87D
  8
0
 10
1012.8002754128799552
 20
144.6402542987001141
 30
0.0
 40
0.02
 50
90.0000000000065086
 51
180.0
  0
ARC
  5
D87E
  8
0
 10
1012.1074498188800135
 20
142.1727542987001129
 30
0.0
 40
0.02
 50
269.9999999999869829
 51
359.9999999999968168
  0
ARC
  5
D87F
  8
0
 10
1012.0974498188800226
 20
142.1327542987000925
 30
0.0
 40
0.02
 50
90.0
 51
180.0
  0
ARC
  5
D880
  8
0
 10
1012.0574498188799453
 20
142.1102542987001129
 30
0.0
 40
0.02
 50
270.0000000000130171
 51
359.9999999999968168
  0
ARC
  5
D881
  8
0
 10
1012.0474498188799544
 20
142.0702542987000925
 30
0.0
 40
0.02
 50
90.0
 51
180.0
  0
LINE
  5
D882
  8
0
 10
1010.6184498188799807
 20
141.6352542987000902
 30
0.0
 11
1010.6284498188799716
 21
141.6352542987000902
 31
0.0
  0
LINE
  5
D883
  8
0
 10
1012.8002754128799552
 20
138.0389296963001016
 30
0.0
 11
1013.6002754128800234
 21
138.0389296963001016
 31
0.0
  0
LINE
  5
D884
  8
0
 10
1012.7002754128800461
 20
138.2664296963000936
 30
0.0
 11
1012.7602754128799916
 21
138.2664296963000936
 31
0.0
  0
LINE
  5
D885
  8
0
 10
1012.6002754128800234
 20
138.3754296963001025
 30
0.0
 11
1012.6602754128799688
 21
138.3754296963001025
 31
0.0
  0
LINE
  5
D886
  8
0
 10
1012.1474498188799771
 20
140.4214296963000947
 30
0.0
 11
1012.5802754128800416
 21
140.4214296963000947
 31
0.0
  0
LINE
  5
D887
  8
0
 10
1011.3564498188800371
 20
140.7264296963001016
 30
0.0
 11
1012.0274498188799726
 21
140.7264296963001016
 31
0.0
  0
LINE
  5
D888
  8
0
 10
1011.254449818879948
 20
140.9464296963001004
 30
0.0
 11
1011.1914498188799598
 21
140.9464296963001004
 31
0.0
  0
LINE
  5
D889
  8
0
 10
1010.6184498188799807
 20
141.00425429870009
 30
0.0
 11
1010.5484498188800444
 21
141.00425429870009
 31
0.0
  0
ARC
  5
D88A
  8
0
 10
1011.254449818879948
 20
140.9264296963000902
 30
0.0
 40
0.02
 50
0.0
 51
90.0000000000130314
  0
LINE
  5
D88B
  8
0
 10
1011.2944498188800253
 20
140.8729296963001048
 30
0.0
 11
1011.3164498188799598
 21
140.8729296963001048
 31
0.0
  0
ARC
  5
D88C
  8
0
 10
1011.2944498188800253
 20
140.8929296963000866
 30
0.0
 40
0.02
 50
180.0000000000032117
 51
270.0
  0
ARC
  5
D88D
  8
0
 10
1011.3164498188799598
 20
140.8529296963000945
 30
0.0
 40
0.02
 50
359.9999999999968168
 51
90.0000000000130314
  0
ARC
  5
D88E
  8
0
 10
1011.3564498188800371
 20
140.7464296963001118
 30
0.0
 40
0.02
 50
180.0000000000032117
 51
270.0
  0
LINE
  5
D88F
  8
0
 10
1012.0474498188799544
 20
140.6089296963000947
 30
0.0
 11
1012.0574498188799453
 21
140.6089296963000947
 31
0.0
  0
LINE
  5
D890
  8
0
 10
1012.0974498188800226
 20
140.5464296963000947
 30
0.0
 11
1012.1074498188800135
 21
140.5464296963000947
 31
0.0
  0
ARC
  5
D891
  8
0
 10
1012.1474498188799771
 20
140.441429696300105
 30
0.0
 40
0.02
 50
180.0000000000081002
 51
270.0
  0
ARC
  5
D892
  8
0
 10
1012.6002754128800234
 20
138.3954296963001127
 30
0.0
 40
0.02
 50
180.0000000000032117
 51
269.9999999999935199
  0
ARC
  5
D893
  8
0
 10
1012.6602754128799688
 20
138.3554296963000922
 30
0.0
 40
0.02
 50
0.0000000000032569
 51
90.0
  0
ARC
  5
D894
  8
0
 10
1012.7002754128800461
 20
138.2864296963001038
 30
0.0
 40
0.02
 50
180.0
 51
270.0000000000064801
  0
ARC
  5
D895
  8
0
 10
1012.7602754128799916
 20
138.2464296963001118
 30
0.0
 40
0.02
 50
0.0000000000048853
 51
89.9999999999869686
  0
ARC
  5
D896
  8
0
 10
1012.8002754128799552
 20
138.0589296963001118
 30
0.0
 40
0.02
 50
180.0
 51
269.9999999999935199
  0
ARC
  5
D897
  8
0
 10
1012.1074498188800135
 20
140.5264296963001129
 30
0.0
 40
0.02
 50
0.0000000000032569
 51
90.0000000000130314
  0
ARC
  5
D898
  8
0
 10
1012.0974498188800226
 20
140.566429696300105
 30
0.0
 40
0.02
 50
180.0
 51
270.0
  0
ARC
  5
D899
  8
0
 10
1012.0574498188799453
 20
140.5889296963001129
 30
0.0
 40
0.02
 50
0.0000000000032569
 51
89.9999999999869686
  0
ARC
  5
D89A
  8
0
 10
1012.0474498188799544
 20
140.628929696300105
 30
0.0
 40
0.02
 50
180.0
 51
270.0
  0
LINE
  5
D89B
  8
0
 10
1010.6184498188799807
 20
141.0602542987001016
 30
0.0
 11
1010.6284498188799716
 21
141.0602542987001016
 31
0.0
  0
LINE
  5
D89C
  8
0
 10
1010.6984498188800217
 20
138.4727542987000959
 30
0.0
 11
1011.1764498188799735
 21
138.4727542987000959
 31
0.0
  0
LINE
  5
D89D
  8
0
 10
1010.643449818879958
 20
138.613754298700087
 30
0.0
 11
1010.668449818880049
 21
138.613754298700087
 31
0.0
  0
LINE
  5
D89E
  8
0
 10
1010.643449818879958
 20
138.613754298700087
 30
0.0
 11
1010.6284498188799716
 21
138.6287542987001018
 31
0.0
  0
LINE
  5
D89F
  8
0
 10
1010.668449818880049
 20
138.502754298700097
 30
0.0
 11
1010.6984498188800217
 21
138.4727542987000959
 31
0.0
  0
LINE
  5
D8A0
  8
0
 10
1011.1914498188799598
 20
138.4877542987001107
 30
0.0
 11
1011.1764498188799735
 21
138.4727542987000959
 31
0.0
  0
LINE
  5
D8A1
  8
0
 10
1010.6984498188800217
 20
141.8787542987001018
 30
0.0
 11
1010.6984498188800217
 21
138.4727542987000959
 31
0.0
  0
LINE
  5
D8A2
  8
0
 10
1011.0984498188799989
 20
141.8787542987001018
 30
0.0
 11
1011.0984498188799989
 21
138.4727542987000959
 31
0.0
  0
LINE
  5
D8A3
  8
0
 10
1011.1764498188799735
 20
138.4727542987000959
 30
0.0
 11
1011.1764498188799735
 21
141.8162542987001018
 31
0.0
  0
ENDSEC
  0
EOF
