  0
SECTION
  2
HEADER
  9
$ACADVER
  1
AC1009
  9
$INSBASE
 10
4495.6801669338410647
 20
171.9325993403342068
 30
0.0
  9
$EXTMIN
 10
4488.2720575955809181
 20
163.784632748132907
 30
-0.0000000349181948
  9
$EXTMAX
 10
4503.0943875603043125
 20
173.1923787007623901
 30
0.0000000814935746
  9
$LIMMIN
 10
0.0
 20
0.0
  9
$LIMMAX
 10
11.6929133858000007
 20
8.2677165353999982
  9
$ORTHOMODE
 70
     0
  9
$REGENMODE
 70
     1
  9
$FILLMODE
 70
     1
  9
$QTEXTMODE
 70
     0
  9
$MIRRTEXT
 70
     0
  9
$DRAGMODE
 70
     2
  9
$LTSCALE
 40
0.6431102362
  9
$OSMODE
 70
  3839
  9
$ATTMODE
 70
     1
  9
$TEXTSIZE
 40
0.2
  9
$TRACEWID
 40
0.05
  9
$TEXTSTYLE
  7
STANDARD
  9
$CLAYER
  8
0
  9
$CELTYPE
  6
BYLAYER
  9
$CECOLOR
 62
   256
  9
$DIMSCALE
 40
1.0
  9
$DIMASZ
 40
0.1875
  9
$DIMEXO
 40
0.0625
  9
$DIMDLI
 40
0.4443307087
  9
$DIMRND
 40
0.0
  9
$DIMDLE
 40
0.0
  9
$DIMEXE
 40
0.125
  9
$DIMTP
 40
0.01
  9
$DIMTM
 40
0.01
  9
$DIMTXT
 40
2.0
  9
$DIMCEN
 40
0.1052362205
  9
$DIMTSZ
 40
0.0
  9
$DIMTOL
 70
     1
  9
$DIMLIM
 70
     0
  9
$DIMTIH
 70
     1
  9
$DIMTOH
 70
     1
  9
$DIMSE1
 70
     0
  9
$DIMSE2
 70
     0
  9
$DIMTAD
 70
     0
  9
$DIMZIN
 70
     0
  9
$DIMBLK
  1

  9
$DIMASO
 70
     1
  9
$DIMSHO
 70
     1
  9
$DIMPOST
  1
\X
  9
$DIMAPOST
  1

  9
$DIMALT
 70
     1
  9
$DIMALTD
 70
     2
  9
$DIMALTF
 40
25.3999999999999986
  9
$DIMLFAC
 40
1.0
  9
$DIMTOFL
 70
     0
  9
$DIMTVP
 40
0.0
  9
$DIMTIX
 70
     0
  9
$DIMSOXD
 70
     0
  9
$DIMSAH
 70
     0
  9
$DIMBLK1
  1

  9
$DIMBLK2
  1

  9
$DIMSTYLE
  2
STANDARD
  9
$DIMCLRD
 70
     0
  9
$DIMCLRE
 70
     0
  9
$DIMCLRT
 70
     0
  9
$DIMTFAC
 40
1.0
  9
$DIMGAP
 40
0.09
  9
$LUNITS
 70
     2
  9
$LUPREC
 70
     4
  9
$SKETCHINC
 40
0.1
  9
$FILLETRAD
 40
0.0
  9
$AUNITS
 70
     0
  9
$AUPREC
 70
     0
  9
$MENU
  1
.
  9
$ELEVATION
 40
0.0
  9
$PELEVATION
 40
0.0
  9
$THICKNESS
 40
0.0
  9
$LIMCHECK
 70
     0
  9
$BLIPMODE
 70
     0
  9
$CHAMFERA
 40
0.0
  9
$CHAMFERB
 40
0.0
  9
$SKPOLY
 70
     0
  9
$TDCREATE
 40
2458060.468368056230247
  9
$TDUPDATE
 40
2460248.5294907409697771
  9
$TDINDWG
 40
0.4983519676
  9
$TDUSRTIMER
 40
0.4983519676
  9
$USRTIMER
 70
     1
  9
$ANGBASE
 50
0.0
  9
$ANGDIR
 70
     0
  9
$PDMODE
 70
     0
  9
$PDSIZE
 40
0.3125
  9
$PLINEWID
 40
0.0
  9
$COORDS
 70
     1
  9
$SPLFRAME
 70
     0
  9
$SPLINETYPE
 70
     6
  9
$SPLINESEGS
 70
     8
  9
$ATTDIA
 70
     1
  9
$ATTREQ
 70
     1
  9
$HANDLING
 70
     1
  9
$HANDSEED
  5
1130C
  9
$SURFTAB1
 70
     6
  9
$SURFTAB2
 70
     6
  9
$SURFTYPE
 70
     6
  9
$SURFU
 70
     6
  9
$SURFV
 70
     6
  9
$UCSNAME
  2

  9
$UCSORG
 10
0.0
 20
0.0
 30
0.0
  9
$UCSXDIR
 10
1.0
 20
0.0
 30
0.0
  9
$UCSYDIR
 10
0.0
 20
1.0
 30
0.0
  9
$PUCSNAME
  2

  9
$PUCSORG
 10
0.0
 20
0.0
 30
0.0
  9
$PUCSXDIR
 10
1.0
 20
0.0
 30
0.0
  9
$PUCSYDIR
 10
0.0
 20
1.0
 30
0.0
  9
$USERI1
 70
     0
  9
$USERI2
 70
     0
  9
$USERI3
 70
     0
  9
$USERI4
 70
     0
  9
$USERI5
 70
     0
  9
$USERR1
 40
0.0
  9
$USERR2
 40
0.0
  9
$USERR3
 40
0.0
  9
$USERR4
 40
0.0
  9
$USERR5
 40
0.0
  9
$WORLDVIEW
 70
     1
  9
$SHADEDGE
 70
     3
  9
$SHADEDIF
 70
    70
  9
$TILEMODE
 70
     1
  9
$MAXACTVP
 70
    64
  9
$PLIMCHECK
 70
     0
  9
$PEXTMIN
 10
1.0000000000000000E+20
 20
1.0000000000000000E+20
 30
1.0000000000000000E+20
  9
$PEXTMAX
 10
-1.0000000000000000E+20
 20
-1.0000000000000000E+20
 30
-1.0000000000000000E+20
  9
$PLIMMIN
 10
0.0
 20
0.0
  9
$PLIMMAX
 10
12.0
 20
9.0
  9
$UNITMODE
 70
     0
  9
$VISRETAIN
 70
     1
  9
$PLINEGEN
 70
     0
  9
$PSLTSCALE
 70
     1
  0
ENDSEC
  0
SECTION
  2
TABLES
  0
TABLE
  2
VPORT
 70
     1
  0
VPORT
  2
*ACTIVE
 70
     0
 10
0.0
 20
0.0
 11
1.0
 21
1.0
 12
692.1391551951301153
 22
42.4932435276977714
 13
0.0
 23
0.0
 14
1.0
 24
1.0
 15
0.0
 25
0.0
 16
0.0
 26
0.0
 36
17.1152628219792007
 17
3803.5440673828129547
 27
125.9952621967499056
 37
0.0
 40
9.4751045155361737
 41
2.2831541218637992
 42
50.0
 43
0.0
 44
0.0
 50
0.0
 51
0.0
 71
     0
 72
   100
 73
     1
 74
     1
 75
     0
 76
     0
 77
     0
 78
     0
  0
ENDTAB
  0
TABLE
  2
LTYPE
 70
     2
  0
LTYPE
  2
CONTINUOUS
 70
     0
  3
Solid line
 72
    65
 73
     0
 40
0.0
  0
LTYPE
  2
PHANTOM2
 70
     0
  3
___ _ _ ___ _ _ ___ _ _ ___ _ _
 72
    65
 73
     6
 40
1.25
 49
0.625
 49
-0.125
 49
0.125
 49
-0.125
 49
0.125
 49
-0.125
  0
ENDTAB
  0
TABLE
  2
LAYER
 70
     2
  0
LAYER
  2
0
 70
     0
 62
   255
  6
CONTINUOUS
  0
LAYER
  2
DEFPOINTS
 70
     0
 62
     7
  6
CONTINUOUS
  0
ENDTAB
  0
TABLE
  2
STYLE
 70
     1
  0
STYLE
  2
STANDARD
 70
     0
 40
0.0
 41
0.8
 50
0.0
 71
     0
 42
0.2
  3
txt
  4

  0
ENDTAB
  0
TABLE
  2
VIEW
 70
     0
  0
ENDTAB
  0
TABLE
  2
UCS
 70
     0
  0
ENDTAB
  0
TABLE
  2
APPID
 70
     9
  0
APPID
  2
ACAD
 70
     0
  0
APPID
  2
ACAD_MLEADERVER
 70
     0
  0
APPID
  2
ACAD_EXEMPT_FROM_CAD_STANDARDS
 70
     0
  0
APPID
  2
ACAD_NAV_VCDISPLAY
 70
     0
  0
APPID
  2
ACAECLAYERSTANDARD
 70
     0
  0
APPID
  2
ACCMTRANSPARENCY
 70
     0
  0
APPID
  2
ACAD_DSTYLE_DIMJAG
 70
     0
  0
APPID
  2
ACAD_DSTYLE_DIMTALN
 70
     0
  0
APPID
  2
ACDBATTR
 70
     0
  0
ENDTAB
  0
TABLE
  2
DIMSTYLE
 70
     1
  0
DIMSTYLE
  2
STANDARD
 70
     0
  3

  4

  5

  6

  7

 40
1.0
 41
0.1875
 42
0.0625
 43
0.38
 44
0.125
 45
0.0
 46
0.0
 47
0.01
 48
0.01
140
0.15625
141
0.09
142
0.0
143
25.3999999999999986
144
1.0
145
0.0
146
1.0
147
0.09
 71
     1
 72
     0
 73
     1
 74
     1
 75
     0
 76
     0
 77
     0
 78
     4
170
     0
171
     2
172
     0
173
     0
174
     0
175
     0
176
     0
177
     0
178
     0
  0
ENDTAB
  0
ENDSEC
  0
SECTION
  2
BLOCKS
  0
BLOCK
  8
0
  2
$MODEL_SPACE
 70
     0
 10
0.0
 20
0.0
 30
0.0
  3
$MODEL_SPACE
  1

  0
ENDBLK
  5
21
  8
0
  0
BLOCK
 67
     1
  8
0
  2
$PAPER_SPACE
 70
     0
 10
0.0
 20
0.0
 30
0.0
  3
$PAPER_SPACE
  1

  0
ENDBLK
  5
1D
 67
     1
  8
0
  0
BLOCK
  8
0
  2
_FILLED
 70
     0
 10
0.0
 20
0.0
 30
0.0
  3
_FILLED
  1

  0
SOLID
  5
10CA9
  8
0
  6
BYBLOCK
 62
     0
 10
0.0
 20
0.0
 30
0.0
 11
-1.0
 21
0.1666666667
 31
0.0
 12
-1.0
 22
-0.1666666667
 32
0.0
 13
-1.0
 23
-0.1666666667
 33
0.0
  0
ENDBLK
  5
10CAA
  8
0
  6
BYBLOCK
 62
     0
  0
ENDSEC
  0
SECTION
  2
ENTITIES
  0
ARC
  5
10F2E
  8
0
 10
4491.6801669338410647
 20
171.9325993403342068
 30
0.0
 40
1.25
 50
201.1001960240843971
 51
158.899803614180513
  0
ARC
  5
10F2F
  8
0
 10
4491.6801669338410647
 20
171.9325993403342068
 30
0.0
 40
1.0304999999999991
 50
205.8923210282891887
 51
154.1076784674023941
  0
ARC
  5
10F30
  8
0
 10
4491.6801669338410647
 20
171.9325993403342068
 30
0.0
 40
1.1000000000000001
 50
204.1477399170196065
 51
155.8522596317930891
  0
ARC
  5
10F31
  8
0
 10
4491.6801669338310603
 20
171.9325993403099915
 30
0.0
 40
0.6250000000113533
 50
228.1822338317751928
 51
131.8204893746315918
  0
CIRCLE
  5
10F32
  8
0
 10
4491.6801669338410647
 20
171.9325993403342068
 30
0.0
 40
0.4122541872249004
  0
ARC
  5
10F33
  8
0
 10
4491.6801669338410647
 20
171.9325993403342068
 30
0.0
 40
0.4680000000000019
 50
220.4705114222842042
 51
139.5294885511503935
  0
ARC
  5
10F34
  8
0
 10
4491.6801669338410647
 20
171.9325993403342068
 30
0.0
 40
0.5950000000000003
 50
228.182233766934587
 51
131.8177661243153125
  0
ARC
  5
10F35
  8
0
 10
4491.6801669338410647
 20
171.9325993403342068
 30
0.0
 40
0.4529999999999961
 50
220.4705115494153915
 51
139.52948857236251
  0
LINE
  5
10F36
  8
0
 10
4488.3051669338410647
 20
171.4825993403341897
 30
0.0
 11
4488.3051669338410647
 21
172.3825993403343091
 31
0.0
  0
LINE
  5
10F37
  8
0
 10
4488.3051669338410647
 20
172.3825993403343091
 30
0.0
 11
4491.2221003449403725
 21
172.3825993500572906
 31
0.0
  0
ARC
  5
10F38
  8
0
 10
4491.2221003447339172
 20
172.4445994094585046
 30
0.0
 40
0.0620000594011865
 50
270.0000001909838829
 51
311.790271897362004
  0
ARC
  5
10F39
  8
0
 10
4491.2221003447411931
 20
171.4205993403342063
 30
0.0
 40
0.0620000000000126
 50
48.1822338318477534
 51
90.0
  0
LINE
  5
10F3A
  8
0
 10
4491.2221003442118672
 20
171.4825993403341897
 30
0.0
 11
4488.3051669338410647
 21
171.4825993403341897
 31
0.0
  0
LINE
  5
10F3B
  8
0
 10
4488.3051669338410647
 20
171.4825993403341897
 30
0.0
 11
4488.3351669338408101
 21
171.5125993403341909
 31
0.0
  0
LINE
  5
10F3C
  8
0
 10
4488.3351669338408101
 20
171.5125993403341909
 30
0.0
 11
4491.2221003437398394
 21
171.5125993399342121
 31
0.0
  0
ARC
  5
10F3D
  8
0
 10
4491.222100343728016
 20
171.4205993361130993
 30
0.0
 40
0.0920000038211741
 50
48.1822355400152205
 51
89.9999999920792533
  0
ARC
  5
10F3E
  8
0
 10
4491.2221003446702525
 20
172.4445993406262971
 30
0.0
 40
0.0920000002920917
 50
270.0000022122346763
 51
311.8177663573653149
  0
LINE
  5
10F3F
  8
0
 10
4491.2221003482227388
 20
172.352599340334308
 30
0.0
 11
4488.3351669338408101
 21
172.3525992288666941
 31
0.0
  0
LINE
  5
10F40
  8
0
 10
4488.3351669338408101
 20
172.3525992288666941
 30
0.0
 11
4488.3351669338408101
 21
171.5125993403341909
 31
0.0
  0
ARC
  5
10F41
  8
0
 10
4491.2769746720514377
 20
172.2765993399860065
 30
0.0
 40
0.0619999996517197
 50
269.9999998978119038
 51
319.5294879114283049
  0
ARC
  5
10F42
  8
0
 10
4491.2769746719413888
 20
172.2765993403342009
 30
0.0
 40
0.0769999999999988
 50
270.0
 51
319.5294877674202212
  0
LINE
  5
10F43
  8
0
 10
4491.2769746719413888
 20
172.214599340334189
 30
0.0
 11
4488.4731669338398206
 21
172.214599340334189
 31
0.0
  0
LINE
  5
10F44
  8
0
 10
4488.4731669338398206
 20
172.214599340334189
 30
0.0
 11
4488.4731669338207212
 21
171.6505993403343098
 31
0.0
  0
LINE
  5
10F45
  8
0
 10
4488.4731669338207212
 20
171.6505993403343098
 30
0.0
 11
4491.2769746721423871
 21
171.6505993216422041
 31
0.0
  0
ARC
  5
10F46
  8
0
 10
4491.2769746717276576
 20
171.5885992864587877
 30
0.0
 40
0.0620000351833729
 50
40.4705502150423229
 51
89.9999996180321631
  0
ARC
  5
10F47
  8
0
 10
4491.2769746718622628
 20
171.5885993394437889
 30
0.0
 40
0.0770000006904611
 50
40.470511982405327
 51
89.9999997184485636
  0
LINE
  5
10F48
  8
0
 10
4491.2769746722397031
 20
171.6655993401342073
 30
0.0
 11
4488.4881669338410575
 21
171.6655993538390135
 31
0.0
  0
LINE
  5
10F49
  8
0
 10
4488.4881669338410575
 20
171.6655993538390135
 30
0.0
 11
4488.4881669338219581
 21
172.1995993403342027
 31
0.0
  0
LINE
  5
10F4A
  8
0
 10
4488.4881669338219581
 20
172.1995993403342027
 30
0.0
 11
4491.2769746719413888
 21
172.1995993403342027
 31
0.0
  0
LINE
  5
10F4B
  8
0
 10
4488.4881669338219581
 20
172.1995993403342027
 30
0.0
 11
4488.4731669338398206
 21
172.214599340334189
 31
0.0
  0
LINE
  5
10F4C
  8
0
 10
4488.3351669338408101
 20
172.3525992288666941
 30
0.0
 11
4488.3051669338410647
 21
172.3825993403343091
 31
0.0
  0
LINE
  5
10F4D
  8
0
 10
4488.4881669338410575
 20
171.6655993538390135
 30
0.0
 11
4488.4731669338207212
 21
171.6505993403343098
 31
0.0
  0
ARC
  5
10FA2
  8
0
 10
4495.6801669338410647
 20
164.4185993403343105
 30
0.0
 40
0.625
 50
180.0
 51
0.0
  0
LINE
  5
10FA3
  8
0
 10
4495.0551669338401553
 20
164.4185993403343105
 30
0.0
 11
4495.0551669338401553
 21
171.9325993403342068
 31
0.0
  0
ARC
  5
10FA4
  8
0
 10
4495.6801669338410647
 20
171.9325993403342068
 30
0.0
 40
0.6250000000000115
 50
0.0
 51
180.0
  0
ARC
  5
10FA5
  8
0
 10
4495.6801669338410647
 20
171.9325993403342068
 30
0.0
 40
1.25
 50
299.9999999999997158
 51
240.000000000000199
  0
ARC
  5
10FA6
  8
0
 10
4495.6801669338410647
 20
171.9325993403342068
 30
0.0
 40
1.099999999999999
 50
304.6235354791837722
 51
235.3764645208161994
  0
ARC
  5
10FA7
  8
0
 10
4495.6801669338410647
 20
171.9325993403342068
 30
0.0
 40
1.0304999999999991
 50
307.3369805408797788
 51
232.6630194591201928
  0
LINE
  5
10FB3
  8
0
 10
4496.3051669338410647
 20
171.9325993403342068
 30
0.0
 11
4496.3051669338410647
 21
164.4185993403343105
 31
0.0
  0
ARC
  5
10FE7
  8
0
 10
4499.6801669338410647
 20
171.9325993403342068
 30
0.0
 40
1.25
 50
21.1001963858194799
 51
338.8998039759155176
  0
ARC
  5
10FE8
  8
0
 10
4499.6801669338410647
 20
171.9325993403342068
 30
0.0
 40
1.0304999999999991
 50
25.8923215325975811
 51
334.1076789717108113
  0
ARC
  5
10FE9
  8
0
 10
4499.6801669338410647
 20
171.9325993403342068
 30
0.0
 40
1.1000000000000001
 50
24.1477403682068612
 51
335.8522600829804219
  0
ARC
  5
10FEA
  8
0
 10
4499.6801669338510692
 20
171.9325993403099915
 30
0.0
 40
0.6250000000113533
 50
48.1795106253683869
 51
311.8177661682246935
  0
CIRCLE
  5
10FEB
  8
0
 10
4499.6801669338410647
 20
171.9325993403342068
 30
0.0
 40
0.4122541872249004
  0
ARC
  5
10FEC
  8
0
 10
4499.6801669338410647
 20
171.9325993403342068
 30
0.0
 40
0.4680000000000019
 50
40.470511448849571
 51
319.5294885777157106
  0
ARC
  5
10FED
  8
0
 10
4499.6801669338410647
 20
171.9325993403342068
 30
0.0
 40
0.5950000000000003
 50
48.1822338756846307
 51
311.8177662330655266
  0
ARC
  5
10FEE
  8
0
 10
4499.6801669338410647
 20
171.9325993403342068
 30
0.0
 40
0.4529999999999961
 50
40.4705114276375113
 51
319.5294884505846085
  0
LINE
  5
10FEF
  8
0
 10
4503.0551669338410647
 20
171.4825993403341897
 30
0.0
 11
4503.0551669338410647
 21
172.3825993403343091
 31
0.0
  0
LINE
  5
10FF0
  8
0
 10
4503.0551669338410647
 20
172.3825993403343091
 30
0.0
 11
4500.1382335227408475
 21
172.3825993500572906
 31
0.0
  0
ARC
  5
10FF1
  8
0
 10
4500.1382335229473028
 20
172.4445994094585046
 30
0.0
 40
0.0620000594011865
 50
228.209728102637996
 51
269.9999998090161171
  0
ARC
  5
10FF2
  8
0
 10
4500.1382335229409364
 20
171.4205993403342063
 30
0.0
 40
0.0620000000000126
 50
90.0
 51
131.8177661681521897
  0
LINE
  5
10FF3
  8
0
 10
4500.1382335234693528
 20
171.4825993403341897
 30
0.0
 11
4503.0551669338410647
 21
171.4825993403341897
 31
0.0
  0
LINE
  5
10FF4
  8
0
 10
4503.0551669338410647
 20
171.4825993403341897
 30
0.0
 11
4503.0251669338413194
 21
171.5125993403341909
 31
0.0
  0
LINE
  5
10FF5
  8
0
 10
4503.0251669338413194
 20
171.5125993403341909
 30
0.0
 11
4500.1382335239413806
 21
171.5125993399342121
 31
0.0
  0
ARC
  5
10FF6
  8
0
 10
4500.1382335239541135
 20
171.4205993361130993
 30
0.0
 40
0.0920000038211741
 50
90.0000000079207325
 51
131.8177644599846872
  0
ARC
  5
10FF7
  8
0
 10
4500.1382335230109675
 20
172.4445993406262971
 30
0.0
 40
0.0920000002920917
 50
228.1822336426347135
 51
269.9999977877653237
  0
LINE
  5
10FF8
  8
0
 10
4500.1382335194575717
 20
172.352599340334308
 30
0.0
 11
4503.0251669338413194
 21
172.3525992288666941
 31
0.0
  0
LINE
  5
10FF9
  8
0
 10
4503.0251669338413194
 20
172.3525992288666941
 30
0.0
 11
4503.0251669338413194
 21
171.5125993403341909
 31
0.0
  0
ARC
  5
10FFA
  8
0
 10
4500.0833591956297823
 20
172.2765993399860065
 30
0.0
 40
0.0619999996517197
 50
220.4705120885716951
 51
270.0000001021880962
  0
ARC
  5
10FFB
  8
0
 10
4500.0833591957398312
 20
172.2765993403342009
 30
0.0
 40
0.0769999999999988
 50
220.4705122325798072
 51
270.0
  0
LINE
  5
10FFC
  8
0
 10
4500.0833591957398312
 20
172.214599340334189
 30
0.0
 11
4502.8871669338413994
 21
172.214599340334189
 31
0.0
  0
LINE
  5
10FFD
  8
0
 10
4502.8871669338413994
 20
172.214599340334189
 30
0.0
 11
4502.8871669338614083
 21
171.6505993403343098
 31
0.0
  0
LINE
  5
10FFE
  8
0
 10
4502.8871669338614083
 20
171.6505993403343098
 30
0.0
 11
4500.0833591955397424
 21
171.6505993216422041
 31
0.0
  0
ARC
  5
10FFF
  8
0
 10
4500.0833591959535624
 20
171.5885992864587877
 30
0.0
 40
0.0620000351833729
 50
90.0000003819677943
 51
139.5294497849577056
  0
ARC
  5
11000
  8
0
 10
4500.0833591958189572
 20
171.5885993394437889
 30
0.0
 40
0.0770000006904611
 50
90.0000002815514648
 51
139.5294880175947014
  0
LINE
  5
11001
  8
0
 10
4500.0833591954424264
 20
171.6655993401342073
 30
0.0
 11
4502.8721669338401625
 21
171.6655993538390135
 31
0.0
  0
LINE
  5
11002
  8
0
 10
4502.8721669338401625
 20
171.6655993538390135
 30
0.0
 11
4502.8721669338601714
 21
172.1995993403342027
 31
0.0
  0
LINE
  5
11003
  8
0
 10
4502.8721669338601714
 20
172.1995993403342027
 30
0.0
 11
4500.0833591957398312
 21
172.1995993403342027
 31
0.0
  0
LINE
  5
11004
  8
0
 10
4502.8721669338601714
 20
172.1995993403342027
 30
0.0
 11
4502.8871669338413994
 21
172.214599340334189
 31
0.0
  0
LINE
  5
11005
  8
0
 10
4503.0251669338413194
 20
172.3525992288666941
 30
0.0
 11
4503.0551669338410647
 21
172.3825993403343091
 31
0.0
  0
LINE
  5
11006
  8
0
 10
4502.8721669338401625
 20
171.6655993538390135
 30
0.0
 11
4502.8871669338614083
 21
171.6505993403343098
 31
0.0
  0
ATTDEF
  5
11035
  8
DEFPOINTS
 10
4495.6683386633003465
 20
171.9374690278646938
 30
0.0
 40
0.001
  1
P80251-LV
  3

  2
MODELNUMBER
 70
     0
1001
ACDBATTR
1070
     0
1070
     1
  0
ATTDEF
  5
11036
  8
DEFPOINTS
 10
4495.6683386633003465
 20
171.9358023611980002
 30
0.0
 40
0.001
  1
VIR STIL
  3

  2
TRADENAME
 70
     0
1001
ACDBATTR
1070
     0
1070
     1
  0
ATTDEF
  5
11037
  8
DEFPOINTS
 10
4495.6683386633003465
 20
171.9341356945313919
 30
0.0
 40
0.001
  1
BATH FAUCET
  3

  2
PRODUCT
 70
     0
1001
ACDBATTR
1070
     0
1070
     1
  0
ENDSEC
  0
EOF
