  0
SECTION
  2
HEADER
  9
$ACADVER
  1
AC1009
  9
$INSBASE
 10
5924.4566677802404229
 20
287.7532994125048731
 30
0.0
  9
$EXTMIN
 10
5921.4813558953419488
 20
284.426497332704912
 30
0.0
  9
$EXTMAX
 10
5927.431980158393344
 20
288.8359765778048995
 30
0.0
  9
$LIMMIN
 10
0.0
 20
0.0
  9
$LIMMAX
 10
11.6929133858000007
 20
8.2677165353999982
  9
$ORTHOMODE
 70
     0
  9
$REGENMODE
 70
     1
  9
$FILLMODE
 70
     1
  9
$QTEXTMODE
 70
     0
  9
$MIRRTEXT
 70
     0
  9
$DRAGMODE
 70
     2
  9
$LTSCALE
 40
0.6431102362
  9
$OSMODE
 70
  4095
  9
$ATTMODE
 70
     1
  9
$TEXTSIZE
 40
0.2
  9
$TRACEWID
 40
0.05
  9
$TEXTSTYLE
  7
STANDARD
  9
$CLAYER
  8
0
  9
$CELTYPE
  6
BYLAYER
  9
$CECOLOR
 62
   256
  9
$DIMSCALE
 40
1.0
  9
$DIMASZ
 40
0.1875
  9
$DIMEXO
 40
0.0625
  9
$DIMDLI
 40
0.4443307087
  9
$DIMRND
 40
0.0
  9
$DIMDLE
 40
0.0
  9
$DIMEXE
 40
0.125
  9
$DIMTP
 40
0.01
  9
$DIMTM
 40
0.01
  9
$DIMTXT
 40
2.0
  9
$DIMCEN
 40
0.1052362205
  9
$DIMTSZ
 40
0.0
  9
$DIMTOL
 70
     1
  9
$DIMLIM
 70
     0
  9
$DIMTIH
 70
     1
  9
$DIMTOH
 70
     1
  9
$DIMSE1
 70
     0
  9
$DIMSE2
 70
     0
  9
$DIMTAD
 70
     0
  9
$DIMZIN
 70
     0
  9
$DIMBLK
  1

  9
$DIMASO
 70
     1
  9
$DIMSHO
 70
     1
  9
$DIMPOST
  1
\X
  9
$DIMAPOST
  1

  9
$DIMALT
 70
     1
  9
$DIMALTD
 70
     2
  9
$DIMALTF
 40
25.3999999999999986
  9
$DIMLFAC
 40
1.0
  9
$DIMTOFL
 70
     0
  9
$DIMTVP
 40
0.0
  9
$DIMTIX
 70
     0
  9
$DIMSOXD
 70
     0
  9
$DIMSAH
 70
     0
  9
$DIMBLK1
  1

  9
$DIMBLK2
  1

  9
$DIMSTYLE
  2
STANDARD
  9
$DIMCLRD
 70
     0
  9
$DIMCLRE
 70
     0
  9
$DIMCLRT
 70
     0
  9
$DIMTFAC
 40
1.0
  9
$DIMGAP
 40
0.09
  9
$LUNITS
 70
     2
  9
$LUPREC
 70
     4
  9
$SKETCHINC
 40
0.1
  9
$FILLETRAD
 40
0.0
  9
$AUNITS
 70
     0
  9
$AUPREC
 70
     0
  9
$MENU
  1
.
  9
$ELEVATION
 40
0.0
  9
$PELEVATION
 40
0.0
  9
$THICKNESS
 40
0.0
  9
$LIMCHECK
 70
     0
  9
$BLIPMODE
 70
     0
  9
$CHAMFERA
 40
0.0
  9
$CHAMFERB
 40
0.0
  9
$SKPOLY
 70
     0
  9
$TDCREATE
 40
2458060.468368056230247
  9
$TDUPDATE
 40
2460242.9748611110262573
  9
$TDINDWG
 40
0.7488149306
  9
$TDUSRTIMER
 40
0.7488149306
  9
$USRTIMER
 70
     1
  9
$ANGBASE
 50
0.0
  9
$ANGDIR
 70
     0
  9
$PDMODE
 70
     0
  9
$PDSIZE
 40
0.3125
  9
$PLINEWID
 40
0.0
  9
$COORDS
 70
     1
  9
$SPLFRAME
 70
     0
  9
$SPLINETYPE
 70
     6
  9
$SPLINESEGS
 70
     8
  9
$ATTDIA
 70
     1
  9
$ATTREQ
 70
     1
  9
$HANDLING
 70
     1
  9
$HANDSEED
  5
2D57E
  9
$SURFTAB1
 70
     6
  9
$SURFTAB2
 70
     6
  9
$SURFTYPE
 70
     6
  9
$SURFU
 70
     6
  9
$SURFV
 70
     6
  9
$UCSNAME
  2

  9
$UCSORG
 10
0.0
 20
0.0
 30
0.0
  9
$UCSXDIR
 10
1.0
 20
0.0
 30
0.0
  9
$UCSYDIR
 10
0.0
 20
1.0
 30
0.0
  9
$PUCSNAME
  2

  9
$PUCSORG
 10
0.0
 20
0.0
 30
0.0
  9
$PUCSXDIR
 10
1.0
 20
0.0
 30
0.0
  9
$PUCSYDIR
 10
0.0
 20
1.0
 30
0.0
  9
$USERI1
 70
     0
  9
$USERI2
 70
     0
  9
$USERI3
 70
     0
  9
$USERI4
 70
     0
  9
$USERI5
 70
     0
  9
$USERR1
 40
0.0
  9
$USERR2
 40
0.0
  9
$USERR3
 40
0.0
  9
$USERR4
 40
0.0
  9
$USERR5
 40
0.0
  9
$WORLDVIEW
 70
     1
  9
$SHADEDGE
 70
     3
  9
$SHADEDIF
 70
    70
  9
$TILEMODE
 70
     1
  9
$MAXACTVP
 70
    64
  9
$PLIMCHECK
 70
     0
  9
$PEXTMIN
 10
1.0000000000000000E+20
 20
1.0000000000000000E+20
 30
1.0000000000000000E+20
  9
$PEXTMAX
 10
-1.0000000000000000E+20
 20
-1.0000000000000000E+20
 30
-1.0000000000000000E+20
  9
$PLIMMIN
 10
0.0
 20
0.0
  9
$PLIMMAX
 10
12.0
 20
9.0
  9
$UNITMODE
 70
     0
  9
$VISRETAIN
 70
     1
  9
$PLINEGEN
 70
     0
  9
$PSLTSCALE
 70
     1
  0
ENDSEC
  0
SECTION
  2
TABLES
  0
TABLE
  2
VPORT
 70
     1
  0
VPORT
  2
*ACTIVE
 70
     0
 10
0.0
 20
0.0
 11
1.0
 21
1.0
 12
2013.091311581554919
 22
154.0516318527157864
 13
0.0
 23
0.0
 14
1.0
 24
1.0
 15
0.0
 25
0.0
 16
0.0
 26
0.0
 36
60.4960186965801583
 17
3911.3653564453120453
 27
132.5796051025390057
 37
0.0
 40
4.4442451787012942
 41
2.498684210526315
 42
50.0
 43
0.0
 44
0.0
 50
0.0
 51
0.0
 71
     0
 72
   100
 73
     1
 74
     1
 75
     0
 76
     0
 77
     0
 78
     0
  0
ENDTAB
  0
TABLE
  2
LTYPE
 70
     2
  0
LTYPE
  2
CONTINUOUS
 70
     0
  3
Solid line
 72
    65
 73
     0
 40
0.0
  0
LTYPE
  2
PHANTOM2
 70
     0
  3
___ _ _ ___ _ _ ___ _ _ ___ _ _
 72
    65
 73
     6
 40
1.25
 49
0.625
 49
-0.125
 49
0.125
 49
-0.125
 49
0.125
 49
-0.125
  0
ENDTAB
  0
TABLE
  2
LAYER
 70
     2
  0
LAYER
  2
0
 70
     0
 62
   255
  6
CONTINUOUS
  0
LAYER
  2
DEFPOINTS
 70
     0
 62
     7
  6
CONTINUOUS
  0
ENDTAB
  0
TABLE
  2
STYLE
 70
     1
  0
STYLE
  2
STANDARD
 70
     0
 40
0.0
 41
0.8
 50
0.0
 71
     0
 42
0.2
  3
txt
  4

  0
ENDTAB
  0
TABLE
  2
VIEW
 70
     0
  0
ENDTAB
  0
TABLE
  2
UCS
 70
     0
  0
ENDTAB
  0
TABLE
  2
APPID
 70
    11
  0
APPID
  2
ACAD
 70
     0
  0
APPID
  2
ACAD_MLEADERVER
 70
     0
  0
APPID
  2
ACAD_EXEMPT_FROM_CAD_STANDARDS
 70
     0
  0
APPID
  2
ACAD_NAV_VCDISPLAY
 70
     0
  0
APPID
  2
ACAECLAYERSTANDARD
 70
     0
  0
APPID
  2
ACCMTRANSPARENCY
 70
     0
  0
APPID
  2
ACAD_DSTYLE_DIMJAG
 70
     0
  0
APPID
  2
ACAD_DSTYLE_DIMTALN
 70
     0
  0
APPID
  2
ACDBATTR
 70
     0
  0
APPID
  2
ACADANNOTATIVE
 70
     0
  0
APPID
  2
DCO15
 70
     0
  0
ENDTAB
  0
TABLE
  2
DIMSTYLE
 70
     1
  0
DIMSTYLE
  2
STANDARD
 70
     0
  3

  4

  5

  6

  7

 40
1.0
 41
0.1875
 42
0.0625
 43
0.38
 44
0.125
 45
0.0
 46
0.0
 47
0.01
 48
0.01
140
0.15625
141
0.09
142
0.0
143
25.3999999999999986
144
1.0
145
0.0
146
1.0
147
0.09
 71
     1
 72
     0
 73
     1
 74
     1
 75
     0
 76
     0
 77
     0
 78
     4
170
     0
171
     2
172
     0
173
     0
174
     0
175
     0
176
     0
177
     0
178
     0
  0
ENDTAB
  0
ENDSEC
  0
SECTION
  2
BLOCKS
  0
BLOCK
  8
0
  2
$MODEL_SPACE
 70
     0
 10
0.0
 20
0.0
 30
0.0
  3
$MODEL_SPACE
  1

  0
ENDBLK
  5
21
  8
0
  0
BLOCK
 67
     1
  8
0
  2
$PAPER_SPACE
 70
     0
 10
0.0
 20
0.0
 30
0.0
  3
$PAPER_SPACE
  1

  0
ENDBLK
  5
1D
 67
     1
  8
0
  0
ENDSEC
  0
SECTION
  2
ENTITIES
  0
ATTDEF
  5
26A5B
  8
DEFPOINTS
 10
5924.4537024206820206
 20
287.7571742549582154
 30
0.0
 40
0.001
  1
P80248-00
  3

  2
MODELNUMBER
 70
     0
1001
ACDBATTR
1070
     0
1070
     1
  0
ATTDEF
  5
26A5C
  8
DEFPOINTS
 10
5924.4535766110248005
 20
287.7555074145789717
 30
0.0
 40
0.001
  1
VIR STIL
  3

  2
TRADENAME
 70
     0
1001
ACDBATTR
1070
     0
1070
     1
  0
ATTDEF
  5
26A5D
  8
DEFPOINTS
 10
5924.4537024206820206
 20
287.7538409216248283
 30
0.0
 40
0.001
  1
TOILET PAPER HOLDER
  3

  2
PRODUCT
 70
     0
1001
ACDBATTR
1070
     0
1070
     1
  0
LINE
  5
2D189
  8
0
 10
5927.4219801583922163
 20
285.8832338728049081
 30
0.0
 11
5926.9696067706927352
 21
285.8832338728049081
 31
0.0
  0
LINE
  5
2D18A
  8
0
 10
5926.6039801583920053
 20
284.426497332704912
 30
0.0
 11
5922.3093558953423781
 21
284.426497332704912
 31
0.0
  0
CIRCLE
  5
2D18B
  8
0
 10
5924.4566630355420784
 20
287.7532994125048731
 30
0.0
 40
0.4921259841999995
  0
ARC
  5
2D18C
  8
0
 10
5924.4566630355420784
 20
287.7532994124549077
 30
0.0
 40
0.9015748031499999
 50
195.1901595865462014
 51
346.7457681693350082
  0
ARC
  5
2D18D
  8
0
 10
5924.4566630355420784
 20
287.7532994124549077
 30
0.0
 40
0.9015748031499999
 50
13.2542318306650202
 51
164.8098404134537134
  0
ARC
  5
2D18E
  8
0
 10
5924.4566630355420784
 20
287.7532994124549077
 30
0.0
 40
0.9606299212500006
 50
194.2359396782765941
 51
165.7640603217232922
  0
ARC
  5
2D18F
  8
0
 10
5924.4566630355420784
 20
287.7532994124549077
 30
0.0
 40
1.08267716535
 50
192.6029836110431006
 51
167.3970163889568994
  0
LINE
  5
2D190
  8
0
 10
5925.2870275466420935
 20
287.9895331397310088
 30
0.0
 11
5924.8883824009253658
 21
287.9895331397310088
 31
0.0
  0
LINE
  5
2D191
  8
0
 10
5924.0249436701606101
 20
287.9895331397310088
 30
0.0
 11
5922.3093558953423781
 21
287.9895331397310088
 31
0.0
  0
LINE
  5
2D192
  8
0
 10
5925.3070275466434396
 20
287.9695331397310269
 30
0.0
 11
5925.3070275466434396
 21
287.5370656851787885
 31
0.0
  0
ARC
  5
2D193
  8
0
 10
5925.2870275466420935
 20
287.9695331397310269
 30
0.0
 40
0.02
 50
0.0000000000065138
 51
90.0
  0
LINE
  5
2D194
  8
0
 10
5925.2870275466420935
 20
287.517065685178693
 30
0.0
 11
5924.8883824008698866
 21
287.517065685178693
 31
0.0
  0
LINE
  5
2D195
  8
0
 10
5924.0249436702151797
 20
287.517065685178693
 30
0.0
 11
5922.307697074643329
 21
287.517065685178693
 31
0.0
  0
ARC
  5
2D196
  8
0
 10
5925.2870275466420935
 20
287.5370656851787885
 30
0.0
 40
0.02
 50
270.0
 51
359.9999999999968168
  0
LINE
  5
2D197
  8
0
 10
5925.3421456569421935
 20
287.960005526304883
 30
0.0
 11
5925.3070275466434396
 21
287.960005526304883
 31
0.0
  0
LINE
  5
2D198
  8
0
 10
5925.36214565694263
 20
287.9400055263049012
 30
0.0
 11
5925.36214565694263
 21
287.5665932986049143
 31
0.0
  0
ARC
  5
2D199
  8
0
 10
5925.3421456569421935
 20
287.9400055263049012
 30
0.0
 40
0.02
 50
0.0000000000065138
 51
90.0
  0
LINE
  5
2D19A
  8
0
 10
5925.3421456569421935
 20
287.5465932986048756
 30
0.0
 11
5925.3070275466434396
 21
287.5465932986048756
 31
0.0
  0
ARC
  5
2D19B
  8
0
 10
5925.3421456569421935
 20
287.5665932986049143
 30
0.0
 40
0.02
 50
270.0
 51
359.9999999999935199
  0
LINE
  5
2D19C
  8
0
 10
5921.4813558953428583
 20
287.1615331397309774
 30
0.0
 11
5921.4813558953428583
 21
285.2544973327048865
 31
0.0
  0
LINE
  5
2D19D
  8
0
 10
5921.9536970746421503
 20
287.1630656851788217
 30
0.0
 11
5921.9536970746421503
 21
285.2529615372665148
 31
0.0
  0
ARC
  5
2D19E
  8
0
 10
5922.3093558953423781
 20
287.1615331397309774
 30
0.0
 40
0.8279999999999998
 50
90.0
 51
180.0
  0
ARC
  5
2D19F
  8
0
 10
5922.307697074643329
 20
287.1630656851788217
 30
0.0
 40
0.354
 50
90.0
 51
180.0
  0
LINE
  5
2D1A0
  8
0
 10
5922.307697074643329
 20
284.898961537266473
 30
0.0
 11
5926.6056067706922477
 21
284.898961537266473
 31
0.0
  0
ARC
  5
2D1A1
  8
0
 10
5922.307697074643329
 20
285.2529615372665148
 30
0.0
 40
0.354
 50
180.0
 51
270.0
  0
LINE
  5
2D1A2
  8
0
 10
5926.9596067706934264
 20
285.2529615372665148
 30
0.0
 11
5926.9596067706934264
 21
285.8732338728049172
 31
0.0
  0
ARC
  5
2D1A3
  8
0
 10
5926.6056067706922477
 20
285.2529615372665148
 30
0.0
 40
0.354
 50
270.0
 51
0.0
  0
LINE
  5
2D1A4
  8
0
 10
5927.431980158393344
 20
285.8732338728049172
 30
0.0
 11
5927.431980158393344
 21
285.2544973327048865
 31
0.0
  0
ARC
  5
2D1A5
  8
0
 10
5922.3093558953423781
 20
285.2544973327048865
 30
0.0
 40
0.8279999999999998
 50
180.0
 51
270.0
  0
ARC
  5
2D1A6
  8
0
 10
5926.6039801583920053
 20
285.2544973327048865
 30
0.0
 40
0.8279999999999998
 50
270.0
 51
0.0
  0
ARC
  5
2D1A7
  8
0
 10
5927.4219801583922163
 20
285.8732338728048035
 30
0.0
 40
0.01
 50
0.0000000000162844
 51
90.0
  0
ARC
  5
2D1A8
  8
0
 10
5926.9696067706927352
 20
285.8732338728049172
 30
0.0
 40
0.01
 50
90.0
 51
179.9999999999901945
  0
LINE
  5
2D1AA
  8
0
 10
5924.4142537653433465
 20
288.1631108981920875
 30
0.0
 11
5924.4310411450433094
 21
288.1645019402049002
 31
0.0
  0
ARC
  5
2D1AB
  8
0
 10
5924.4152831164547024
 20
288.1531640175708162
 30
0.0
 40
0.0099999998902948
 50
95.9082125346827752
 51
189.4736846818221068
  0
ARC
  5
2D1AC
  8
0
 10
5924.4316667404236796
 20
288.1545252392443786
 30
0.0
 40
0.0099962958957931
 50
359.9774002487927191
 51
93.5880704715693241
  0
LINE
  5
2D1AD
  8
0
 10
5924.4054195035441808
 20
288.1515180715937845
 30
0.0
 11
5924.4071469291366157
 21
288.1411661776322148
 31
0.0
  0
LINE
  5
2D1AE
  8
0
 10
5924.4416630355426605
 20
288.1545212963048925
 30
0.0
 11
5924.4416630355426605
 21
288.1440262637049159
 31
0.0
  0
ARC
  5
2D1AF
  8
0
 10
5924.3961170213087826
 20
288.1397833131829884
 30
0.0
 40
0.0111162574994572
 50
299.3892116753787036
 51
7.1461183421562113
  0
ARC
  5
2D1B0
  8
0
 10
5924.4526353424607805
 20
288.1443801544818939
 30
0.0
 40
0.0109780124706373
 50
181.8473254104314094
 51
250.5761010248087075
  0
LINE
  5
2D1B1
  8
0
 10
5924.4015722091417047
 20
288.1300976486048739
 30
0.0
 11
5924.3864227018812016
 21
288.1275696429113964
 31
0.0
  0
LINE
  5
2D1B2
  8
0
 10
5924.3473785374490035
 20
288.1505404078686752
 30
0.0
 11
5924.3637080011785656
 21
288.1546755897649064
 31
0.0
  0
ARC
  5
2D1B3
  8
0
 10
5924.3500310522922518
 20
288.1408986153585943
 30
0.0
 40
0.0099999998902948
 50
105.3818967452225053
 51
198.9473688923501129
  0
ARC
  5
2D1B4
  8
0
 10
5924.3659671752620852
 20
288.1449379276173772
 30
0.0
 40
0.0099962958957931
 50
9.4510844593170908
 51
103.0617546821278978
  0
LINE
  5
2D1B5
  8
0
 10
5924.3405728800098586
 20
288.1376516206137239
 30
0.0
 11
5924.3439806115147803
 21
288.1277252379009042
 31
0.0
  0
LINE
  5
2D1B6
  8
0
 10
5924.3758277829301733
 20
288.1465793745537098
 30
0.0
 11
5924.3775552085216987
 21
288.1362274805192101
 31
0.0
  0
ARC
  5
2D1B7
  8
0
 10
5924.333328749258726
 20
288.1245457707605055
 30
0.0
 40
0.0111162574994572
 50
308.8628958859122235
 51
16.6198025526824615
  0
ARC
  5
2D1B8
  8
0
 10
5924.3883196189690352
 20
288.1383825270489751
 30
0.0
 40
0.0109780124706381
 50
191.3210096209643041
 51
260.0497852353256008
  0
LINE
  5
2D1B9
  8
0
 10
5924.3403037434336511
 20
288.1158901004292261
 30
0.0
 11
5924.3257769517676934
 21
288.1109030464978105
 31
0.0
  0
LINE
  5
2D1BA
  8
0
 10
5924.2834844352009895
 20
288.1271340619135799
 30
0.0
 11
5924.2989105577598821
 21
288.1339005867105811
 31
0.0
  0
ARC
  5
2D1BB
  8
0
 10
5924.2876877600883745
 20
288.1180603604800012
 30
0.0
 40
0.0099999998902948
 50
114.855580955749204
 51
208.421053102867404
  0
ARC
  5
2D1BC
  8
0
 10
5924.3027416861650636
 20
288.1246675814152809
 30
0.0
 40
0.0099962958957931
 50
18.9247686698452
 51
112.5354388926268001
  0
LINE
  5
2D1BD
  8
0
 10
5924.2788930227161472
 20
288.1133008865197098
 30
0.0
 11
5924.2838881061015854
 21
288.1040707808999173
 31
0.0
  0
LINE
  5
2D1BE
  8
0
 10
5924.3121976347110831
 20
288.1279096438340162
 30
0.0
 11
5924.3156053662250997
 21
288.117983261048721
 31
0.0
  0
ARC
  5
2D1BF
  8
0
 10
5924.2739048444545915
 20
288.0991814386435976
 30
0.0
 40
0.0111162574994572
 50
318.3365800964264167
 51
26.0934867632213816
  0
ARC
  5
2D1C0
  8
0
 10
5924.3258682551431775
 20
288.1218806792799114
 30
0.0
 40
0.0109780124706385
 50
200.7946938314917986
 51
269.5234694458472973
  0
LINE
  5
2D1C1
  8
0
 10
5924.2822093853119441
 20
288.0917918666821151
 30
0.0
 11
5924.2687015622468607
 21
288.084481798343802
 31
0.0
  0
LINE
  5
2D1C2
  8
0
 10
5924.2243143231507929
 20
288.0935303244286274
 30
0.0
 11
5924.2384163201277261
 21
288.1027436189691002
 31
0.0
  0
ARC
  5
2D1C3
  8
0
 10
5924.2299538023353307
 20
288.0852722209934882
 30
0.0
 40
0.0099999998902948
 50
124.3292651662794981
 51
217.8947373134105874
  0
ARC
  5
2D1C4
  8
0
 10
5924.2437148996586984
 20
288.0942671228418135
 30
0.0
 40
0.0099962958957931
 50
28.3984528803829903
 51
122.009123103177302
  0
LINE
  5
2D1C5
  8
0
 10
5924.222062397384434
 20
288.0791300938601012
 30
0.0
 11
5924.2285085797948341
 21
288.0708480385536063
 31
0.0
  0
LINE
  5
2D1C6
  8
0
 10
5924.252508255455723
 20
288.0990213657315167
 30
0.0
 11
5924.2575033388620795
 21
288.089791260041693
 31
0.0
  0
ARC
  5
2D1C7
  8
0
 10
5924.2194662361098381
 20
288.0643821896925942
 30
0.0
 40
0.0111162574994573
 50
327.8102643069668147
 51
35.5671709737510966
  0
ARC
  5
2D1C8
  8
0
 10
5924.2669847613951788
 20
288.0953247385646137
 30
0.0
 40
0.010978012470633
 50
210.2683780420055086
 51
278.9971536563843983
  0
LINE
  5
2D1C9
  8
0
 10
5924.2288737974240576
 20
288.0584602843608195
 30
0.0
 11
5924.2167534011641692
 21
288.0490266012238862
 31
0.0
  0
LINE
  5
2D1CA
  8
0
 10
5924.1714822077101417
 20
288.0506458177737841
 30
0.0
 11
5924.1838754133887051
 21
288.0620545674000823
 31
0.0
  0
ARC
  5
2D1CB
  8
0
 10
5924.1784040108987028
 20
288.0434285718715728
 30
0.0
 40
0.0099999998902948
 50
133.8029493768248983
 51
227.3684215239206026
  0
ARC
  5
2D1CC
  8
0
 10
5924.1904969126080687
 20
288.0545657971584887
 30
0.0
 40
0.0099962958957931
 50
37.8721370909072732
 51
131.4828073136795865
  0
LINE
  5
2D1CD
  8
0
 10
5924.1716311953259719
 20
288.0360713327822282
 30
0.0
 11
5924.1793526417113753
 21
288.0289632406680198
 31
0.0
  0
LINE
  5
2D1CE
  8
0
 10
5924.1983878158325751
 20
288.0607025371666055
 30
0.0
 11
5924.204833998275717
 21
288.0524204817945133
 31
0.0
  0
ARC
  5
2D1CF
  8
0
 10
5924.1714978675527163
 20
288.0210972567040244
 30
0.0
 40
0.0111162574994572
 50
337.283948517475892
 51
45.040855184255328
  0
ARC
  5
2D1D0
  8
0
 10
5924.2132753259329547
 20
288.059439081739697
 30
0.0
 40
0.0109780124706347
 50
219.7420622525507099
 51
288.4708378669124045
  0
LINE
  5
2D1D1
  8
0
 10
5924.181751835572868
 20
288.0168045521422187
 30
0.0
 11
5924.1713494789310062
 21
288.0055045804908218
 31
0.0
  0
LINE
  5
2D1D2
  8
0
 10
5924.1264292112637122
 20
287.9996503194994943
 30
0.0
 11
5924.1367755713008592
 21
288.0129433232618794
 31
0.0
  0
ARC
  5
2D1D3
  8
0
 10
5924.1344445297118
 20
287.9936707987841942
 30
0.0
 40
0.0099999998902948
 50
143.2766335873380967
 51
236.842105734442697
  0
ARC
  5
2D1D4
  8
0
 10
5924.1445393729700299
 20
288.0066465530366031
 30
0.0
 40
0.0099962958957931
 50
47.345821301411199
 51
140.9564915242052905
  0
LINE
  5
2D1D5
  8
0
 10
5924.1289750482692398
 20
287.9852991340424069
 30
0.0
 11
5924.1377611376983623
 21
287.9795588953438141
 31
0.0
  0
LINE
  5
2D1D6
  8
0
 10
5924.1513125803521689
 20
288.0139983958928838
 30
0.0
 11
5924.1590340267803185
 21
288.006890303719274
 31
0.0
  0
ARC
  5
2D1D7
  8
0
 10
5924.1313081908301683
 20
287.9705073398142758
 30
0.0
 40
0.0111162574994572
 50
346.7576327280060013
 51
54.51453939477463
  0
ARC
  5
2D1D8
  8
0
 10
5924.1662050021477626
 20
288.0152025759765024
 30
0.0
 40
0.0109780124706402
 50
229.2157464630820982
 51
297.9445220774294967
  0
LINE
  5
2D1D9
  8
0
 10
5924.1421288640403873
 20
287.9679609298127048
 30
0.0
 11
5924.1337282961876554
 21
287.9551029034166731
 31
0.0
  0
LINE
  5
2D1DA
  8
0
 10
5924.0903842621128206
 20
287.9419348538630175
 30
0.0
 11
5924.0984015547746822
 21
287.9567495132714043
 31
0.0
  0
ARC
  5
2D1DB
  8
0
 10
5924.099274458826585
 20
287.9373561640725256
 30
0.0
 40
0.0099999998902948
 50
152.7503177978693998
 51
246.3157899449759043
  0
ARC
  5
2D1DC
  8
0
 10
5924.1070958826248898
 20
287.9518165025394865
 30
0.0
 40
0.0099962958957931
 50
56.8195055119541834
 51
150.4301757347411979
  0
LINE
  5
2D1DD
  8
0
 10
5924.0952575047103892
 20
287.9281984308688038
 30
0.0
 11
5924.1048685755667975
 21
287.9239826243340872
 31
0.0
  0
LINE
  5
2D1DE
  8
0
 10
5924.1125666387242745
 20
287.9601829091357104
 30
0.0
 11
5924.1213527282070572
 21
287.9544426703856743
 31
0.0
  0
ARC
  5
2D1DF
  8
0
 10
5924.0999934755564027
 20
287.9139924000782003
 30
0.0
 40
0.0111162574994572
 50
356.2313169385363949
 51
63.9882236053142535
  0
ARC
  5
2D1E0
  8
0
 10
5924.1270577457698892
 20
287.9638218778362102
 30
0.0
 40
0.0109780124706377
 50
238.6894306735746056
 51
307.4182062879648925
  0
LINE
  5
2D1E1
  8
0
 10
5924.111085694198664
 20
287.913261744063675
 30
0.0
 11
5924.1049160607308295
 21
287.8991963963648004
 31
0.0
  0
LINE
  5
2D1E2
  8
0
 10
5924.0643305725052414
 20
287.8790737483138855
 30
0.0
 11
5924.0698001069504244
 21
287.8950059580784
 31
0.0
  0
ARC
  5
2D1E3
  8
0
 10
5924.0738531460938248
 20
287.8760207841700094
 30
0.0
 40
0.0099999998902948
 50
162.2240020083829961
 51
255.7894741555118117
  0
ARC
  5
2D1E4
  8
0
 10
5924.0791878023810568
 20
287.8915712665134947
 30
0.0
 40
0.0099962958957931
 50
66.2931897224559066
 51
159.9038599452744052
  0
LINE
  5
2D1E5
  8
0
 10
5924.071398291339392
 20
287.866326781593898
 30
0.0
 11
5924.0815721786675567
 21
287.8637504034355175
 31
0.0
  0
LINE
  5
2D1E6
  8
0
 10
5924.0832068792324208
 20
287.9007240230873208
 30
0.0
 11
5924.0928179501497652
 21
287.8965082165103126
 31
0.0
  0
ARC
  5
2D1E7
  8
0
 10
5924.0784079055338225
 20
287.853094017728381
 30
0.0
 40
0.0111162574994572
 50
5.7050011490624524
 51
73.4619078158619914
  0
ARC
  5
2D1E8
  8
0
 10
5924.0969013919020654
 20
287.9066985188244985
 30
0.0
 40
0.0109780124706337
 50
248.1631148841308061
 51
316.8918904985249014
  0
LINE
  5
2D1E9
  8
0
 10
5924.0894691027988301
 20
287.8541990460922193
 30
0.0
 11
5924.0856986952321677
 21
287.8393100431101175
 31
0.0
  0
LINE
  5
2D1EA
  8
0
 10
5924.0489788191780463
 20
287.8127816899450977
 30
0.0
 11
5924.0517514007642603
 21
287.8293968609156082
 31
0.0
  0
ARC
  5
2D1EB
  8
0
 10
5924.058874018656752
 20
287.8113377283509067
 30
0.0
 40
0.0099999998902948
 50
171.697686218917795
 51
265.2631583660137835
  0
ARC
  5
2D1EC
  8
0
 10
5924.061576391915878
 20
287.8275541779497075
 30
0.0
 40
0.0099962958957931
 50
75.7668739329955656
 51
169.377544155799086
  0
LINE
  5
2D1ED
  8
0
 10
5924.058048225305356
 20
287.8013718835223926
 30
0.0
 11
5924.0685074119774072
 21
287.8005052106203152
 31
0.0
  0
LINE
  5
2D1EE
  8
0
 10
5924.0640341595790233
 20
287.8372436211611785
 30
0.0
 11
5924.0742080469726716
 21
287.8346672429709088
 31
0.0
  0
ARC
  5
2D1EF
  8
0
 10
5924.0671402788457272
 20
287.7894733418849
 30
0.0
 40
0.0111162574994572
 50
15.1786853595945992
 51
82.9355920263549962
  0
ARC
  5
2D1F0
  8
0
 10
5924.0765585272683893
 20
287.8453906752658895
 30
0.0
 40
0.0109780124706338
 50
257.6367990946504278
 51
326.3655747090414252
  0
LINE
  5
2D1F1
  8
0
 10
5924.0778687341062323
 20
287.7923839123340031
 30
0.0
 11
5924.0766003993267077
 21
287.7770773872571795
 31
0.0
  0
LINE
  5
2D1F2
  8
0
 10
5924.0447477579427868
 20
287.7448669532981853
 30
0.0
 11
5924.0447477578709368
 21
287.7617118669231218
 31
0.0
  0
ARC
  5
2D1F3
  8
0
 10
5924.0547456680651521
 20
287.7450713817621022
 30
0.0
 40
0.0099999998902948
 50
181.1713704294440959
 51
274.7368425765441202
  0
ARC
  5
2D1F4
  8
0
 10
5924.054742044599152
 20
287.7615114561442056
 30
0.0
 40
0.0099962958957931
 50
85.2405581435484265
 51
178.8512283663220899
  0
LINE
  5
2D1F5
  8
0
 10
5924.0555714616048135
 20
287.7351055369489927
 30
0.0
 11
5924.0660306482741362
 21
287.7359722098805719
 31
0.0
  0
LINE
  5
2D1F6
  8
0
 10
5924.0555714615793477
 20
287.7714732832411073
 30
0.0
 11
5924.0660306483214299
 21
287.770606610318282
 31
0.0
  0
ARC
  5
2D1F7
  8
0
 10
5924.0664979469711398
 20
287.7248657787382058
 30
0.0
 40
0.0111162574994572
 50
24.6523695701197312
 51
92.4092762369047875
  0
ARC
  5
2D1F8
  8
0
 10
5924.0665840521842256
 20
287.7815706653149732
 30
0.0
 40
0.0109780124706387
 50
267.1104833051995797
 51
335.8392589195457276
  0
LINE
  5
2D1F9
  8
0
 10
5924.0766010159350117
 20
287.7295024984978795
 30
0.0
 11
5924.0778693508136712
 21
287.7141959734295256
 31
0.0
  0
LINE
  5
2D1FA
  8
0
 10
5924.0517528011223476
 20
287.6771820753485258
 30
0.0
 11
5924.0489802193942523
 21
287.6937972462953894
 31
0.0
  0
ARC
  5
2D1FB
  8
0
 10
5924.0615807049607611
 20
287.6790293175947113
 30
0.0
 40
0.0099999998902948
 50
190.6450546399719883
 51
284.210526787083495
  0
ARC
  5
2D1FC
  8
0
 10
5924.058871183606243
 20
287.6952445743871749
 30
0.0
 40
0.0099962958957931
 50
94.7142423540508815
 51
188.3249125768537908
  0
LINE
  5
2D1FD
  8
0
 10
5924.0640355598961833
 20
287.6693353150645862
 30
0.0
 11
5924.074209447217072
 21
287.6719116932517863
 31
0.0
  0
LINE
  5
2D1FE
  8
0
 10
5924.0580496255706748
 20
287.7052070526949024
 30
0.0
 11
5924.0685088123136666
 21
287.7060737256177276
 31
0.0
  0
ARC
  5
2D1FF
  8
0
 10
5924.076498431051732
 20
287.661033654191499
 30
0.0
 40
0.0111162574994572
 50
34.1260537806421027
 51
101.8829604474320973
  0
ARC
  5
2D200
  8
0
 10
5924.0672516338763671
 20
287.7169758823973211
 30
0.0
 40
0.0109744029481238
 50
276.5779887955906133
 51
345.3805991069085053
  0
LINE
  5
2D201
  8
0
 10
5924.0857005283342005
 20
287.6672700456339271
 30
0.0
 11
5924.0894709360009074
 21
287.6523810426763816
 31
0.0
  0
LINE
  5
2D202
  8
0
 10
5924.0698028693950619
 20
287.6115733231251284
 30
0.0
 11
5924.0643333348152737
 21
287.6275055328433155
 31
0.0
  0
ARC
  5
2D203
  8
0
 10
5924.0791926873562261
 20
287.6150129912006719
 30
0.0
 40
0.0099999998902948
 50
200.1187388504885121
 51
293.6842109976211077
  0
ARC
  5
2D204
  8
0
 10
5924.0738511767922319
 20
287.6305611204682009
 30
0.0
 40
0.0099962958957931
 50
104.1879265645698069
 51
197.7985967873711957
  0
LINE
  5
2D205
  8
0
 10
5924.0832096416443164
 20
287.6058552580722107
 30
0.0
 11
5924.0928207124898108
 21
287.6100710646339849
 31
0.0
  0
LINE
  5
2D206
  8
0
 10
5924.071401053702175
 20
287.6402524995485805
 30
0.0
 11
5924.0815749410949138
 21
287.6428288777390208
 31
0.0
  0
ARC
  5
2D207
  8
0
 10
5924.0968689439514492
 20
287.5997181422044946
 30
0.0
 40
0.0111162574994572
 50
43.5997379911791825
 51
111.3566446579389009
  0
ARC
  5
2D208
  8
0
 10
5924.0785383371730859
 20
287.6533785599343105
 30
0.0
 40
0.0109780124706364
 50
286.0578517262034097
 51
354.7866273406016262
  0
LINE
  5
2D209
  8
0
 10
5924.1049190603262105
 20
287.6073840928281129
 30
0.0
 11
5924.1110886938868134
 21
287.5933187451695972
 31
0.0
  0
LINE
  5
2D20A
  8
0
 10
5924.0984056039551433
 20
287.5498303323594769
 30
0.0
 11
5924.090388311166862
 21
287.5646449916999927
 31
0.0
  0
ARC
  5
2D20B
  8
0
 10
5924.1071012062802765
 20
287.5547686010859252
 30
0.0
 40
0.0099999998902948
 50
209.5924230610143866
 51
303.1578952081462717
  0
ARC
  5
2D20C
  8
0
 10
5924.0992734089913938
 20
287.5692254903929097
 30
0.0
 40
0.0099962958957931
 50
113.6616107751086986
 51
207.2722809979086094
  0
LINE
  5
2D20D
  8
0
 10
5924.1125706878792698
 20
287.5463969364461718
 30
0.0
 11
5924.1213567772920214
 21
287.5521371751694915
 31
0.0
  0
LINE
  5
2D20E
  8
0
 10
5924.0952615538180908
 20
287.5783814146882946
 30
0.0
 11
5924.1048726247354352
 21
287.5825972212651891
 31
0.0
  0
ARC
  5
2D20F
  8
0
 10
5924.127053831178273
 20
287.5425917701066965
 30
0.0
 40
0.0111162574994572
 50
53.0734222016911801
 51
120.8303288684633969
  0
ARC
  5
2D210
  8
0
 10
5924.1001410155140547
 20
287.592503210967493
 30
0.0
 40
0.0109780124706375
 50
295.5315359367477868
 51
4.2603115511288809
  0
LINE
  5
2D211
  8
0
 10
5924.1337323804573316
 20
287.5514781727620175
 30
0.0
 11
5924.1421329483928275
 21
287.538620146421124
 31
0.0
  0
LINE
  5
2D212
  8
0
 10
5924.1367807967635599
 20
287.4936372908877047
 30
0.0
 11
5924.1264344366154546
 21
287.5069302945627214
 31
0.0
  0
ARC
  5
2D213
  8
0
 10
5924.1445449900893436
 20
287.4999394571672156
 30
0.0
 40
0.0099999998902948
 50
219.0661072715458033
 51
312.631579418664785
  0
ARC
  5
2D214
  8
0
 10
5924.1344444279811796
 20
287.5129107602596719
 30
0.0
 40
0.0099962958957931
 50
123.1352949856511003
 51
216.7459652084235131
  0
LINE
  5
2D215
  8
0
 10
5924.1513178058012272
 20
287.4925822182045181
 30
0.0
 11
5924.1590392521648027
 21
287.4996903103404975
 31
0.0
  0
LINE
  5
2D216
  8
0
 10
5924.1289802736755519
 20
287.5212814800229921
 30
0.0
 11
5924.1377663631556061
 21
287.5270217187730282
 31
0.0
  0
ARC
  5
2D217
  8
0
 10
5924.1662297276971003
 20
287.4912127964113893
 30
0.0
 40
0.0111162574994572
 50
62.5471064122206499
 51
130.3040130789921136
  0
ARC
  5
2D218
  8
0
 10
5924.1314688146012486
 20
287.5360138064061175
 30
0.0
 40
0.0109780124706347
 50
305.0052201472768161
 51
13.7339957616677708
  0
LINE
  5
2D219
  8
0
 10
5924.1713545364636957
 20
287.5010772531992984
 30
0.0
 11
5924.1817568931801361
 21
287.4897772816158863
 31
0.0
  0
LINE
  5
2D21A
  8
0
 10
5924.1838816726003643
 20
287.4445269983968956
 30
0.0
 11
5924.1714884668253944
 21
287.4559357479183177
 31
0.0
  0
ARC
  5
2D21B
  8
0
 10
5924.1905026699723749
 20
287.4520211555617948
 30
0.0
 40
0.0099999998902948
 50
228.5397914820873098
 51
322.1052636291740896
  0
ARC
  5
2D21C
  8
0
 10
5924.1784048600484311
 20
287.4631530491051876
 30
0.0
 40
0.0099962958957931
 50
132.6089791961713047
 51
226.2196494189489897
  0
LINE
  5
2D21D
  8
0
 10
5924.1983940750360489
 20
287.445879028576087
 30
0.0
 11
5924.2048402574237116
 21
287.4541610839007717
 31
0.0
  0
LINE
  5
2D21E
  8
0
 10
5924.1716374544939754
 20
287.4705102329220949
 30
0.0
 11
5924.1793589009212155
 21
287.477618325095591
 31
0.0
  0
ARC
  5
2D21F
  8
0
 10
5924.2133280171728984
 20
287.4469827055860947
 30
0.0
 40
0.0111162574994572
 50
72.0207906227289101
 51
139.7776972895156007
  0
ARC
  5
2D220
  8
0
 10
5924.171667193740177
 20
287.48545122994949
 30
0.0
 40
0.0109780124706364
 50
314.4789043577735015
 51
23.2076799721748799
  0
LINE
  5
2D221
  8
0
 10
5924.2167592940040777
 20
287.4575561398401078
 30
0.0
 11
5924.2288796903267212
 21
287.4481224567824142
 31
0.0
  0
LINE
  5
2D222
  8
0
 10
5924.2384234423507223
 20
287.4038390556452214
 30
0.0
 11
5924.2243214452973916
 21
287.4130523500663799
 31
0.0
  0
ARC
  5
2D223
  8
0
 10
5924.24372064022009
 20
287.4123207826237945
 30
0.0
 40
0.0099999998902948
 50
238.013475692583711
 51
331.578947839718694
  0
ARC
  5
2D224
  8
0
 10
5924.2299555791987586
 20
287.4213096175809028
 30
0.0
 40
0.0099962958957931
 50
142.0826634066868053
 51
235.6933336294877961
  0
LINE
  5
2D225
  8
0
 10
5924.2525153776814477
 20
287.4075613088278942
 30
0.0
 11
5924.2575104610386916
 21
287.4167914144617839
 31
0.0
  0
LINE
  5
2D226
  8
0
 10
5924.2220695195801454
 20
287.4274525806555971
 30
0.0
 11
5924.2285157020232873
 21
287.4357346360276892
 31
0.0
  0
ARC
  5
2D227
  8
0
 10
5924.2670639810467037
 20
287.4111079792094188
 30
0.0
 40
0.0111162574994572
 50
81.4944748332639648
 51
149.2513815000646957
  0
ARC
  5
2D228
  8
0
 10
5924.2196396459376047
 20
287.4421946968768111
 30
0.0
 40
0.0109780124706355
 50
323.9525885683228807
 51
32.6813641827012376
  0
LINE
  5
2D229
  8
0
 10
5924.2687081296553515
 20
287.4221019752058055
 30
0.0
 11
5924.2822159527668191
 21
287.414791906955827
 31
0.0
  0
LINE
  5
2D22A
  8
0
 10
5924.2989183487197806
 20
287.3726833236452194
 30
0.0
 11
5924.2834922261035899
 21
287.3794498483117081
 31
0.0
  0
ARC
  5
2D22B
  8
0
 10
5924.3027472533376567
 20
287.3819212610359273
 30
0.0
 40
0.0099999998902948
 50
247.4871599031309017
 51
341.0526320502517024
  0
ARC
  5
2D22C
  8
0
 10
5924.2876904162003484
 20
287.3885218454212236
 30
0.0
 40
0.0099962958957931
 50
151.556347617219501
 51
245.1670178399955091
  0
LINE
  5
2D22D
  8
0
 10
5924.3122054256809861
 20
287.3786742664678968
 30
0.0
 11
5924.3156131571577134
 21
287.3886006491903231
 31
0.0
  0
LINE
  5
2D22E
  8
0
 10
5924.2789008136660414
 20
287.3932830237345115
 30
0.0
 11
5924.2838958970723979
 21
287.4025131294242215
 31
0.0
  0
ARC
  5
2D22F
  8
0
 10
5924.3259718423023514
 20
287.3845671862983977
 30
0.0
 40
0.0111162574994572
 50
90.9681590438162857
 51
158.7250657105869891
  0
ARC
  5
2D230
  8
0
 10
5924.2740776077544069
 20
287.407424132648714
 30
0.0
 40
0.0109780124706403
 50
333.426272778849409
 51
42.155048393236477
  0
LINE
  5
2D231
  8
0
 10
5924.3257840145997761
 20
287.3956818564856235
 30
0.0
 11
5924.3403108062993851
 21
287.3906948026493069
 31
0.0
  0
LINE
  5
2D232
  8
0
 10
5924.363716248358287
 20
287.3519096495489862
 30
0.0
 11
5924.3473867845932546
 21
287.3560448313069742
 31
0.0
  0
ARC
  5
2D233
  8
0
 10
5924.3659724171875496
 20
287.3616518105013142
 30
0.0
 40
0.0099999998902948
 50
256.9608441136588226
 51
350.5263162607654976
  0
ARC
  5
2D234
  8
0
 10
5924.3500345151996953
 20
287.3656840975791056
 30
0.0
 40
0.0099962958957931
 50
161.0300318277355132
 51
254.640702050545201
  0
LINE
  5
2D235
  8
0
 10
5924.375836030128994
 20
287.3600058647086826
 30
0.0
 11
5924.3775634556932346
 21
287.3703577586751976
 31
0.0
  0
LINE
  5
2D236
  8
0
 10
5924.340581127195037
 20
287.3689336185981915
 30
0.0
 11
5924.3439888587090536
 21
287.3788600013834866
 31
0.0
  0
ARC
  5
2D237
  8
0
 10
5924.388444748044094
 20
287.3680842904968245
 30
0.0
 40
0.0111162574994572
 50
100.4418432543155006
 51
168.1987499211012107
  0
ARC
  5
2D238
  8
0
 10
5924.3334961534974354
 20
287.3820879876172967
 30
0.0
 40
0.0109780124706367
 50
342.8999569893765056
 51
51.6287326037781327
  0
LINE
  5
2D239
  8
0
 10
5924.3864300674822516
 20
287.379016455646024
 30
0.0
 11
5924.401579574760035
 21
287.3764884500516814
 31
0.0
  0
LINE
  5
2D23A
  8
0
 10
5924.4310496234793391
 20
287.3420846850331145
 30
0.0
 11
5924.4142622437693717
 21
287.3434757269038187
 31
0.0
  0
ARC
  5
2D23B
  8
0
 10
5924.4316715141167151
 20
287.3520653287919799
 30
0.0
 40
0.0099999998902948
 50
266.4345283241634093
 51
0.0000004712944909
  0
ARC
  5
2D23C
  8
0
 10
5924.4152872916993147
 20
287.3534193282823139
 30
0.0
 40
0.0099962958957931
 50
170.503716038265992
 51
264.114386261057291
  0
LINE
  5
2D23D
  8
0
 10
5924.441671514005975
 20
287.3520653288854874
 30
0.0
 11
5924.4416715139923326
 21
287.3625603614138981
 31
0.0
  0
LINE
  5
2D23E
  8
0
 10
5924.4054279820047668
 20
287.3550685535445837
 30
0.0
 11
5924.4071554075962922
 21
287.3654204475791971
 31
0.0
  0
ARC
  5
2D23F
  8
0
 10
5924.4527786002618086
 20
287.3621089022345245
 30
0.0
 40
0.0111162574994572
 50
109.9155274648588971
 51
177.672434131632599
  0
ARC
  5
2D240
  8
0
 10
5924.3962745001335861
 20
287.3668773657727797
 30
0.0
 40
0.0109780124706412
 50
352.3736411999208826
 51
61.1024168142784205
  0
LINE
  5
2D241
  8
0
 10
5924.448992022073071
 20
287.3725603613784756
 30
0.0
 11
5924.4643510058622269
 21
287.3725603614287252
 31
0.0
  0
LINE
  5
2D242
  8
0
 10
5924.4990817951356803
 20
287.3434764295175796
 30
0.0
 11
5924.4822944154384459
 21
287.3420853875048806
 31
0.0
  0
ARC
  5
2D243
  8
0
 10
5924.4980524440252339
 20
287.3534233101390214
 30
0.0
 40
0.0099999998902948
 50
275.9082125346827183
 51
9.4736846818221299
  0
ARC
  5
2D244
  8
0
 10
5924.4816688200562567
 20
287.3520620884652885
 30
0.0
 40
0.0099962958957931
 50
179.9774002487926907
 51
273.5880704715693241
  0
LINE
  5
2D245
  8
0
 10
5924.5079160569357555
 20
287.3550692561159963
 30
0.0
 11
5924.5061886313405921
 21
287.3654211500776228
 31
0.0
  0
LINE
  5
2D246
  8
0
 10
5924.4716725249372757
 20
287.3520660314048882
 30
0.0
 11
5924.4716725249372757
 21
287.3625610640049217
 31
0.0
  0
ARC
  5
2D247
  8
0
 10
5924.5172185391702442
 20
287.3668040145266787
 30
0.0
 40
0.0111162574994572
 50
119.3892116753787036
 51
187.1461183421561998
  0
ARC
  5
2D248
  8
0
 10
5924.4607002180182462
 20
287.3622071732277732
 30
0.0
 40
0.0109780124706364
 50
1.847325410431448
 51
70.5761010248087075
  0
LINE
  5
2D249
  8
0
 10
5924.5117633513373221
 20
287.3764896791049068
 30
0.0
 11
5924.5269128585978251
 21
287.3790176847983844
 31
0.0
  0
LINE
  5
2D24A
  8
0
 10
5924.5659570230300233
 20
287.3560469198411056
 30
0.0
 11
5924.5496275593013706
 21
287.3519117379448744
 31
0.0
  0
ARC
  5
2D24B
  8
0
 10
5924.5633045081858654
 20
287.3656887123511865
 30
0.0
 40
0.0099999998902948
 50
285.3818967452224911
 51
18.9473688923500916
  0
ARC
  5
2D24C
  8
0
 10
5924.547368385217851
 20
287.3616494000922899
 30
0.0
 40
0.0099962958957931
 50
189.4510844593170873
 51
283.061754682127912
  0
LINE
  5
2D24D
  8
0
 10
5924.5727626804700776
 20
287.368935707096
 30
0.0
 11
5924.5693549489642464
 21
287.3788620898088766
 31
0.0
  0
LINE
  5
2D24E
  8
0
 10
5924.5375077775488535
 20
287.3600079531561278
 30
0.0
 11
5924.5357803519582376
 21
287.3703598471906275
 31
0.0
  0
ARC
  5
2D24F
  8
0
 10
5924.5800068112193912
 20
287.3820415569492752
 30
0.0
 40
0.0111162574994572
 50
128.8628958859121099
 51
196.6198025526823869
  0
ARC
  5
2D250
  8
0
 10
5924.5250159415118105
 20
287.3682048006608056
 30
0.0
 40
0.0109780124706393
 50
11.3210096209738502
 51
80.049785235325615
  0
LINE
  5
2D251
  8
0
 10
5924.5730318170453756
 20
287.3906972272806115
 30
0.0
 11
5924.5875586087122429
 21
287.3956842812120271
 31
0.0
  0
LINE
  5
2D252
  8
0
 10
5924.6298511252789467
 20
287.3794532657962009
 30
0.0
 11
5924.6144250027200542
 21
287.3726867409990859
 31
0.0
  0
ARC
  5
2D253
  8
0
 10
5924.6256478003906523
 20
287.3885269672297227
 30
0.0
 40
0.0099999998902948
 50
294.8555809557478256
 51
28.4210531028673685
  0
ARC
  5
2D254
  8
0
 10
5924.6105938743148727
 20
287.3819197462943862
 30
0.0
 40
0.0099962958957931
 50
198.9247686698452071
 51
292.5354388926268143
  0
LINE
  5
2D255
  8
0
 10
5924.6344425377628795
 20
287.3932864411901278
 30
0.0
 11
5924.6294474543783508
 21
287.4025165468099203
 31
0.0
  0
LINE
  5
2D256
  8
0
 10
5924.6011379257688532
 20
287.3786776838758215
 30
0.0
 11
5924.5977301942530175
 21
287.3886040666611166
 31
0.0
  0
ARC
  5
2D257
  8
0
 10
5924.6394307160244352
 20
287.4074058890661831
 30
0.0
 40
0.0111162574994572
 50
138.3365800964240009
 51
206.0934867632213923
  0
ARC
  5
2D258
  8
0
 10
5924.5874673053367587
 20
287.3847066484298125
 30
0.0
 40
0.0109780124706362
 50
20.7946938314887291
 51
89.5234694458473541
  0
LINE
  5
2D259
  8
0
 10
5924.6311261751670827
 20
287.4147954610277225
 30
0.0
 11
5924.6446339982312566
 21
287.4221055293659788
 31
0.0
  0
LINE
  5
2D25A
  8
0
 10
5924.6890212373282338
 20
287.4130570032812102
 30
0.0
 11
5924.6749192403513007
 21
287.4038437087406805
 31
0.0
  0
ARC
  5
2D25B
  8
0
 10
5924.6833817581446056
 20
287.4213151067162926
 30
0.0
 40
0.0099999998902948
 50
304.3292651662795265
 51
37.894737313410559
  0
ARC
  5
2D25C
  8
0
 10
5924.6696206608221473
 20
287.4123202048679104
 30
0.0
 40
0.0099962958957931
 50
208.3984528803829903
 51
302.0091231031773873
  0
LINE
  5
2D25D
  8
0
 10
5924.6912731630945927
 20
287.4274572338496796
 30
0.0
 11
5924.6848269806832832
 21
287.4357392891561744
 31
0.0
  0
LINE
  5
2D25E
  8
0
 10
5924.6608273050233038
 20
287.407565961978321
 30
0.0
 11
5924.6558322216178567
 21
287.4167960676679741
 31
0.0
  0
ARC
  5
2D25F
  8
0
 10
5924.6938693243682792
 20
287.4422051380173002
 30
0.0
 40
0.0111162574994572
 50
147.8102643069667863
 51
215.5671709737511037
  0
ARC
  5
2D260
  8
0
 10
5924.6463507990856669
 20
287.411262589145224
 30
0.0
 40
0.010978012470635
 50
30.2683780420026913
 51
98.9971536563842989
  0
LINE
  5
2D261
  8
0
 10
5924.6844617630558787
 20
287.4481270433490181
 30
0.0
 11
5924.6965821593157671
 21
287.4575607264858945
 31
0.0
  0
LINE
  5
2D262
  8
0
 10
5924.7418533527697946
 20
287.455941509935883
 30
0.0
 11
5924.7294601470912312
 21
287.4445327603096985
 31
0.0
  0
ARC
  5
2D263
  8
0
 10
5924.7349315495803239
 20
287.463158755838208
 30
0.0
 40
0.0099999998902948
 50
313.8029493768249267
 51
47.3684215239227981
  0
ARC
  5
2D264
  8
0
 10
5924.7228386478718676
 20
287.4520215305511783
 30
0.0
 40
0.0099962958957931
 50
217.8721370909073016
 51
311.4828073136795865
  0
LINE
  5
2D265
  8
0
 10
5924.7417043651530548
 20
287.4705159949276094
 30
0.0
 11
5924.7339829187703799
 21
287.4776240870418178
 31
0.0
  0
LINE
  5
2D266
  8
0
 10
5924.7149477446473611
 20
287.4458847905431753
 30
0.0
 11
5924.7085015622042192
 21
287.4541668459153243
 31
0.0
  0
ARC
  5
2D267
  8
0
 10
5924.7418376929272199
 20
287.4854900710058132
 30
0.0
 40
0.0111162574994572
 50
157.283948517475892
 51
225.0408551842552924
  0
ARC
  5
2D268
  8
0
 10
5924.7000602345469815
 20
287.4471482459700269
 30
0.0
 40
0.0109780124706372
 50
39.7420622525507028
 51
108.470837866911296
  0
LINE
  5
2D269
  8
0
 10
5924.7315837249070682
 20
287.489782775567619
 30
0.0
 11
5924.7419860815489301
 21
287.5010827472189021
 31
0.0
  0
LINE
  5
2D26A
  8
0
 10
5924.7869063492153145
 20
287.5069370082102864
 30
0.0
 11
5924.7765599891790771
 21
287.4936440044479014
 31
0.0
  0
ARC
  5
2D26B
  8
0
 10
5924.7788910307681363
 20
287.5129165289254729
 30
0.0
 40
0.0099999998902948
 50
323.2766335873355956
 51
56.8421057344426472
  0
ARC
  5
2D26C
  8
0
 10
5924.7687961875099063
 20
287.4999407746731777
 30
0.0
 40
0.0099962958957931
 50
227.3458213014112062
 51
320.9564915242053758
  0
LINE
  5
2D26D
  8
0
 10
5924.7843605122106965
 20
287.5212881936673739
 30
0.0
 11
5924.7755744227806645
 21
287.5270284323659098
 31
0.0
  0
LINE
  5
2D26E
  8
0
 10
5924.7620229801268579
 20
287.492588931816897
 30
0.0
 11
5924.7543015336987082
 21
287.4996970239905068
 31
0.0
  0
ARC
  5
2D26F
  8
0
 10
5924.7820273696497679
 20
287.5360799878955049
 30
0.0
 40
0.0111162574994572
 50
166.7576327280058877
 51
234.5145393947746015
  0
ARC
  5
2D270
  8
0
 10
5924.7471305583312642
 20
287.4913847517332783
 30
0.0
 40
0.0109780124706409
 50
49.2157464630842085
 51
117.9445220774295962
  0
LINE
  5
2D271
  8
0
 10
5924.771206696439549
 20
287.538626397897076
 30
0.0
 11
5924.7796072642913714
 21
287.5514844242929939
 31
0.0
  0
LINE
  5
2D272
  8
0
 10
5924.8229512983671157
 20
287.5646524738468202
 30
0.0
 11
5924.8149340057052541
 21
287.5498378144384901
 31
0.0
  0
ARC
  5
2D273
  8
0
 10
5924.8140611016533512
 20
287.5692311636371983
 30
0.0
 40
0.0099999998902948
 50
332.7503177978666145
 51
66.3157899449759185
  0
ARC
  5
2D274
  8
0
 10
5924.8062396778550465
 20
287.5547708251702943
 30
0.0
 40
0.0099962958957931
 50
236.8195055119541905
 51
330.4301757347412263
  0
LINE
  5
2D275
  8
0
 10
5924.8180780557695471
 20
287.5783888968409201
 30
0.0
 11
5924.8084669849122292
 21
287.5826047033755799
 31
0.0
  0
LINE
  5
2D276
  8
0
 10
5924.8007689217547522
 20
287.5464044185741272
 30
0.0
 11
5924.7919828322737885
 21
287.5521446573241064
 31
0.0
  0
ARC
  5
2D277
  8
0
 10
5924.8133420849226241
 20
287.5925949276315237
 30
0.0
 40
0.0111162574994572
 50
176.2313169385363949
 51
243.988223605314289
  0
ARC
  5
2D278
  8
0
 10
5924.7862689231269542
 20
287.5427274147127719
 30
0.0
 40
0.0110151357748705
 50
58.7527301621323303
 51
127.2921659629711968
  0
LINE
  5
2D279
  8
0
 10
5924.8022498662812723
 20
287.5933255836462195
 30
0.0
 11
5924.8084194997509258
 21
287.6073909313449803
 31
0.0
  0
LINE
  5
2D27A
  8
0
 10
5924.8490049879746948
 20
287.6275135793957816
 30
0.0
 11
5924.8435354535286024
 21
287.6115813696313239
 31
0.0
  0
ARC
  5
2D27B
  8
0
 10
5924.839482414387021
 20
287.6305665435398282
 30
0.0
 40
0.0099999998902948
 50
342.2240020083830814
 51
75.7894741555118117
  0
ARC
  5
2D27C
  8
0
 10
5924.8341477580988794
 20
287.615016061196286
 30
0.0
 40
0.0099962958957931
 50
246.2931897224559066
 51
339.9038599452744052
  0
LINE
  5
2D27D
  8
0
 10
5924.8419372691387252
 20
287.6402605461158259
 30
0.0
 11
5924.831763381813289
 21
287.6428369242743202
 31
0.0
  0
LINE
  5
2D27E
  8
0
 10
5924.830128681246606
 20
287.6058633046225168
 30
0.0
 11
5924.8205176103310805
 21
287.610079111199525
 31
0.0
  0
ARC
  5
2D27F
  8
0
 10
5924.8349276549452043
 20
287.6534933099813998
 30
0.0
 40
0.0111162574994572
 50
185.7050011490624115
 51
253.4619078158619914
  0
ARC
  5
2D280
  8
0
 10
5924.8164341685769614
 20
287.5998888088852823
 30
0.0
 40
0.0109780124706374
 50
68.1631148841331793
 51
136.8918904984820983
  0
LINE
  5
2D281
  8
0
 10
5924.8238664576792871
 20
287.6523882816176183
 30
0.0
 11
5924.8276368652486781
 21
287.6672772845997201
 31
0.0
  0
LINE
  5
2D282
  8
0
 10
5924.8643567413009805
 20
287.6938056377646831
 30
0.0
 11
5924.8615841597147664
 21
287.6771904667941726
 31
0.0
  0
ARC
  5
2D283
  8
0
 10
5924.8544615418231842
 20
287.6952495993588172
 30
0.0
 40
0.0099999998902948
 50
351.697686218917795
 51
85.2631583660138404
  0
ARC
  5
2D284
  8
0
 10
5924.8517591685640582
 20
287.6790331497600732
 30
0.0
 40
0.0099962958957931
 50
255.7668739329955088
 51
349.3775441557958743
  0
LINE
  5
2D285
  8
0
 10
5924.8552873351763992
 20
287.7052154441872744
 30
0.0
 11
5924.8448281485016196
 21
287.7060821170895224
 31
0.0
  0
LINE
  5
2D286
  8
0
 10
5924.8493014009000035
 20
287.6693437065484886
 30
0.0
 11
5924.8391275135072647
 21
287.671920084738872
 31
0.0
  0
ARC
  5
2D287
  8
0
 10
5924.8461952816342091
 20
287.7171139858248807
 30
0.0
 40
0.0111162574994572
 50
195.1786853595945956
 51
262.935592026354982
  0
ARC
  5
2D288
  8
0
 10
5924.8367770332106375
 20
287.6611966524438913
 30
0.0
 40
0.0109780124706354
 50
77.6367990946503568
 51
146.3655747090359114
  0
LINE
  5
2D289
  8
0
 10
5924.8354668263727945
 20
287.7142034153758914
 30
0.0
 11
5924.8367351611532285
 21
287.7295099404526013
 31
0.0
  0
LINE
  5
2D28A
  8
0
 10
5924.8685878025362399
 20
287.7617203744115955
 30
0.0
 11
5924.8685878026071805
 21
287.7448754607867158
 31
0.0
  0
ARC
  5
2D28B
  8
0
 10
5924.8585898924138746
 20
287.7615159459476786
 30
0.0
 40
0.0099999998902948
 50
1.171370429440866
 51
94.7368425765441486
  0
ARC
  5
2D28C
  8
0
 10
5924.8585935158816937
 20
287.7450758715655752
 30
0.0
 40
0.0099962958957931
 50
265.2405581435484123
 51
358.8512283663221183
  0
LINE
  5
2D28D
  8
0
 10
5924.8577640988751227
 20
287.771481790760788
 30
0.0
 11
5924.8473049122048906
 21
287.7706151178290952
 31
0.0
  0
LINE
  5
2D28E
  8
0
 10
5924.8577640989024076
 20
287.7351140444686735
 30
0.0
 11
5924.8473049121594158
 21
287.7359807173914987
 31
0.0
  0
ARC
  5
2D28F
  8
0
 10
5924.8468376135069775
 20
287.781721548971575
 30
0.0
 40
0.0111162574994572
 50
204.6523695701197028
 51
272.409276236904816
  0
ARC
  5
2D290
  8
0
 10
5924.8467515082957107
 20
287.7250166623948076
 30
0.0
 40
0.0109780124706361
 50
87.1104833051476533
 51
155.8392589195516109
  0
LINE
  5
2D291
  8
0
 10
5924.8367345445449246
 20
287.7770848292119013
 30
0.0
 11
5924.8354662096671746
 21
287.792391354280312
 31
0.0
  0
LINE
  5
2D292
  8
0
 10
5924.8615827593575887
 20
287.8294052523613118
 30
0.0
 11
5924.8643553410847744
 21
287.8127900814142777
 31
0.0
  0
ARC
  5
2D293
  8
0
 10
5924.8517548555182657
 20
287.8275580101151263
 30
0.0
 40
0.0099999998902948
 50
10.6450546399688104
 51
104.210526787083495
  0
ARC
  5
2D294
  8
0
 10
5924.8544643768736933
 20
287.8113427533226059
 30
0.0
 40
0.0099962958957931
 50
274.7142423540508958
 51
8.3249125768505987
  0
LINE
  5
2D295
  8
0
 10
5924.8493000005828435
 20
287.8372520126450809
 30
0.0
 11
5924.8391261132628642
 21
287.8346756344579944
 31
0.0
  0
LINE
  5
2D296
  8
0
 10
5924.8552859349101709
 20
287.8013802750149921
 30
0.0
 11
5924.8448267481671792
 21
287.80051360209211
 31
0.0
  0
ARC
  5
2D297
  8
0
 10
5924.8368371294272947
 20
287.8455536735182818
 30
0.0
 40
0.0111162574994572
 50
214.1260537806421098
 51
281.8829604474320831
  0
ARC
  5
2D298
  8
0
 10
5924.8460544969411785
 20
287.7896437435273924
 30
0.0
 40
0.0109389758327301
 50
96.4442372078482464
 51
165.4528734379289006
  0
LINE
  5
2D299
  8
0
 10
5924.8276350321439168
 20
287.8393172820759105
 30
0.0
 11
5924.8238646244790289
 21
287.8542062850332854
 31
0.0
  0
LINE
  5
2D29A
  8
0
 10
5924.8435326910848744
 20
287.8950140045845956
 30
0.0
 11
5924.8490022256646625
 21
287.8790817948665222
 31
0.0
  0
ARC
  5
2D29B
  8
0
 10
5924.8341428731228007
 20
287.8915743365091089
 30
0.0
 40
0.0099999998902948
 50
20.1187388504884801
 51
113.6842109976210935
  0
ARC
  5
2D29C
  8
0
 10
5924.8394843836877044
 20
287.8760262072415799
 30
0.0
 40
0.0099962958957931
 50
284.1879265645698069
 51
17.798596787368119
  0
LINE
  5
2D29D
  8
0
 10
5924.8301259188356198
 20
287.9007320696376269
 30
0.0
 11
5924.8205148479901254
 21
287.8965162630757959
 31
0.0
  0
LINE
  5
2D29E
  8
0
 10
5924.8419345067777613
 20
287.8663348281612002
 30
0.0
 11
5924.8317606193841129
 21
287.8637584499708169
 31
0.0
  0
ARC
  5
2D29F
  8
0
 10
5924.8164666165293966
 20
287.9068691855052862
 30
0.0
 40
0.0111162574994572
 50
223.5997379911792109
 51
291.3566446579400235
  0
ARC
  5
2D2A0
  8
0
 10
5924.8347972233068504
 20
287.8532087677755271
 30
0.0
 40
0.0109780124706348
 50
106.0578517262052003
 51
174.7866273406160076
  0
LINE
  5
2D2A1
  8
0
 10
5924.8084165001528163
 20
287.8992032348817247
 30
0.0
 11
5924.8022468665922133
 21
287.9132685825401836
 31
0.0
  0
LINE
  5
2D2A2
  8
0
 10
5924.8149299565247929
 20
287.9567569953501902
 30
0.0
 11
5924.8229472493130743
 21
287.9419423360097881
 31
0.0
  0
ARC
  5
2D2A3
  8
0
 10
5924.8062343541996597
 20
287.9518187266239124
 30
0.0
 40
0.0099999998902948
 50
29.5924230610116297
 51
123.1578952081463001
  0
ARC
  5
2D2A4
  8
0
 10
5924.8140621514867235
 20
287.9373618373169279
 30
0.0
 40
0.0099962958957931
 50
293.661610775108727
 51
27.2722809979086307
  0
LINE
  5
2D2A5
  8
0
 10
5924.8007648725997569
 20
287.9601903912636089
 30
0.0
 11
5924.7919787831860958
 21
287.9544501525402893
 31
0.0
  0
LINE
  5
2D2A6
  8
0
 10
5924.8180740066618455
 20
287.9282059130214861
 30
0.0
 11
5924.808462935742682
 21
287.923990106444478
 31
0.0
  0
ARC
  5
2D2A7
  8
0
 10
5924.7862817293007538
 20
287.9639955576030843
 30
0.0
 40
0.0111162574994572
 50
233.0734222016911872
 51
300.8303288684634822
  0
ARC
  5
2D2A8
  8
0
 10
5924.813194544964972
 20
287.914084116742174
 30
0.0
 40
0.0109780124706371
 50
115.5315359367450014
 51
184.2603115511224132
  0
LINE
  5
2D2A9
  8
0
 10
5924.7796031800226046
 20
287.9551091549478201
 30
0.0
 11
5924.7712026120861992
 21
287.9679671812888273
 31
0.0
  0
LINE
  5
2D2AA
  8
0
 10
5924.7765547637163763
 20
288.0129500368220192
 30
0.0
 11
5924.7869011238653911
 21
287.9996570331471162
 31
0.0
  0
ARC
  5
2D2AB
  8
0
 10
5924.7687905703887736
 20
288.0066478705426221
 30
0.0
 40
0.0099999998902948
 50
39.0661072715458104
 51
132.6315794186648134
  0
ARC
  5
2D2AC
  8
0
 10
5924.7788911324978471
 20
287.9936765674499952
 30
0.0
 40
0.0099962958957931
 50
303.1352949856511145
 51
36.7459652084234989
  0
LINE
  5
2D2AD
  8
0
 10
5924.7620177546796185
 20
288.0140051095052058
 30
0.0
 11
5924.7542963083151335
 21
288.0068970173692833
 31
0.0
  0
LINE
  5
2D2AE
  8
0
 10
5924.7843552868052939
 20
287.9853058476867886
 30
0.0
 11
5924.7755691973234207
 21
287.9795656089366958
 31
0.0
  0
ARC
  5
2D2AF
  8
0
 10
5924.7471058327828359
 20
288.0153745312983915
 30
0.0
 40
0.0111162574994572
 50
242.5471064122206997
 51
310.3040130789921136
  0
ARC
  5
2D2B0
  8
0
 10
5924.7818667458777782
 20
287.9705735213037201
 30
0.0
 40
0.0109780124706365
 50
125.0052201472787061
 51
193.7339957616426886
  0
LINE
  5
2D2B1
  8
0
 10
5924.7419810240162406
 20
288.005510074510596
 30
0.0
 11
5924.7315786672998001
 21
288.0168100460937808
 31
0.0
  0
ARC
  5
2D2B2
  8
0
 10
5924.7228328905093804
 20
288.054566172147986
 30
0.0
 40
0.0099999998902948
 50
48.5397914820873027
 51
142.1052636291740896
  0
ARC
  5
2D2B3
  8
0
 10
5924.7349307004333241
 20
288.0434342786045931
 30
0.0
 40
0.0099962958957931
 50
312.6089791961691162
 51
46.2196494189490608
  0
LINE
  5
2D2B4
  8
0
 10
5924.7149414854438874
 20
288.0607082991336938
 30
0.0
 11
5924.7084953030571342
 21
288.0524262438090091
 31
0.0
  0
LINE
  5
2D2B5
  8
0
 10
5924.7416981059859609
 20
288.0360770947876858
 30
0.0
 11
5924.7339766595587207
 21
288.0289690026140761
 31
0.0
  0
ARC
  5
2D2B6
  8
0
 10
5924.7000075433061284
 20
288.0596046221235724
 30
0.0
 40
0.0111162574994572
 50
252.0207906227288959
 51
319.7776972895155723
  0
ARC
  5
2D2B7
  8
0
 10
5924.7416683667388497
 20
288.0211360977602908
 30
0.0
 40
0.0109780124706408
 50
134.4789043578221026
 51
203.2076799721629072
  0
LINE
  5
2D2B8
  8
0
 10
5924.6965762664749491
 20
288.049031187869673
 30
0.0
 11
5924.6852921210220302
 21
288.0580056168191163
 31
0.0
  0
LINE
  5
2D2B9
  8
0
 10
5924.6749121181283044
 20
288.1027482720646162
 30
0.0
 11
5924.6890141151843636
 21
288.0935349776434009
 31
0.0
  0
ARC
  5
2D2BA
  8
0
 10
5924.6696149202589368
 20
288.0942665450858726
 30
0.0
 40
0.0099999998902948
 50
58.0134756925820767
 51
151.578947839718694
  0
ARC
  5
2D2BB
  8
0
 10
5924.6833799812811776
 20
288.085277710128878
 30
0.0
 40
0.0099962958957931
 50
322.0826634066868905
 51
55.6933336294878316
  0
LINE
  5
2D2BC
  8
0
 10
5924.6608201828003075
 20
288.0990260188818866
 30
0.0
 11
5924.6558250994403352
 21
288.0897959132479969
 31
0.0
  0
LINE
  5
2D2BD
  8
0
 10
5924.6912660408979718
 20
288.0791347470541837
 30
0.0
 11
5924.68481985845483
 21
288.0708526916820915
 31
0.0
  0
ARC
  5
2D2BE
  8
0
 10
5924.6462715794332325
 20
288.0954793485003052
 30
0.0
 40
0.0111162574994572
 50
261.4944748332638937
 51
329.2513815000646105
  0
ARC
  5
2D2BF
  8
0
 10
5924.6927112635503363
 20
288.0647105645551846
 30
0.0
 40
0.0099999999999989
 50
142.105263157881808
 51
222.1052631579021011
  0
LINE
  5
2D2C0
  8
0
 10
5924.6446274308236752
 20
288.0844853525039753
 30
0.0
 11
5924.6311196077122077
 21
288.0917954207538969
 31
0.0
  0
LINE
  5
2D2C1
  8
0
 10
5924.6144172117601556
 20
288.1339040040646182
 30
0.0
 11
5924.6298433343763463
 21
288.1271374793980726
 31
0.0
  0
ARC
  5
2D2C2
  8
0
 10
5924.6105883071422795
 20
288.1246660666739103
 30
0.0
 40
0.0099999998902948
 50
67.4871599031309586
 51
161.0526320502517024
  0
ARC
  5
2D2C3
  8
0
 10
5924.6256451442795878
 20
288.118065482288614
 30
0.0
 40
0.0099962958957931
 50
331.556347617219501
 51
65.1670178399955375
  0
LINE
  5
2D2C4
  8
0
 10
5924.6011301347989502
 20
288.127913061241884
 30
0.0
 11
5924.5977224033213133
 21
288.1179866785195145
 31
0.0
  0
LINE
  5
2D2C5
  8
0
 10
5924.6344347468129854
 20
288.1133043039753261
 30
0.0
 11
5924.6294396634093573
 21
288.1040741982856161
 31
0.0
  0
ARC
  5
2D2C6
  8
0
 10
5924.5873637181775848
 20
288.1220201414113831
 30
0.0
 40
0.0111162574994572
 50
270.968159043816172
 51
338.7250657105869891
  0
ARC
  5
2D2C7
  8
0
 10
5924.6392579527264388
 20
288.0991631950611236
 30
0.0
 40
0.0109780124706407
 50
153.4262727788521943
 51
222.1550483932363989
  0
LINE
  5
2D2C8
  8
0
 10
5924.5875515458792506
 20
288.1109054712242141
 30
0.0
 11
5924.5730247541805511
 21
288.1158925250605876
 31
0.0
  0
LINE
  5
2D2C9
  8
0
 10
5924.5496193121216493
 20
288.1546776781607946
 30
0.0
 11
5924.5659487758866817
 21
288.1505424964028066
 31
0.0
  0
ARC
  5
2D2CA
  8
0
 10
5924.5473631432923867
 20
288.1449355172085234
 30
0.0
 40
0.0099999998902948
 50
76.9608441136587516
 51
170.5263162607654124
  0
ARC
  5
2D2CB
  8
0
 10
5924.5633010452793314
 20
288.1409032301306752
 30
0.0
 40
0.0099962958957931
 50
341.0300318277355132
 51
74.6407020505451726
  0
LINE
  5
2D2CC
  8
0
 10
5924.5374995303509422
 20
288.1465814630009845
 30
0.0
 11
5924.5357721047857922
 21
288.1362295690346969
 31
0.0
  0
LINE
  5
2D2CD
  8
0
 10
5924.5727544332848993
 20
288.1376537091115893
 30
0.0
 11
5924.5693467017699732
 21
288.1277273263262941
 31
0.0
  0
ARC
  5
2D2CE
  8
0
 10
5924.5248908124349327
 20
288.1385030372130132
 30
0.0
 40
0.0111162574994572
 50
280.4418432543154722
 51
348.1987499211011823
  0
ARC
  5
2D2CF
  8
0
 10
5924.5798394069815913
 20
288.1244993400924272
 30
0.0
 40
0.0109780124706336
 50
162.899956989367098
 51
231.6287326037800938
  0
LINE
  5
2D2D0
  8
0
 10
5924.5269054929967751
 20
288.1275708720638136
 30
0.0
 11
5924.5117559857199012
 21
288.1300988776580994
 31
0.0
  0
ARC
  5
2D2D1
  8
0
 10
5924.4816640463632211
 20
288.1545219989178008
 30
0.0
 40
0.0099999998902948
 50
86.4345283241633666
 51
180.0000004712944985
  0
ARC
  5
2D2D2
  8
0
 10
5924.4980482687797121
 20
288.15316799942741
 30
0.0
 40
0.0099962958957931
 50
350.5037160382660204
 51
84.114386261057291
  0
LINE
  5
2D2D3
  8
0
 10
5924.4716640464730517
 20
288.1545219988242934
 30
0.0
 11
5924.4716640464876036
 21
288.1440269662958826
 31
0.0
  0
LINE
  5
2D2D4
  8
0
 10
5924.5079075784751694
 20
288.1515187741651971
 30
0.0
 11
5924.5061801528845535
 21
288.1411668801305836
 31
0.0
  0
ARC
  5
2D2D5
  8
0
 10
5924.4605569602190371
 20
288.1444784254753131
 30
0.0
 40
0.0111162574994572
 50
289.9155274648588829
 51
357.672434131632599
  0
ARC
  5
2D2D6
  8
0
 10
5924.5170610603454406
 20
288.139709961937001
 30
0.0
 40
0.0109780124706388
 50
172.3736411999080076
 51
241.1024168142816109
  0
LINE
  5
2D2D7
  8
0
 10
5924.4643435384068653
 20
288.1340269663313052
 30
0.0
 11
5924.4489845546177094
 21
288.1340269662809987
 31
0.0
  0
LINE
  5
2D2D8
  8
0
 10
5924.2788548988419279
 20
288.2431385803067201
 30
0.0
 11
5924.2828661609573828
 21
288.2330072885687855
 31
0.0
  0
LINE
  5
2D2D9
  8
0
 10
5924.312592601142569
 20
288.2541006242049093
 30
0.0
 11
5924.3153024456132698
 21
288.2435464765019901
 31
0.0
  0
LINE
  5
2D2DA
  8
0
 10
5924.2999584007593512
 20
288.2611692014320965
 30
0.0
 11
5924.2849213762256113
 21
288.2562833759307068
 31
0.0
  0
LINE
  5
2D2DB
  8
0
 10
5924.2772496416691865
 20
288.2200282782461045
 30
0.0
 11
5924.2667060982294061
 21
288.2159454374479992
 31
0.0
  0
ARC
  5
2D2DC
  8
0
 10
5924.2735683961518589
 20
288.2293260431047202
 30
0.0
 40
0.0099999999906408
 50
291.5999957954534239
 51
21.600000022502261
  0
ARC
  5
2D2DD
  8
0
 10
5924.2881526637020215
 20
288.2468198258492862
 30
0.0
 40
0.009999999944991
 50
108.8522443207901063
 51
201.6000000915520047
  0
ARC
  5
2D2DE
  8
0
 10
5924.3029067694424157
 20
288.2516137254049227
 30
0.0
 40
0.0100000000000013
 50
14.4000000003126907
 51
107.1477555441641982
  0
ARC
  5
2D2DF
  8
0
 10
5924.3249874765751883
 20
288.2460328141510786
 30
0.0
 40
0.0099990849401487
 50
194.3980261092387991
 51
276.909630842548097
  0
LINE
  5
2D2E0
  8
0
 10
5924.2188631591980084
 20
288.2169901434359076
 30
0.0
 11
5924.2241125788659701
 21
288.2074414844109924
 31
0.0
  0
LINE
  5
2D2E1
  8
0
 10
5924.2509609212311261
 20
288.2320942036661222
 30
0.0
 11
5924.2549721832274372
 21
288.2219629121403273
 31
0.0
  0
LINE
  5
2D2E2
  8
0
 10
5924.2375404176491429
 20
288.237523557863085
 30
0.0
 11
5924.2232343208552265
 21
288.2307916196469932
 31
0.0
  0
LINE
  5
2D2E3
  8
0
 10
5924.2201670488439049
 20
288.1938608809376205
 30
0.0
 11
5924.2102189575607554
 21
288.1884894987422854
 31
0.0
  0
ARC
  5
2D2E4
  8
0
 10
5924.2153495121128799
 20
288.2026239477390845
 30
0.0
 40
0.0099999999906408
 50
298.7999957954414754
 51
28.8000000225050492
  0
ARC
  5
2D2E5
  8
0
 10
5924.2276262259993018
 20
288.2218076801927964
 30
0.0
 40
0.009999999944991
 50
116.0522443208002983
 51
208.8000000915409942
  0
ARC
  5
2D2E6
  8
0
 10
5924.2416631562746261
 20
288.2284129581992147
 30
0.0
 40
0.0100000000000013
 50
21.6000000003009589
 51
114.3477555441802025
  0
ARC
  5
2D2E7
  8
0
 10
5924.2642699481129966
 20
288.2256441576010957
 30
0.0
 40
0.0100000000000021
 50
201.5999995929948057
 51
284.0999999954057103
  0
LINE
  5
2D2E8
  8
0
 10
5924.1626217404846102
 20
288.1835289360832917
 30
0.0
 11
5924.1690265312236079
 21
288.1747134978281792
 31
0.0
  0
LINE
  5
2D2E9
  8
0
 10
5924.1925733613688863
 20
288.2025368125928821
 30
0.0
 11
5924.1978227808940574
 21
288.192988153763622
 31
0.0
  0
LINE
  5
2D2EA
  8
0
 10
5924.1785782039487458
 20
288.2062413196006219
 30
0.0
 11
5924.1652286505859593
 21
288.1977694353570882
 31
0.0
  0
LINE
  5
2D2EB
  8
0
 10
5924.1668142138305484
 20
288.1607454754336004
 30
0.0
 11
5924.1576177789193025
 21
288.1541696217432218
 31
0.0
  0
ARC
  5
2D2EC
  8
0
 10
5924.160936361316999
 20
288.1688356453797155
 30
0.0
 40
0.0099999999906408
 50
305.9999957954653951
 51
36.0000000225001813
  0
ARC
  5
2D2ED
  8
0
 10
5924.1707119104266894
 20
288.1894067886219091
 30
0.0
 40
0.009999999944991
 50
123.252244320785195
 51
216.0000000915514136
  0
ARC
  5
2D2EE
  8
0
 10
5924.1838102944648199
 20
288.1977192758993169
 30
0.0
 40
0.0100000000000013
 50
28.8000000003115311
 51
121.5477555442079023
  0
ARC
  5
2D2EF
  8
0
 10
5924.2065852117702889
 20
288.1978049478004777
 30
0.0
 40
0.0099990849401515
 50
208.7980261092521914
 51
291.3096308425398888
  0
LINE
  5
2D2F0
  8
0
 10
5924.1110176034753749
 20
288.1432826614774854
 30
0.0
 11
5924.1184767579061372
 21
288.1353394687196783
 31
0.0
  0
LINE
  5
2D2F1
  8
0
 10
5924.1383507282544088
 20
288.1658945886993024
 30
0.0
 11
5924.1447555188260594
 21
288.1570791506204046
 31
0.0
  0
LINE
  5
2D2F2
  8
0
 10
5924.1240016289912091
 20
288.1678158262291731
 30
0.0
 11
5924.1118191494888379
 21
288.1577376026336879
 31
0.0
  0
LINE
  5
2D2F3
  8
0
 10
5924.1180325427103526
 20
288.1212043114610992
 30
0.0
 11
5924.109732797441211
 21
288.1135276914163796
 31
0.0
  0
ARC
  5
2D2F4
  8
0
 10
5924.1111870716613339
 20
288.1284939977388717
 30
0.0
 40
0.0099999999906408
 50
313.1999957954657816
 51
43.2000000225086467
  0
ARC
  5
2D2F5
  8
0
 10
5924.1183072897438251
 20
288.1501281325520267
 30
0.0
 40
0.009999999944991
 50
130.4522443207980018
 51
223.2000000915535054
  0
ARC
  5
2D2F6
  8
0
 10
5924.1302605582022807
 20
288.160016736210423
 30
0.0
 40
0.0100000000000013
 50
36.0000000003140599
 51
128.7477555442046082
  0
ARC
  5
2D2F7
  8
0
 10
5924.1528451509448132
 20
288.1629561865930214
 30
0.0
 40
0.009999084940149
 50
215.9980261092262026
 51
298.5096308425449934
  0
LINE
  5
2D2F8
  8
0
 10
5924.0648645762321394
 20
288.096886027411017
 30
0.0
 11
5924.0732604590366464
 21
288.089940349045321
 31
0.0
  0
LINE
  5
2D2F9
  8
0
 10
5924.0891481452035805
 20
288.1227454017450214
 30
0.0
 11
5924.0966072994488059
 21
288.1148022091409757
 31
0.0
  0
LINE
  5
2D2FA
  8
0
 10
5924.0746713979597189
 20
288.1228530707335835
 30
0.0
 11
5924.0638481173009495
 21
288.1113274473926253
 31
0.0
  0
LINE
  5
2D2FB
  8
0
 10
5924.0745913515756911
 20
288.0758609767967187
 30
0.0
 11
5924.0673191878913713
 21
288.0672046552817278
 31
0.0
  0
ARC
  5
2D2FC
  8
0
 10
5924.0668862191569133
 20
288.0822352166989049
 30
0.0
 40
0.0099999999906408
 50
320.3999957954421802
 51
50.4000000225176095
  0
ARC
  5
2D2FD
  8
0
 10
5924.0712388161227864
 20
288.1045911598533849
 30
0.0
 40
0.0099999999449909
 50
137.652244320786707
 51
230.4000000915656017
  0
ARC
  5
2D2FE
  8
0
 10
5924.081858458816896
 20
288.1158999307057798
 30
0.0
 40
0.0100000000000013
 50
43.2000000002975924
 51
135.9477555441928018
  0
ARC
  5
2D2FF
  8
0
 10
5924.1038965544803432
 20
288.1216468026814823
 30
0.0
 40
0.0099990849401505
 50
223.1980261092247133
 51
305.7096308425497
  0
LINE
  5
2D300
  8
0
 10
5924.0248905195703628
 20
288.0450707365191079
 30
0.0
 11
5924.0340907226600393
 21
288.0392321100425193
 31
0.0
  0
LINE
  5
2D301
  8
0
 10
5924.0457415663431675
 20
288.0737697401843889
 30
0.0
 11
5924.0541374489430382
 21
288.0668240619478979
 31
0.0
  0
LINE
  5
2D302
  8
0
 10
5924.0313654780738943
 20
288.0720621426274874
 30
0.0
 11
5924.0220720858578716
 21
288.0592708855061232
 31
0.0
  0
LINE
  5
2D303
  8
0
 10
5924.0371757339644319
 20
288.0254305629148917
 30
0.0
 11
5924.0310458382273282
 21
288.015931055290821
 31
0.0
  0
ARC
  5
2D304
  8
0
 10
5924.0287324547180106
 20
288.0307888308703923
 30
0.0
 40
0.0099999999906408
 50
327.5999957954563229
 51
57.6000000224926225
  0
ARC
  5
2D305
  8
0
 10
5924.0302487875105726
 20
288.0535140157879823
 30
0.0
 40
0.0099999999449909
 50
144.852244320804914
 51
237.6000000915493899
  0
ARC
  5
2D306
  8
0
 10
5924.0393673263315577
 20
288.0660646077624847
 30
0.0
 40
0.0100000000000013
 50
50.4000000002874415
 51
143.1477555441890956
  0
ARC
  5
2D307
  8
0
 10
5924.0605113709798388
 20
288.074528269727125
 30
0.0
 40
0.0099990849401516
 50
230.3980261092146122
 51
312.9096308425569077
  0
LINE
  5
2D308
  8
0
 10
5924.0088155393523266
 20
288.0197399794570856
 30
0.0
 11
5924.0180157422209959
 21
288.0139013530827015
 31
0.0
  0
LINE
  5
2D309
  8
0
 10
5923.994766829555374
 20
288.0162440451881025
 30
0.0
 11
5923.9871498881284424
 21
288.0023888800521945
 31
0.0
  0
ARC
  5
2D30A
  8
0
 10
5923.995983641145358
 20
287.9977022174296053
 30
0.0
 40
0.0099999999449909
 50
152.0522443208022878
 51
234.9825760349494033
  0
ARC
  5
2D30B
  8
0
 10
5924.0034572712884255
 20
288.0112967001934976
 30
0.0
 40
0.0100000000000013
 50
57.6000000003240871
 51
150.3477555441934896
  0
ARC
  5
2D30C
  8
0
 10
5924.0233738107062891
 20
288.0223436751418831
 30
0.0
 40
0.0099990849401543
 50
237.5980261092419994
 51
320.1096308425339885
  0
LINE
  5
2D30D
  8
0
 10
5924.4616654850005943
 20
288.2533007554707183
 30
0.0
 11
5924.4503602230479373
 21
288.2533863068970845
 31
0.0
  0
ARC
  5
2D30E
  8
0
 10
5924.4616616205339596
 20
288.2633100851368795
 30
0.0
 40
0.0100093304064698
 50
270.0221169723583898
 51
359.9446286524938046
  0
LINE
  5
2D30F
  8
0
 10
5924.4062606944862637
 20
288.2719694669058867
 30
0.0
 11
5924.407626385626827
 21
288.2611589080054273
 31
0.0
  0
LINE
  5
2D310
  8
0
 10
5924.4416646142899481
 20
288.2741968926588925
 30
0.0
 11
5924.441664614212641
 21
288.2633004119981024
 31
0.0
  0
LINE
  5
2D311
  8
0
 10
5924.4311852242180976
 20
288.284185395402119
 30
0.0
 11
5924.4154055600683932
 21
288.2831926230276736
 31
0.0
  0
LINE
  5
2D312
  8
0
 10
5924.3989585710078245
 20
288.2499844287063979
 30
0.0
 11
5924.3877317319884241
 21
288.2486523804976741
 31
0.0
  0
ARC
  5
2D313
  8
0
 10
5924.3977052386817377
 20
288.259905575716914
 30
0.0
 40
0.0099999999906406
 50
277.1999957954386105
 51
7.2000000225028407
  0
ARC
  5
2D314
  8
0
 10
5924.416181841505022
 20
288.2732227992564162
 30
0.0
 40
0.0099999999449908
 50
94.4522443208122695
 51
187.2000000915489011
  0
ARC
  5
2D315
  8
0
 10
5924.4316646142224272
 20
288.2741968927504104
 30
0.0
 40
0.0100000000000011
 50
0.0000000003061475
 51
92.747755544184713
  0
ARC
  5
2D316
  8
0
 10
5924.451663699148412
 20
288.2633000675206745
 30
0.0
 40
0.0099990849401495
 50
179.9980261092271121
 51
262.5096308425563052
  0
LINE
  5
2D317
  8
0
 10
5924.3416508538457492
 20
288.2615618702259894
 30
0.0
 11
5924.3443606984073995
 21
288.2510077222979135
 31
0.0
  0
LINE
  5
2D318
  8
0
 10
5924.3764964326946938
 20
288.2682090198114224
 30
0.0
 11
5924.3778621237743209
 21
288.2573984611454989
 31
0.0
  0
LINE
  5
2D319
  8
0
 10
5924.364847784396261
 20
288.2768053443833765
 30
0.0
 11
5924.3493169749835943
 21
288.2738426839833892
 31
0.0
  0
LINE
  5
2D31A
  8
0
 10
5924.3371617657203387
 20
288.2388349918717836
 30
0.0
 11
5924.3261904035871339
 21
288.236106351223782
 31
0.0
  0
ARC
  5
2D31B
  8
0
 10
5924.3346748668591317
 20
288.2485208234817264
 30
0.0
 40
0.0099999999906406
 50
284.3999957954387128
 51
14.4000000224998708
  0
ARC
  5
2D31C
  8
0
 10
5924.3513366854613196
 20
288.2640487691130033
 30
0.0
 40
0.0099999999449908
 50
101.6522443207824011
 51
194.4000000915523003
  0
ARC
  5
2D31D
  8
0
 10
5924.3665752856031759
 20
288.2669556875579246
 30
0.0
 40
0.0100000000000011
 50
7.2000000003072744
 51
99.9477555441656591
  0
ARC
  5
2D31E
  8
0
 10
5924.387782406110091
 20
288.2586513370318926
 30
0.0
 40
0.0099990849401504
 50
187.1980261092365083
 51
269.7096308425606139
  0
LINE
  5
2D31F
  8
0
 10
5924.6344806616370988
 20
288.2431385803067201
 30
0.0
 11
5924.6304693995225534
 21
288.2330072885687855
 31
0.0
  0
LINE
  5
2D320
  8
0
 10
5924.6007429593382767
 20
288.2541006242049093
 30
0.0
 11
5924.5980331148648474
 21
288.2435464765019901
 31
0.0
  0
LINE
  5
2D321
  8
0
 10
5924.613377159720585
 20
288.2611692014320965
 30
0.0
 11
5924.6284141842552344
 21
288.2562833759307068
 31
0.0
  0
LINE
  5
2D322
  8
0
 10
5924.6360859188098402
 20
288.2200282782461045
 30
0.0
 11
5924.6466294622496207
 21
288.2159454374479992
 31
0.0
  0
ARC
  5
2D323
  8
0
 10
5924.6397671643271678
 20
288.2293260431047202
 30
0.0
 40
0.0099999999906408
 50
158.3999999774977141
 51
248.4000042045466046
  0
ARC
  5
2D324
  8
0
 10
5924.6251828967770052
 20
288.2468198258492862
 30
0.0
 40
0.009999999944991
 50
338.3999999084480237
 51
71.1477556792099222
  0
ARC
  5
2D325
  8
0
 10
5924.6104287910366111
 20
288.2516137254049227
 30
0.0
 40
0.0100000000000013
 50
72.8522444558357734
 51
165.5999999996872987
  0
ARC
  5
2D326
  8
0
 10
5924.5883480839038384
 20
288.2460328141510786
 30
0.0
 40
0.0099990849401487
 50
263.0903691574517893
 51
345.6019738907612009
  0
LINE
  5
2D327
  8
0
 10
5924.6944724012819279
 20
288.2169901434359076
 30
0.0
 11
5924.6892229816130566
 21
288.2074414844109924
 31
0.0
  0
LINE
  5
2D328
  8
0
 10
5924.6623746392488101
 20
288.2320942036661222
 30
0.0
 11
5924.6583633772506801
 21
288.2219629121403273
 31
0.0
  0
LINE
  5
2D329
  8
0
 10
5924.6757951428289743
 20
288.237523557863085
 30
0.0
 11
5924.6901012396247097
 21
288.2307916196469932
 31
0.0
  0
LINE
  5
2D32A
  8
0
 10
5924.6931685116360313
 20
288.1938608809376205
 30
0.0
 11
5924.7031166029173619
 21
288.1884894987422854
 31
0.0
  0
ARC
  5
2D32B
  8
0
 10
5924.6979860483670564
 20
288.2026239477390845
 30
0.0
 40
0.0099999999906408
 50
151.199999977494997
 51
241.2000042045586099
  0
ARC
  5
2D32C
  8
0
 10
5924.6857093344824534
 20
288.2218076801927964
 30
0.0
 40
0.009999999944991
 50
331.1999999084591195
 51
63.9477556791996804
  0
ARC
  5
2D32D
  8
0
 10
5924.6716724042053102
 20
288.2284129581992147
 30
0.0
 40
0.0100000000000013
 50
65.6522444558198117
 51
158.3999999996989914
  0
ARC
  5
2D32E
  8
0
 10
5924.6490656123669396
 20
288.2256441576010957
 30
0.0
 40
0.0100000000000021
 50
255.9000000045942897
 51
338.4000004070052228
  0
LINE
  5
2D32F
  8
0
 10
5924.7507138199944166
 20
288.1835289360832917
 30
0.0
 11
5924.7443090292554189
 21
288.1747134978281792
 31
0.0
  0
LINE
  5
2D330
  8
0
 10
5924.72076219911105
 20
288.2025368125928821
 30
0.0
 11
5924.7155127795849694
 21
288.192988153763622
 31
0.0
  0
LINE
  5
2D331
  8
0
 10
5924.7347573565293715
 20
288.2062413196006219
 30
0.0
 11
5924.748106909893977
 21
288.1977694353570882
 31
0.0
  0
LINE
  5
2D332
  8
0
 10
5924.7465213466502973
 20
288.1607454754336004
 30
0.0
 11
5924.7557177815606337
 21
288.1541696217432218
 31
0.0
  0
ARC
  5
2D333
  8
0
 10
5924.7523991991620278
 20
288.1688356453797155
 30
0.0
 40
0.0099999999906408
 50
143.9999999774998116
 51
234.0000042045346049
  0
ARC
  5
2D334
  8
0
 10
5924.7426236500532468
 20
288.1894067886219091
 30
0.0
 40
0.009999999944991
 50
323.9999999084485012
 51
56.7477556792148192
  0
ARC
  5
2D335
  8
0
 10
5924.7295252660151164
 20
288.1977192758993169
 30
0.0
 40
0.0100000000000013
 50
58.452244455792048
 51
151.1999999996884014
  0
ARC
  5
2D336
  8
0
 10
5924.7067503487105569
 20
288.1978049478004777
 30
0.0
 40
0.0099990849401515
 50
248.6903691574601112
 51
331.2019738907478086
  0
LINE
  5
2D337
  8
0
 10
5924.8023179570063803
 20
288.1432826614774854
 30
0.0
 11
5924.7948588025728895
 21
288.1353394687196783
 31
0.0
  0
LINE
  5
2D338
  8
0
 10
5924.774984832224618
 20
288.1658945886993024
 30
0.0
 11
5924.7685800416538768
 21
288.1570791506204046
 31
0.0
  0
LINE
  5
2D339
  8
0
 10
5924.7893339314896366
 20
288.1678158262291731
 30
0.0
 11
5924.8015164109910984
 21
288.1577376026336879
 31
0.0
  0
LINE
  5
2D33A
  8
0
 10
5924.7953030177695837
 20
288.1212043114610992
 30
0.0
 11
5924.8036027630387252
 21
288.1135276914163796
 31
0.0
  0
ARC
  5
2D33B
  8
0
 10
5924.8021484888204213
 20
288.1284939977388717
 30
0.0
 40
0.0099999999906408
 50
136.7999999774912965
 51
226.80000420453419
  0
ARC
  5
2D33C
  8
0
 10
5924.7950282707352017
 20
288.1501281325520267
 30
0.0
 40
0.009999999944991
 50
316.7999999084440788
 51
49.5477556792019413
  0
ARC
  5
2D33D
  8
0
 10
5924.7830750022767461
 20
288.160016736210423
 30
0.0
 40
0.0100000000000013
 50
51.2522444557953705
 51
143.9999999996859117
  0
ARC
  5
2D33E
  8
0
 10
5924.7604904095342135
 20
288.1629561865930214
 30
0.0
 40
0.009999084940149
 50
241.4903691574550919
 51
324.0019738907736837
  0
LINE
  5
2D33F
  8
0
 10
5924.8484709842468874
 20
288.096886027411017
 30
0.0
 11
5924.8400751014423804
 21
288.089940349045321
 31
0.0
  0
LINE
  5
2D340
  8
0
 10
5924.8241874152754463
 20
288.1227454017450214
 30
0.0
 11
5924.8167282610311304
 21
288.1148022091409757
 31
0.0
  0
LINE
  5
2D341
  8
0
 10
5924.8386641625193079
 20
288.1228530707335835
 30
0.0
 11
5924.8494874431789867
 21
288.1113274473926253
 31
0.0
  0
LINE
  5
2D342
  8
0
 10
5924.8387442089033357
 20
288.0758609767967187
 30
0.0
 11
5924.846016372588565
 21
288.0672046552817278
 31
0.0
  0
ARC
  5
2D343
  8
0
 10
5924.8464493413221135
 20
288.0822352166989049
 30
0.0
 40
0.0099999999906408
 50
129.5999999774824119
 51
219.6000042045577914
  0
ARC
  5
2D344
  8
0
 10
5924.8420967443562404
 20
288.1045911598533849
 30
0.0
 40
0.0099999999449909
 50
309.5999999084344267
 51
42.3477556792132503
  0
ARC
  5
2D345
  8
0
 10
5924.8314771016621307
 20
288.1158999307057798
 30
0.0
 40
0.0100000000000013
 50
44.0522444558071626
 51
136.7999999997024076
  0
ARC
  5
2D346
  8
0
 10
5924.8094390059995931
 20
288.1216468026814823
 30
0.0
 40
0.0099990849401505
 50
234.2903691574503
 51
316.8019738907752867
  0
LINE
  5
2D347
  8
0
 10
5924.8884450409095734
 20
288.0450707365191079
 30
0.0
 11
5924.8792448378198969
 21
288.0392321100425193
 31
0.0
  0
LINE
  5
2D348
  8
0
 10
5924.8675939941367687
 20
288.0737697401843889
 30
0.0
 11
5924.8591981115368981
 21
288.0668240619478979
 31
0.0
  0
LINE
  5
2D349
  8
0
 10
5924.8819700824060419
 20
288.0720621426274874
 30
0.0
 11
5924.8912634746238837
 21
288.0592708855061232
 31
0.0
  0
LINE
  5
2D34A
  8
0
 10
5924.8761598265164139
 20
288.0254305629148917
 30
0.0
 11
5924.8822897222516985
 21
288.015931055290821
 31
0.0
  0
ARC
  5
2D34B
  8
0
 10
5924.8846031057628352
 20
288.0307888308703923
 30
0.0
 40
0.0099999999906408
 50
122.3999999775074059
 51
212.4000042045437056
  0
ARC
  5
2D34C
  8
0
 10
5924.8830867729684542
 20
288.0535140157879823
 30
0.0
 40
0.0099999999449909
 50
302.3999999084505816
 51
35.1477556791951073
  0
ARC
  5
2D34D
  8
0
 10
5924.8739682341465596
 20
288.0660646077624847
 30
0.0
 40
0.0100000000000013
 50
36.8522444558109328
 51
129.599999999712594
  0
ARC
  5
2D34E
  8
0
 10
5924.8528241895000974
 20
288.074528269727125
 30
0.0
 40
0.0099990849401516
 50
227.0903691574430923
 51
309.6019738907854162
  0
LINE
  5
2D34F
  8
0
 10
5924.9045200211276097
 20
288.0197399794570856
 30
0.0
 11
5924.8953198182580309
 21
288.0139013530827015
 31
0.0
  0
LINE
  5
2D350
  8
0
 10
5924.9185687309245623
 20
288.0162440451881025
 30
0.0
 11
5924.9261856723533128
 21
288.0023888800521945
 31
0.0
  0
ARC
  5
2D351
  8
0
 10
5924.9173519193363973
 20
287.9977022174296053
 30
0.0
 40
0.0099999999449909
 50
305.0174239650505115
 51
27.9477556791976305
  0
ARC
  5
2D352
  8
0
 10
5924.9098782891924202
 20
288.0112967001934976
 30
0.0
 40
0.0100000000000013
 50
29.6522444558064215
 51
122.3999999996758987
  0
ARC
  5
2D353
  8
0
 10
5924.8899617497727377
 20
288.0223436751418831
 30
0.0
 40
0.0099990849401543
 50
219.8903691574660115
 51
302.4019738907579722
  0
LINE
  5
2D354
  8
0
 10
5924.5070748659918536
 20
288.2719694669058867
 30
0.0
 11
5924.5057091748531093
 21
288.2611589080054273
 31
0.0
  0
LINE
  5
2D355
  8
0
 10
5924.4716709461890787
 20
288.2741968926588925
 30
0.0
 11
5924.4716709462672952
 21
288.2633004119981024
 31
0.0
  0
LINE
  5
2D356
  8
0
 10
5924.4821503362618387
 20
288.284185395402119
 30
0.0
 11
5924.4979300004124525
 21
288.2831926230276736
 31
0.0
  0
LINE
  5
2D357
  8
0
 10
5924.5143769894712023
 20
288.2499844287063979
 30
0.0
 11
5924.5256038284933311
 21
288.2486523804976741
 31
0.0
  0
ARC
  5
2D358
  8
0
 10
5924.5156303217972891
 20
288.259905575716914
 30
0.0
 40
0.0099999999906406
 50
172.7999999774970945
 51
262.8000042045615032
  0
ARC
  5
2D359
  8
0
 10
5924.4971537189740047
 20
288.2732227992564162
 30
0.0
 40
0.0099999999449908
 50
352.7999999084510137
 51
85.5477556791877163
  0
ARC
  5
2D35A
  8
0
 10
5924.4816709462565996
 20
288.2741968927504104
 30
0.0
 40
0.0100000000000011
 50
87.252244455815287
 51
179.9999999996938129
  0
LINE
  5
2D35B
  8
0
 10
5924.571684706634187
 20
288.2615618702259894
 30
0.0
 11
5924.5689748620716273
 21
288.2510077222979135
 31
0.0
  0
LINE
  5
2D35C
  8
0
 10
5924.536839127784333
 20
288.2682090198114224
 30
0.0
 11
5924.5354734367047058
 21
288.2573984611454989
 31
0.0
  0
LINE
  5
2D35D
  8
0
 10
5924.5484877760836753
 20
288.2768053443833765
 30
0.0
 11
5924.564018585496342
 21
288.2738426839833892
 31
0.0
  0
LINE
  5
2D35E
  8
0
 10
5924.576173794758688
 20
288.2388349918717836
 30
0.0
 11
5924.5871451568928023
 21
288.236106351223782
 31
0.0
  0
ARC
  5
2D35F
  8
0
 10
5924.578660693621714
 20
288.2485208234817264
 30
0.0
 40
0.0099999999906406
 50
165.5999999775000902
 51
255.600004204561202
  0
ARC
  5
2D360
  8
0
 10
5924.5619988750177072
 20
288.2640487691130033
 30
0.0
 40
0.0099999999449908
 50
345.5999999084477281
 51
78.3477556792175562
  0
ARC
  5
2D361
  8
0
 10
5924.5467602748767604
 20
288.2669556875579246
 30
0.0
 40
0.0100000000000011
 50
80.0522444558343267
 51
172.7999999996926874
  0
ARC
  5
2D362
  8
0
 10
5924.5255531543680263
 20
288.2586513370318926
 30
0.0
 40
0.0099990849401504
 50
270.2903691574392724
 51
352.8019738907635201
  0
LINE
  5
2D363
  8
0
 10
5924.4822859369987782
 20
288.1645026426767231
 30
0.0
 11
5924.499073316709655
 21
288.1631116008060189
 31
0.0
  0
LINE
  5
2D364
  8
0
 10
5924.7418470936563608
 20
288.0506515797915199
 30
0.0
 11
5924.729453887879572
 21
288.0620603293128283
 31
0.0
  0
LINE
  5
2D365
  8
0
 10
5924.2788548988419279
 20
287.2634602447030261
 30
0.0
 11
5924.2828661609573828
 21
287.2735915364410175
 31
0.0
  0
LINE
  5
2D366
  8
0
 10
5924.312592601142569
 20
287.2524982008048937
 30
0.0
 11
5924.3153024456132698
 21
287.2630523485078129
 31
0.0
  0
LINE
  5
2D367
  8
0
 10
5924.2999584007593512
 20
287.2454296235775928
 30
0.0
 11
5924.2849213762256113
 21
287.2503154490790962
 31
0.0
  0
LINE
  5
2D368
  8
0
 10
5924.2772496416691865
 20
287.2865705467638122
 30
0.0
 11
5924.2667060982294061
 21
287.2906533875616901
 31
0.0
  0
ARC
  5
2D369
  8
0
 10
5924.2735683961518589
 20
287.277272781905026
 30
0.0
 40
0.0099999999906408
 50
338.3999999774977141
 51
68.400004204546633
  0
ARC
  5
2D36A
  8
0
 10
5924.2881526637020215
 20
287.2597789991605168
 30
0.0
 40
0.009999999944991
 50
158.3999999084479953
 51
251.1477556792098937
  0
ARC
  5
2D36B
  8
0
 10
5924.3029067694424157
 20
287.2549850996048804
 30
0.0
 40
0.0100000000000013
 50
252.8522444558358018
 51
345.5999999996873271
  0
ARC
  5
2D36C
  8
0
 10
5924.3249874765751883
 20
287.2605660108587244
 30
0.0
 40
0.0099990849401487
 50
83.0903691574518461
 51
165.6019738907612009
  0
LINE
  5
2D36D
  8
0
 10
5924.2188631591980084
 20
287.2896086815738954
 30
0.0
 11
5924.2241125788659701
 21
287.2991573405988106
 31
0.0
  0
LINE
  5
2D36E
  8
0
 10
5924.2509609212311261
 20
287.2745046213436808
 30
0.0
 11
5924.2549721832274372
 21
287.2846359128694758
 31
0.0
  0
LINE
  5
2D36F
  8
0
 10
5924.2375404176491429
 20
287.269075267146718
 30
0.0
 11
5924.2232343208552265
 21
287.2758072053626961
 31
0.0
  0
LINE
  5
2D370
  8
0
 10
5924.2201670488439049
 20
287.3127379440721825
 30
0.0
 11
5924.2102189575607554
 21
287.3181093262675176
 31
0.0
  0
ARC
  5
2D371
  8
0
 10
5924.2153495121128799
 20
287.3039748772707185
 30
0.0
 40
0.0099999999906408
 50
331.199999977494997
 51
61.2000042045585531
  0
ARC
  5
2D372
  8
0
 10
5924.2276262259993018
 20
287.2847911448170066
 30
0.0
 40
0.009999999944991
 50
151.1999999084590058
 51
243.9477556791997017
  0
ARC
  5
2D373
  8
0
 10
5924.2416631562746261
 20
287.2781858668104746
 30
0.0
 40
0.0100000000000013
 50
245.6522444558198117
 51
338.399999999699105
  0
ARC
  5
2D374
  8
0
 10
5924.2642699481129966
 20
287.2809546674087073
 30
0.0
 40
0.0100000000000021
 50
75.9000000045943466
 51
158.4000004070051943
  0
LINE
  5
2D375
  8
0
 10
5924.1626217404846102
 20
287.3230698889265113
 30
0.0
 11
5924.1690265312236079
 21
287.3318853271816238
 31
0.0
  0
LINE
  5
2D376
  8
0
 10
5924.1925733613688863
 20
287.3040620124168072
 30
0.0
 11
5924.1978227808940574
 21
287.3136106712461242
 31
0.0
  0
LINE
  5
2D377
  8
0
 10
5924.1785782039487458
 20
287.3003575054091812
 30
0.0
 11
5924.1652286505859593
 21
287.3088293896526011
 31
0.0
  0
LINE
  5
2D378
  8
0
 10
5924.1668142138305484
 20
287.3458533495762026
 30
0.0
 11
5924.1576177789193025
 21
287.3524292032665812
 31
0.0
  0
ARC
  5
2D379
  8
0
 10
5924.160936361316999
 20
287.3377631796300875
 30
0.0
 40
0.0099999999906408
 50
323.9999999774997832
 51
54.0000042045346333
  0
ARC
  5
2D37A
  8
0
 10
5924.1707119104266894
 20
287.3171920363878939
 30
0.0
 40
0.009999999944991
 50
143.9999999084485864
 51
236.747755679214805
  0
ARC
  5
2D37B
  8
0
 10
5924.1838102944648199
 20
287.3088795491104861
 30
0.0
 40
0.0100000000000013
 50
238.4522444557921119
 51
331.1999999996884867
  0
ARC
  5
2D37C
  8
0
 10
5924.2065852117702889
 20
287.3087938772093253
 30
0.0
 40
0.0099990849401515
 50
68.6903691574600685
 51
151.2019738907478086
  0
LINE
  5
2D37D
  8
0
 10
5924.1110176034753749
 20
287.3633161635323177
 30
0.0
 11
5924.1184767579061372
 21
287.3712593562901247
 31
0.0
  0
LINE
  5
2D37E
  8
0
 10
5924.1383507282544088
 20
287.3407042363105006
 30
0.0
 11
5924.1447555188260594
 21
287.3495196743893985
 31
0.0
  0
LINE
  5
2D37F
  8
0
 10
5924.1240016289912091
 20
287.3387829987805731
 30
0.0
 11
5924.1118191494888379
 21
287.3488612223761152
 31
0.0
  0
LINE
  5
2D380
  8
0
 10
5924.1180325427103526
 20
287.3853945135485901
 30
0.0
 11
5924.109732797441211
 21
287.3930711335933097
 31
0.0
  0
ARC
  5
2D381
  8
0
 10
5924.1111870716613339
 20
287.3781048272708745
 30
0.0
 40
0.0099999999906408
 50
316.7999999774913249
 51
46.8000042045341971
  0
ARC
  5
2D382
  8
0
 10
5924.1183072897438251
 20
287.3564706924577195
 30
0.0
 40
0.009999999944991
 50
136.7999999084464946
 51
229.5477556792019982
  0
ARC
  5
2D383
  8
0
 10
5924.1302605582022807
 20
287.34658208879938
 30
0.0
 40
0.0100000000000013
 50
231.2522444557953065
 51
323.999999999685997
  0
ARC
  5
2D384
  8
0
 10
5924.1528451509448132
 20
287.3436426384167248
 30
0.0
 40
0.009999084940149
 50
61.4903691574550422
 51
144.0019738907737974
  0
LINE
  5
2D385
  8
0
 10
5924.0648645762321394
 20
287.4097127975986723
 30
0.0
 11
5924.0732604590366464
 21
287.416658475964482
 31
0.0
  0
LINE
  5
2D386
  8
0
 10
5924.0891481452035805
 20
287.3838534232647248
 30
0.0
 11
5924.0966072994488059
 21
287.3917966158688273
 31
0.0
  0
LINE
  5
2D387
  8
0
 10
5924.0746713979597189
 20
287.3837457542762195
 30
0.0
 11
5924.0638481173009495
 21
287.3952713776171777
 31
0.0
  0
LINE
  5
2D388
  8
0
 10
5924.0745913515756911
 20
287.4307378482130844
 30
0.0
 11
5924.0673191878913713
 21
287.4393941697280752
 31
0.0
  0
ARC
  5
2D389
  8
0
 10
5924.0668862191569133
 20
287.4243636083107845
 30
0.0
 40
0.0099999999906408
 50
309.5999999774824119
 51
39.6000042045577487
  0
ARC
  5
2D38A
  8
0
 10
5924.0712388161227864
 20
287.4020076651564182
 30
0.0
 40
0.0099999999449909
 50
129.5999999084343131
 51
222.3477556792132077
  0
ARC
  5
2D38B
  8
0
 10
5924.081858458816896
 20
287.3906988943040233
 30
0.0
 40
0.0100000000000013
 50
224.0522444558071982
 51
316.7999999997023792
  0
ARC
  5
2D38C
  8
0
 10
5924.1038965544803432
 20
287.3849520223283207
 30
0.0
 40
0.0099990849401505
 50
54.2903691574503284
 51
136.8019738907752867
  0
LINE
  5
2D38D
  8
0
 10
5924.0248905195703628
 20
287.4615280884905815
 30
0.0
 11
5924.0340907226600393
 21
287.4673667149672838
 31
0.0
  0
LINE
  5
2D38E
  8
0
 10
5924.0457415663431675
 20
287.4328290848253005
 30
0.0
 11
5924.0541374489430382
 21
287.4397747630620188
 31
0.0
  0
LINE
  5
2D38F
  8
0
 10
5924.0313654780738943
 20
287.4345366823823156
 30
0.0
 11
5924.0220720858578716
 21
287.4473279395036798
 31
0.0
  0
LINE
  5
2D390
  8
0
 10
5924.0371757339644319
 20
287.4811682620949114
 30
0.0
 11
5924.0310458382273282
 21
287.4906677697189252
 31
0.0
  0
ARC
  5
2D391
  8
0
 10
5924.0287324547180106
 20
287.4758099941394107
 30
0.0
 40
0.0099999999906408
 50
302.3999999775073775
 51
32.4000042045437411
  0
ARC
  5
2D392
  8
0
 10
5924.0302487875105726
 20
287.4530848092218207
 30
0.0
 40
0.0099999999449909
 50
122.3999999084505959
 51
215.147755679195086
  0
ARC
  5
2D393
  8
0
 10
5924.0393673263315577
 20
287.4405342172472047
 30
0.0
 40
0.0100000000000013
 50
216.8522444558109044
 51
309.5999999997126224
  0
ARC
  5
2D394
  8
0
 10
5924.0605113709798388
 20
287.432070555282678
 30
0.0
 40
0.0099990849401516
 50
47.0903691574430781
 51
129.6019738907853878
  0
LINE
  5
2D395
  8
0
 10
5924.0088155393523266
 20
287.4868588455527174
 30
0.0
 11
5924.0180157422209959
 21
287.4926974719271016
 31
0.0
  0
LINE
  5
2D396
  8
0
 10
5923.994766829555374
 20
287.4903547798218142
 30
0.0
 11
5923.9871498881284424
 21
287.5042099449574948
 31
0.0
  0
ARC
  5
2D397
  8
0
 10
5923.995983641145358
 20
287.5088966075801977
 30
0.0
 40
0.0099999999449909
 50
125.0174239650504973
 51
207.9477556791975985
  0
ARC
  5
2D398
  8
0
 10
5924.0034572712884255
 20
287.4953021248161917
 30
0.0
 40
0.0100000000000013
 50
209.6522444558063967
 51
302.3999999996759129
  0
ARC
  5
2D399
  8
0
 10
5924.0233738107062891
 20
287.48425514986792
 30
0.0
 40
0.0099990849401543
 50
39.8903691574660328
 51
122.4019738907580006
  0
LINE
  5
2D39A
  8
0
 10
5924.4616654850005943
 20
287.2532980695391984
 30
0.0
 11
5924.4503602230479373
 21
287.2532125181127185
 31
0.0
  0
ARC
  5
2D39B
  8
0
 10
5924.4616616205339596
 20
287.2432887398729804
 30
0.0
 40
0.0100093304064698
 50
0.0553713475062134
 51
89.9778830276415391
  0
LINE
  5
2D39C
  8
0
 10
5924.4062606944862637
 20
287.2346293581038026
 30
0.0
 11
5924.407626385626827
 21
287.2454399170043757
 31
0.0
  0
LINE
  5
2D39D
  8
0
 10
5924.4416646142899481
 20
287.2324019323509106
 30
0.0
 11
5924.441664614212641
 21
287.2432984130115869
 31
0.0
  0
LINE
  5
2D39E
  8
0
 10
5924.4311852242180976
 20
287.2224134296076841
 30
0.0
 11
5924.4154055600683932
 21
287.2234062019820726
 31
0.0
  0
LINE
  5
2D39F
  8
0
 10
5924.3989585710078245
 20
287.2566143963032914
 30
0.0
 11
5924.3877317319884241
 21
287.2579464445120152
 31
0.0
  0
ARC
  5
2D3A0
  8
0
 10
5924.3977052386817377
 20
287.246693249292889
 30
0.0
 40
0.0099999999906406
 50
352.7999999774971798
 51
82.800004204561418
  0
ARC
  5
2D3A1
  8
0
 10
5924.416181841505022
 20
287.2333760257533868
 30
0.0
 40
0.0099999999449908
 50
172.7999999084510137
 51
265.5477556791876736
  0
ARC
  5
2D3A2
  8
0
 10
5924.4316646142224272
 20
287.2324019322593927
 30
0.0
 40
0.0100000000000011
 50
267.252244455815287
 51
359.9999999996937845
  0
ARC
  5
2D3A3
  8
0
 10
5924.451663699148412
 20
287.2432987574890717
 30
0.0
 40
0.0099990849401495
 50
97.4903691574437232
 51
180.0019738907728026
  0
LINE
  5
2D3A4
  8
0
 10
5924.3416508538457492
 20
287.2450369547838136
 30
0.0
 11
5924.3443606984073995
 21
287.2555911027118896
 31
0.0
  0
LINE
  5
2D3A5
  8
0
 10
5924.3764964326946938
 20
287.2383898051983806
 30
0.0
 11
5924.3778621237743209
 21
287.2492003638641904
 31
0.0
  0
LINE
  5
2D3A6
  8
0
 10
5924.364847784396261
 20
287.2297934806264266
 30
0.0
 11
5924.3493169749835943
 21
287.2327561410264138
 31
0.0
  0
LINE
  5
2D3A7
  8
0
 10
5924.3371617657203387
 20
287.2677638331380194
 30
0.0
 11
5924.3261904035871339
 21
287.270492473786021
 31
0.0
  0
ARC
  5
2D3A8
  8
0
 10
5924.3346748668591317
 20
287.2580780015280766
 30
0.0
 40
0.0099999999906406
 50
345.5999999775002038
 51
75.6000042045612304
  0
ARC
  5
2D3A9
  8
0
 10
5924.3513366854613196
 20
287.2425500558967997
 30
0.0
 40
0.0099999999449908
 50
165.5999999084476997
 51
258.3477556792175278
  0
ARC
  5
2D3AA
  8
0
 10
5924.3665752856031759
 20
287.2396431374518215
 30
0.0
 40
0.0100000000000011
 50
260.0522444558342841
 51
352.7999999996927158
  0
ARC
  5
2D3AB
  8
0
 10
5924.387782406110091
 20
287.2479474879777968
 30
0.0
 40
0.0099990849401504
 50
90.2903691574393008
 51
172.8019738907634064
  0
LINE
  5
2D3AC
  8
0
 10
5924.6344806616370988
 20
287.2634602447030261
 30
0.0
 11
5924.6304693995225534
 21
287.2735915364410175
 31
0.0
  0
LINE
  5
2D3AD
  8
0
 10
5924.6007429593382767
 20
287.2524982008048937
 30
0.0
 11
5924.5980331148648474
 21
287.2630523485078129
 31
0.0
  0
LINE
  5
2D3AE
  8
0
 10
5924.613377159720585
 20
287.2454296235775928
 30
0.0
 11
5924.6284141842552344
 21
287.2503154490790962
 31
0.0
  0
LINE
  5
2D3AF
  8
0
 10
5924.6360859188098402
 20
287.2865705467638122
 30
0.0
 11
5924.6466294622496207
 21
287.2906533875616901
 31
0.0
  0
ARC
  5
2D3B0
  8
0
 10
5924.6397671643271678
 20
287.277272781905026
 30
0.0
 40
0.0099999999906408
 50
111.599995795453296
 51
201.6000000225022859
  0
ARC
  5
2D3B1
  8
0
 10
5924.6251828967770052
 20
287.2597789991605168
 30
0.0
 40
0.009999999944991
 50
288.852244320790021
 51
21.6000000915520012
  0
ARC
  5
2D3B2
  8
0
 10
5924.6104287910366111
 20
287.2549850996048804
 30
0.0
 40
0.0100000000000013
 50
194.4000000003127013
 51
287.1477555441642835
  0
ARC
  5
2D3B3
  8
0
 10
5924.5883480839038384
 20
287.2605660108587244
 30
0.0
 40
0.0099990849401487
 50
14.3980261092387902
 51
96.9096308425481539
  0
LINE
  5
2D3B4
  8
0
 10
5924.6944724012819279
 20
287.2896086815738954
 30
0.0
 11
5924.6892229816130566
 21
287.2991573405988106
 31
0.0
  0
LINE
  5
2D3B5
  8
0
 10
5924.6623746392488101
 20
287.2745046213436808
 30
0.0
 11
5924.6583633772506801
 21
287.2846359128694758
 31
0.0
  0
LINE
  5
2D3B6
  8
0
 10
5924.6757951428289743
 20
287.269075267146718
 30
0.0
 11
5924.6901012396247097
 21
287.2758072053626961
 31
0.0
  0
LINE
  5
2D3B7
  8
0
 10
5924.6931685116360313
 20
287.3127379440721825
 30
0.0
 11
5924.7031166029173619
 21
287.3181093262675176
 31
0.0
  0
ARC
  5
2D3B8
  8
0
 10
5924.6979860483670564
 20
287.3039748772707185
 30
0.0
 40
0.0099999999906408
 50
118.7999957954414043
 51
208.800000022505003
  0
ARC
  5
2D3B9
  8
0
 10
5924.6857093344824534
 20
287.2847911448170066
 30
0.0
 40
0.009999999944991
 50
296.0522443208002983
 51
28.8000000915409515
  0
ARC
  5
2D3BA
  8
0
 10
5924.6716724042053102
 20
287.2781858668104746
 30
0.0
 40
0.0100000000000013
 50
201.600000000300895
 51
294.3477555441801883
  0
ARC
  5
2D3BB
  8
0
 10
5924.6490656123669396
 20
287.2809546674087073
 30
0.0
 40
0.0100000000000021
 50
21.5999995929947985
 51
104.0999999954055966
  0
LINE
  5
2D3BC
  8
0
 10
5924.7507138199944166
 20
287.3230698889265113
 30
0.0
 11
5924.7443090292554189
 21
287.3318853271816238
 31
0.0
  0
LINE
  5
2D3BD
  8
0
 10
5924.72076219911105
 20
287.3040620124168072
 30
0.0
 11
5924.7155127795849694
 21
287.3136106712461242
 31
0.0
  0
LINE
  5
2D3BE
  8
0
 10
5924.7347573565293715
 20
287.3003575054091812
 30
0.0
 11
5924.748106909893977
 21
287.3088293896526011
 31
0.0
  0
LINE
  5
2D3BF
  8
0
 10
5924.7465213466502973
 20
287.3458533495762026
 30
0.0
 11
5924.7557177815606337
 21
287.3524292032665812
 31
0.0
  0
ARC
  5
2D3C0
  8
0
 10
5924.7523991991620278
 20
287.3377631796300875
 30
0.0
 40
0.0099999999906408
 50
125.9999957954652956
 51
216.0000000225001884
  0
ARC
  5
2D3C1
  8
0
 10
5924.7426236500532468
 20
287.3171920363878939
 30
0.0
 40
0.009999999944991
 50
303.2522443207852234
 51
36.000000091551442
  0
ARC
  5
2D3C2
  8
0
 10
5924.7295252660151164
 20
287.3088795491104861
 30
0.0
 40
0.0100000000000013
 50
208.8000000003115133
 51
301.5477555442079165
  0
ARC
  5
2D3C3
  8
0
 10
5924.7067503487105569
 20
287.3087938772093253
 30
0.0
 40
0.0099990849401515
 50
28.7980261092521914
 51
111.309630842539903
  0
LINE
  5
2D3C4
  8
0
 10
5924.8023179570063803
 20
287.3633161635323177
 30
0.0
 11
5924.7948588025728895
 21
287.3712593562901247
 31
0.0
  0
LINE
  5
2D3C5
  8
0
 10
5924.774984832224618
 20
287.3407042363105006
 30
0.0
 11
5924.7685800416538768
 21
287.3495196743893985
 31
0.0
  0
LINE
  5
2D3C6
  8
0
 10
5924.7893339314896366
 20
287.3387829987805731
 30
0.0
 11
5924.8015164109910984
 21
287.3488612223761152
 31
0.0
  0
LINE
  5
2D3C7
  8
0
 10
5924.7953030177695837
 20
287.3853945135485901
 30
0.0
 11
5924.8036027630387252
 21
287.3930711335933097
 31
0.0
  0
ARC
  5
2D3C8
  8
0
 10
5924.8021484888204213
 20
287.3781048272708745
 30
0.0
 40
0.0099999999906408
 50
133.19999579546581
 51
223.2000000225085898
  0
ARC
  5
2D3C9
  8
0
 10
5924.7950282707352017
 20
287.3564706924577195
 30
0.0
 40
0.009999999944991
 50
310.4522443207981155
 51
43.2000000915534628
  0
ARC
  5
2D3CA
  8
0
 10
5924.7830750022767461
 20
287.34658208879938
 30
0.0
 40
0.0100000000000013
 50
216.0000000003140883
 51
308.7477555442047219
  0
ARC
  5
2D3CB
  8
0
 10
5924.7604904095342135
 20
287.3436426384167248
 30
0.0
 40
0.009999084940149
 50
35.998026109226231
 51
118.5096308425449934
  0
LINE
  5
2D3CC
  8
0
 10
5924.8484709842468874
 20
287.4097127975986723
 30
0.0
 11
5924.8400751014423804
 21
287.416658475964482
 31
0.0
  0
LINE
  5
2D3CD
  8
0
 10
5924.8241874152754463
 20
287.3838534232647248
 30
0.0
 11
5924.8167282610311304
 21
287.3917966158688273
 31
0.0
  0
LINE
  5
2D3CE
  8
0
 10
5924.8386641625193079
 20
287.3837457542762195
 30
0.0
 11
5924.8494874431789867
 21
287.3952713776171777
 31
0.0
  0
LINE
  5
2D3CF
  8
0
 10
5924.8387442089033357
 20
287.4307378482130844
 30
0.0
 11
5924.846016372588565
 21
287.4393941697280752
 31
0.0
  0
ARC
  5
2D3D0
  8
0
 10
5924.8464493413221135
 20
287.4243636083107845
 30
0.0
 40
0.0099999999906408
 50
140.3999957954422086
 51
230.4000000225177018
  0
ARC
  5
2D3D1
  8
0
 10
5924.8420967443562404
 20
287.4020076651564182
 30
0.0
 40
0.0099999999449909
 50
317.6522443207867923
 51
50.4000000915656372
  0
ARC
  5
2D3D2
  8
0
 10
5924.8314771016621307
 20
287.3906988943040233
 30
0.0
 40
0.0100000000000013
 50
223.2000000002975924
 51
315.9477555441927734
  0
ARC
  5
2D3D3
  8
0
 10
5924.8094390059995931
 20
287.3849520223283207
 30
0.0
 40
0.0099990849401505
 50
43.1980261092247204
 51
125.7096308425496005
  0
LINE
  5
2D3D4
  8
0
 10
5924.8884450409095734
 20
287.4615280884905815
 30
0.0
 11
5924.8792448378198969
 21
287.4673667149672838
 31
0.0
  0
LINE
  5
2D3D5
  8
0
 10
5924.8675939941367687
 20
287.4328290848253005
 30
0.0
 11
5924.8591981115368981
 21
287.4397747630620188
 31
0.0
  0
LINE
  5
2D3D6
  8
0
 10
5924.8819700824060419
 20
287.4345366823823156
 30
0.0
 11
5924.8912634746238837
 21
287.4473279395036798
 31
0.0
  0
LINE
  5
2D3D7
  8
0
 10
5924.8761598265164139
 20
287.4811682620949114
 30
0.0
 11
5924.8822897222516985
 21
287.4906677697189252
 31
0.0
  0
ARC
  5
2D3D8
  8
0
 10
5924.8846031057628352
 20
287.4758099941394107
 30
0.0
 40
0.0099999999906408
 50
147.5999957954562092
 51
237.6000000224925941
  0
ARC
  5
2D3D9
  8
0
 10
5924.8830867729684542
 20
287.4530848092218207
 30
0.0
 40
0.0099999999449909
 50
324.852244320804914
 51
57.6000000915494113
  0
ARC
  5
2D3DA
  8
0
 10
5924.8739682341465596
 20
287.4405342172472047
 30
0.0
 40
0.0100000000000013
 50
230.400000000287406
 51
323.1477555441891241
  0
ARC
  5
2D3DB
  8
0
 10
5924.8528241895000974
 20
287.432070555282678
 30
0.0
 40
0.0099990849401516
 50
50.3980261092146478
 51
132.9096308425569077
  0
LINE
  5
2D3DC
  8
0
 10
5924.9045200211276097
 20
287.4868588455527174
 30
0.0
 11
5924.8953198182580309
 21
287.4926974719271016
 31
0.0
  0
LINE
  5
2D3DD
  8
0
 10
5924.9185687309245623
 20
287.4903547798218142
 30
0.0
 11
5924.9261856723533128
 21
287.5042099449574948
 31
0.0
  0
ARC
  5
2D3DE
  8
0
 10
5924.9173519193363973
 20
287.5088966075801977
 30
0.0
 40
0.0099999999449909
 50
332.0522443208024015
 51
54.9825760349494814
  0
ARC
  5
2D3DF
  8
0
 10
5924.9098782891924202
 20
287.4953021248161917
 30
0.0
 40
0.0100000000000013
 50
237.6000000003240871
 51
330.3477555441936033
  0
ARC
  5
2D3E0
  8
0
 10
5924.8899617497727377
 20
287.48425514986792
 30
0.0
 40
0.0099990849401543
 50
57.598026109241971
 51
140.1096308425339032
  0
LINE
  5
2D3E1
  8
0
 10
5924.5070748659918536
 20
287.2346293581038026
 30
0.0
 11
5924.5057091748531093
 21
287.2454399170043757
 31
0.0
  0
LINE
  5
2D3E2
  8
0
 10
5924.4716709461890787
 20
287.2324019323509106
 30
0.0
 11
5924.4716709462672952
 21
287.2432984130115869
 31
0.0
  0
LINE
  5
2D3E3
  8
0
 10
5924.4821503362618387
 20
287.2224134296076841
 30
0.0
 11
5924.4979300004124525
 21
287.2234062019820726
 31
0.0
  0
LINE
  5
2D3E4
  8
0
 10
5924.5143769894712023
 20
287.2566143963032914
 30
0.0
 11
5924.5256038284933311
 21
287.2579464445120152
 31
0.0
  0
ARC
  5
2D3E5
  8
0
 10
5924.5156303217972891
 20
287.246693249292889
 30
0.0
 40
0.0099999999906406
 50
97.1999957954385962
 51
187.2000000225027918
  0
ARC
  5
2D3E6
  8
0
 10
5924.4971537189740047
 20
287.2333760257533868
 30
0.0
 40
0.0099999999449908
 50
274.4522443208122127
 51
7.2000000915489757
  0
ARC
  5
2D3E7
  8
0
 10
5924.4816709462565996
 20
287.2324019322593927
 30
0.0
 40
0.0100000000000011
 50
180.0000000003061018
 51
272.747755544184713
  0
LINE
  5
2D3E8
  8
0
 10
5924.571684706634187
 20
287.2450369547838136
 30
0.0
 11
5924.5689748620716273
 21
287.2555911027118896
 31
0.0
  0
LINE
  5
2D3E9
  8
0
 10
5924.536839127784333
 20
287.2383898051983806
 30
0.0
 11
5924.5354734367047058
 21
287.2492003638641904
 31
0.0
  0
LINE
  5
2D3EA
  8
0
 10
5924.5484877760836753
 20
287.2297934806264266
 30
0.0
 11
5924.564018585496342
 21
287.2327561410264138
 31
0.0
  0
LINE
  5
2D3EB
  8
0
 10
5924.576173794758688
 20
287.2677638331380194
 30
0.0
 11
5924.5871451568928023
 21
287.270492473786021
 31
0.0
  0
ARC
  5
2D3EC
  8
0
 10
5924.578660693621714
 20
287.2580780015280766
 30
0.0
 40
0.0099999999906406
 50
104.3999957954386986
 51
194.4000000224997962
  0
ARC
  5
2D3ED
  8
0
 10
5924.5619988750177072
 20
287.2425500558967997
 30
0.0
 40
0.0099999999449908
 50
281.6522443207824722
 51
14.4000000915523003
  0
ARC
  5
2D3EE
  8
0
 10
5924.5467602748767604
 20
287.2396431374518215
 30
0.0
 40
0.0100000000000011
 50
187.2000000003073126
 51
279.9477555441657159
  0
ARC
  5
2D3EF
  8
0
 10
5924.5255531543680263
 20
287.2479474879777968
 30
0.0
 40
0.0099990849401504
 50
7.198026109236527
 51
89.7096308425607134
  0
ENDSEC
  0
EOF
